  0
SECTION
  2
HEADER
  9
$ACADVER
  1
AC1015
  9
$ACADMAINTVER
 70
     6
  9
$DWGCODEPAGE
  3
ANSI_1252
  9
$INSBASE
 10
0.0
 20
0.0
 30
0.0
  9
$EXTMIN
 10
9147.799213
 20
-14776.035433
 30
0.0
  9
$EXTMAX
 10
9484.401575
 20
-14558.232283
 30
0.0
  9
$LIMMIN
 10
8514.254119
 20
-15468.980133
  9
$LIMMAX
 10
10117.946669
 20
-13865.287583
  9
$ORTHOMODE
 70
     0
  9
$REGENMODE
 70
     1
  9
$FILLMODE
 70
     1
  9
$QTEXTMODE
 70
     0
  9
$MIRRTEXT
 70
     1
  9
$LTSCALE
 40
1.0
  9
$ATTMODE
 70
     1
  9
$TEXTSIZE
 40
1.125
  9
$TRACEWID
 40
0.05
  9
$TEXTSTYLE
  7
Style 1
  9
$CLAYER
  8
0
  9
$CELTYPE
  6
ByLayer
  9
$CECOLOR
 62
   256
  9
$CELTSCALE
 40
1.0
  9
$DISPSILH
 70
     0
  9
$DIMSCALE
 40
1.0
  9
$DIMASZ
 40
1.125
  9
$DIMEXO
 40
0.5625
  9
$DIMDLI
 40
0.0
  9
$DIMRND
 40
0.0
  9
$DIMDLE
 40
0.0
  9
$DIMEXE
 40
0.84375
  9
$DIMTP
 40
0.0
  9
$DIMTM
 40
0.0
  9
$DIMTXT
 40
1.125
  9
$DIMCEN
 40
0.09
  9
$DIMTSZ
 40
0.0
  9
$DIMTOL
 70
     0
  9
$DIMLIM
 70
     0
  9
$DIMTIH
 70
     0
  9
$DIMTOH
 70
     0
  9
$DIMSE1
 70
     0
  9
$DIMSE2
 70
     0
  9
$DIMTAD
 70
     1
  9
$DIMZIN
 70
    11
  9
$DIMBLK
  1

  9
$DIMASO
 70
     1
  9
$DIMSHO
 70
     1
  9
$DIMPOST
  1

  9
$DIMAPOST
  1

  9
$DIMALT
 70
     0
  9
$DIMALTD
 70
     4
  9
$DIMALTF
 40
0.0254
  9
$DIMLFAC
 40
1.0
  9
$DIMTOFL
 70
     0
  9
$DIMTVP
 40
0.0
  9
$DIMTIX
 70
     0
  9
$DIMSOXD
 70
     0
  9
$DIMSAH
 70
     0
  9
$DIMBLK1
  1

  9
$DIMBLK2
  1

  9
$DIMSTYLE
  2
Style 1
  9
$DIMCLRD
 70
     1
  9
$DIMCLRE
 70
     1
  9
$DIMCLRT
 70
     1
  9
$DIMTFAC
 40
1.0
  9
$DIMGAP
 40
0.5625
  9
$DIMJUST
 70
     0
  9
$DIMSD1
 70
     0
  9
$DIMSD2
 70
     0
  9
$DIMTOLJ
 70
     0
  9
$DIMTZIN
 70
    11
  9
$DIMALTZ
 70
    15
  9
$DIMALTTZ
 70
    15
  9
$DIMUPT
 70
     1
  9
$DIMDEC
 70
     4
  9
$DIMTDEC
 70
     4
  9
$DIMALTU
 70
     2
  9
$DIMALTTD
 70
     4
  9
$DIMTXSTY
  7
STD SHEET
  9
$DIMAUNIT
 70
     0
  9
$DIMADEC
 70
     4
  9
$DIMALTRND
 40
0.0
  9
$DIMAZIN
 70
     3
  9
$DIMDSEP
 70
    46
  9
$DIMATFIT
 70
     3
  9
$DIMFRAC
 70
     0
  9
$DIMLDRBLK
  1

  9
$DIMLUNIT
 70
     4
  9
$DIMLWD
 70
    13
  9
$DIMLWE
 70
    13
  9
$DIMTMOVE
 70
     0
  9
$LUNITS
 70
     4
  9
$LUPREC
 70
     4
  9
$SKETCHINC
 40
0.1
  9
$FILLETRAD
 40
0.5
  9
$AUNITS
 70
     0
  9
$AUPREC
 70
     4
  9
$MENU
  1
.
  9
$ELEVATION
 40
0.0
  9
$PELEVATION
 40
0.0
  9
$THICKNESS
 40
0.0
  9
$LIMCHECK
 70
     0
  9
$CHAMFERA
 40
0.5
  9
$CHAMFERB
 40
0.5
  9
$CHAMFERC
 40
1.0
  9
$CHAMFERD
 40
0.0
  9
$SKPOLY
 70
     0
  9
$TDCREATE
 40
2451789.32913537
  9
$TDUCREATE
 40
2451789.537468704
  9
$TDUPDATE
 40
2451789.329227963
  9
$TDUUPDATE
 40
2451789.537561297
  9
$TDINDWG
 40
0.0000927662
  9
$TDUSRTIMER
 40
0.0000925926
  9
$USRTIMER
 70
     1
  9
$ANGBASE
 50
0.0
  9
$ANGDIR
 70
     0
  9
$PDMODE
 70
     0
  9
$PDSIZE
 40
0.0
  9
$PLINEWID
 40
0.0
  9
$SPLFRAME
 70
     0
  9
$SPLINETYPE
 70
     6
  9
$SPLINESEGS
 70
     8
  9
$HANDSEED
  5
19433
  9
$SURFTAB1
 70
     6
  9
$SURFTAB2
 70
     6
  9
$SURFTYPE
 70
     6
  9
$SURFU
 70
     6
  9
$SURFV
 70
     6
  9
$UCSBASE
  2

  9
$UCSNAME
  2

  9
$UCSORG
 10
0.0
 20
0.0
 30
0.0
  9
$UCSXDIR
 10
1.0
 20
0.0
 30
0.0
  9
$UCSYDIR
 10
0.0
 20
1.0
 30
0.0
  9
$UCSORTHOREF
  2

  9
$UCSORTHOVIEW
 70
     0
  9
$UCSORGTOP
 10
0.0
 20
0.0
 30
0.0
  9
$UCSORGBOTTOM
 10
0.0
 20
0.0
 30
0.0
  9
$UCSORGLEFT
 10
0.0
 20
0.0
 30
0.0
  9
$UCSORGRIGHT
 10
0.0
 20
0.0
 30
0.0
  9
$UCSORGFRONT
 10
0.0
 20
0.0
 30
0.0
  9
$UCSORGBACK
 10
0.0
 20
0.0
 30
0.0
  9
$PUCSBASE
  2

  9
$PUCSNAME
  2

  9
$PUCSORG
 10
0.0
 20
0.0
 30
0.0
  9
$PUCSXDIR
 10
1.0
 20
0.0
 30
0.0
  9
$PUCSYDIR
 10
0.0
 20
1.0
 30
0.0
  9
$PUCSORTHOREF
  2

  9
$PUCSORTHOVIEW
 70
     0
  9
$PUCSORGTOP
 10
0.0
 20
0.0
 30
0.0
  9
$PUCSORGBOTTOM
 10
0.0
 20
0.0
 30
0.0
  9
$PUCSORGLEFT
 10
0.0
 20
0.0
 30
0.0
  9
$PUCSORGRIGHT
 10
0.0
 20
0.0
 30
0.0
  9
$PUCSORGFRONT
 10
0.0
 20
0.0
 30
0.0
  9
$PUCSORGBACK
 10
0.0
 20
0.0
 30
0.0
  9
$USERI1
 70
     0
  9
$USERI2
 70
     0
  9
$USERI3
 70
     0
  9
$USERI4
 70
     0
  9
$USERI5
 70
     0
  9
$USERR1
 40
0.0
  9
$USERR2
 40
0.0
  9
$USERR3
 40
0.0
  9
$USERR4
 40
0.0
  9
$USERR5
 40
0.0
  9
$WORLDVIEW
 70
     1
  9
$SHADEDGE
 70
     3
  9
$SHADEDIF
 70
    70
  9
$TILEMODE
 70
     1
  9
$MAXACTVP
 70
    64
  9
$PINSBASE
 10
0.0
 20
0.0
 30
0.0
  9
$PLIMCHECK
 70
     0
  9
$PEXTMIN
 10
1.000000E+20
 20
1.000000E+20
 30
1.000000E+20
  9
$PEXTMAX
 10
-1.000000E+20
 20
-1.000000E+20
 30
-1.000000E+20
  9
$PLIMMIN
 10
0.0
 20
0.0
  9
$PLIMMAX
 10
12.0
 20
9.0
  9
$UNITMODE
 70
     0
  9
$VISRETAIN
 70
     1
  9
$PLINEGEN
 70
     0
  9
$PSLTSCALE
 70
     0
  9
$TREEDEPTH
 70
  3020
  9
$CMLSTYLE
  2
Standard
  9
$CMLJUST
 70
     0
  9
$CMLSCALE
 40
1.0
  9
$PROXYGRAPHICS
 70
     1
  9
$MEASUREMENT
 70
     0
  9
$CELWEIGHT
370
    -1
  9
$ENDCAPS
280
     0
  9
$JOINSTYLE
280
     0
  9
$LWDISPLAY
290
     1
  9
$INSUNITS
 70
     1
  9
$HYPERLINKBASE
  1

  9
$STYLESHEET
  1

  9
$XEDIT
290
     1
  9
$CEPSNTYPE
380
     0
  9
$PSTYLEMODE
290
     1
  9
$FINGERPRINTGUID
  2
{FDEAD576-A652-11D2-9A35-0060089B3A3F}
  9
$VERSIONGUID
  2
{A257D680-BC79-11D2-9A46-0060089B3A3F}
  9
$EXTNAMES
290
     1
  9
$PSVPSCALE
 40
0.0
  9
$OLESTARTUP
290
     0
  0
ENDSEC
  0
SECTION
  2
CLASSES
  0
CLASS
  1
ACDBDICTIONARYWDFLT
  2
AcDbDictionaryWithDefault
  3
ObjectDBX Classes
 90
        0
280
     0
281
     0
  0
CLASS
  1
ACDBPLACEHOLDER
  2
AcDbPlaceHolder
  3
ObjectDBX Classes
 90
        0
280
     0
281
     0
  0
CLASS
  1
LAYOUT
  2
AcDbLayout
  3
ObjectDBX Classes
 90
        0
280
     0
281
     0
  0
ENDSEC
  0
SECTION
  2
TABLES
  0
TABLE
  2
VPORT
  5
19415
330
0
100
AcDbSymbolTable
 70
     3
  0
VPORT
  5
4B
330
19415
100
AcDbSymbolTableRecord
100
AcDbViewportTableRecord
  2
*ACTIVE
 70
     0
 10
0.0
 20
0.0
 11
1.0
 21
1.0
 12
9316.100394
 22
-14667.133858
 13
0.0
 23
0.0
 14
3.937008
 24
3.937008
 15
1.0
 25
1.0
 16
0.0
 26
0.0
 36
1.0
 17
0.0
 27
0.0
 37
0.0
 40
226.515276
 41
1.828014
 42
50.0
 43
0.0
 44
0.0
 50
0.0
 51
0.0
 71
     0
 72
   100
 73
     1
 74
     2
 75
     0
 76
     0
 77
     0
 78
     1
281
     0
 65
     1
110
0.0
120
0.0
130
0.0
111
1.0
121
0.0
131
0.0
112
0.0
122
1.0
132
0.0
 79
     0
146
0.0
  0
ENDTAB
  0
TABLE
  2
LTYPE
  5
19411
330
0
100
AcDbSymbolTable
 70
     4
  0
LTYPE
  5
19412
330
19411
100
AcDbSymbolTableRecord
100
AcDbLinetypeTableRecord
  2
ByBlock
 70
     0
  3

 72
    65
 73
     0
 40
0.0
  0
LTYPE
  5
19403
330
19411
100
AcDbSymbolTableRecord
100
AcDbLinetypeTableRecord
  2
ByLayer
 70
     0
  3

 72
    65
 73
     0
 40
0.0
  0
LTYPE
  5
19401
330
19411
100
AcDbSymbolTableRecord
100
AcDbLinetypeTableRecord
  2
Continuous
 70
     0
  3
Solid line
 72
    65
 73
     0
 40
0.0
  0
LTYPE
  5
19420
330
19411
100
AcDbSymbolTableRecord
100
AcDbLinetypeTableRecord
  2
DGN Style 6
 70
     0
  3
Dgn Style 6
 72
    65
 73
     6
 40
7.875671
 49
0.004141
 74
     0
 49
-1.656293
 74
     0
 49
2.898512
 74
     0
 49
-1.656293
 74
     0
 49
0.004141
 74
     0
 49
-1.656293
 74
     0
  0
LTYPE
  5
1942A
330
19411
100
AcDbSymbolTableRecord
100
AcDbLinetypeTableRecord
  2
DGN Style 1
 70
     0
  3
Dgn Style 1
 72
    65
 73
     2
 40
2.48858
 49
0.004141
 74
     0
 49
-2.484439
 74
     0
  0
LTYPE
  5
1942B
330
19411
100
AcDbSymbolTableRecord
100
AcDbLinetypeTableRecord
  2
DGN Style 3
 70
     0
  3
Dgn Style 3
 72
    65
 73
     2
 40
5.797024
 49
4.140731
 74
     0
 49
-1.656293
 74
     0
  0
ENDTAB
  0
TABLE
  2
LAYER
  5
1940F
102
{ACAD_XDICTIONARY
360
19421
102
}
330
0
100
AcDbSymbolTable
 70
    22
  0
LAYER
  5
193FF
330
1940F
100
AcDbSymbolTableRecord
100
AcDbLayerTableRecord
  2
0
 70
     0
 62
     7
  6
Continuous
370
    13
390
19400
  0
LAYER
  5
5CCB
330
1940F
100
AcDbSymbolTableRecord
100
AcDbLayerTableRecord
  2
14
 70
     0
 62
     7
  6
Continuous
370
     0
390
19400
  0
LAYER
  5
5CCC
330
1940F
100
AcDbSymbolTableRecord
100
AcDbLayerTableRecord
  2
63
 70
     0
 62
     7
  6
Continuous
370
     0
390
19400
  0
LAYER
  5
129EE
330
1940F
100
AcDbSymbolTableRecord
100
AcDbLayerTableRecord
  2
Level 20
 70
     0
 62
     7
  6
Continuous
370
     0
390
19400
  0
LAYER
  5
129EF
330
1940F
100
AcDbSymbolTableRecord
100
AcDbLayerTableRecord
  2
Level 7
 70
     0
 62
     7
  6
Continuous
370
     0
390
19400
  0
LAYER
  5
129F0
330
1940F
100
AcDbSymbolTableRecord
100
AcDbLayerTableRecord
  2
Level 61
 70
     0
 62
     7
  6
Continuous
370
     0
390
19400
  0
LAYER
  5
129F1
330
1940F
100
AcDbSymbolTableRecord
100
AcDbLayerTableRecord
  2
Level 1
 70
     0
 62
     7
  6
Continuous
370
     0
390
19400
  0
LAYER
  5
129F2
330
1940F
100
AcDbSymbolTableRecord
100
AcDbLayerTableRecord
  2
Level 2
 70
     0
 62
     7
  6
Continuous
370
     0
390
19400
  0
LAYER
  5
129F3
330
1940F
100
AcDbSymbolTableRecord
100
AcDbLayerTableRecord
  2
Level 14
 70
     0
 62
     7
  6
Continuous
370
     0
390
19400
  0
LAYER
  5
129F4
330
1940F
100
AcDbSymbolTableRecord
100
AcDbLayerTableRecord
  2
Level 17
 70
     0
 62
     7
  6
Continuous
370
     0
390
19400
  0
LAYER
  5
129F5
330
1940F
100
AcDbSymbolTableRecord
100
AcDbLayerTableRecord
  2
Level 21
 70
     0
 62
     7
  6
Continuous
370
     0
390
19400
  0
LAYER
  5
129F6
330
1940F
100
AcDbSymbolTableRecord
100
AcDbLayerTableRecord
  2
Level 3
 70
     0
 62
     7
  6
Continuous
370
     0
390
19400
  0
LAYER
  5
12C30
330
1940F
100
AcDbSymbolTableRecord
100
AcDbLayerTableRecord
  2
Level 4
 70
     0
 62
     7
  6
Continuous
370
     0
390
19400
  0
LAYER
  5
12C31
330
1940F
100
AcDbSymbolTableRecord
100
AcDbLayerTableRecord
  2
Level 10
 70
     0
 62
     7
  6
Continuous
370
     0
390
19400
  0
LAYER
  5
12C32
330
1940F
100
AcDbSymbolTableRecord
100
AcDbLayerTableRecord
  2
Level 23
 70
     0
 62
     7
  6
Continuous
370
     0
390
19400
  0
LAYER
  5
191E4
330
1940F
100
AcDbSymbolTableRecord
100
AcDbLayerTableRecord
  2
SIDEWALK
 70
     0
 62
     5
  6
Continuous
370
    40
390
19400
  0
LAYER
  5
19269
330
1940F
100
AcDbSymbolTableRecord
100
AcDbLayerTableRecord
  2
REBAR
 70
     0
 62
     3
  6
Continuous
370
    53
390
19400
  0
LAYER
  5
19275
330
1940F
100
AcDbSymbolTableRecord
100
AcDbLayerTableRecord
  2
STRUCTURES TEXT
 70
     0
 62
   250
  6
Continuous
370
    30
390
19400
  0
LAYER
  5
1927D
330
1940F
100
AcDbSymbolTableRecord
100
AcDbLayerTableRecord
  2
CONSTRUCTION LINE
 70
     0
 62
     7
  6
DGN Style 6
370
    40
390
19400
  0
LAYER
  5
19297
330
1940F
100
AcDbSymbolTableRecord
100
AcDbLayerTableRecord
  2
CURBLINE
 70
     0
 62
     5
  6
Continuous
370
    40
390
19400
  0
LAYER
  5
192A0
330
1940F
100
AcDbSymbolTableRecord
100
AcDbLayerTableRecord
  2
Text
 70
     0
 62
   250
  6
Continuous
370
    30
390
19400
  0
LAYER
  5
192A3
330
1940F
100
AcDbSymbolTableRecord
100
AcDbLayerTableRecord
  2
Contour Line
 70
     0
 62
     7
  6
Continuous
370
   106
390
19400
  0
ENDTAB
  0
TABLE
  2
STYLE
  5
19410
330
0
100
AcDbSymbolTable
 70
     9
  0
STYLE
  5
19402
330
19410
100
AcDbSymbolTableRecord
100
AcDbTextStyleTableRecord
  2
Standard
 70
     0
 40
0.0
 41
1.0
 50
0.0
 71
     0
 42
0.2
  3
txt
  4

  0
STYLE
  5
165
330
19410
100
AcDbSymbolTableRecord
100
AcDbTextStyleTableRecord
  2
Style 1
 70
     0
 40
2.3
 41
1.0
 50
0.0
 71
     0
 42
1.125
  3
gen_eng.shx
  4

  0
STYLE
  5
53A
330
19410
100
AcDbSymbolTableRecord
100
AcDbTextStyleTableRecord
  2
Style 2 - FS Sheet
 70
     0
 40
0.1
 41
1.0
 50
0.0
 71
     0
 42
0.2
  3
gen_eng.shx
  4

  0
STYLE
  5
1214
330
19410
100
AcDbSymbolTableRecord
100
AcDbTextStyleTableRecord
  2
Style 1A
 70
     0
 40
2.35
 41
1.0
 50
0.0
 71
     0
 42
0.2
  3
gen_eng.shx
  4

  0
STYLE
  5
1215
330
19410
100
AcDbSymbolTableRecord
100
AcDbTextStyleTableRecord
  2
Style 2A
 70
     0
 40
0.09
 41
1.0
 50
0.0
 71
     0
 42
0.2
  3
gen_eng.shx
  4

  0
STYLE
  5
16350
330
19410
100
AcDbSymbolTableRecord
100
AcDbTextStyleTableRecord
  2
STD SHEET
 70
     0
 40
1.125
 41
1.0
 50
0.0
 71
     0
 42
0.2
  3
gen_eng.shx
  4

  0
STYLE
  5
16719
330
19410
100
AcDbSymbolTableRecord
100
AcDbTextStyleTableRecord
  2
LABELS
 70
     0
 40
1.9375
 41
1.0
 50
0.0
 71
     0
 42
0.2
  3
gen_eng.shx
  4

  0
STYLE
  5
19423
330
19410
100
AcDbSymbolTableRecord
100
AcDbTextStyleTableRecord
  2
Style-Arial
 70
     0
 40
0.0
 41
1.0
 50
0.0
 71
     0
 42
0.2
  3

  4

1001
ACAD
1000
Arial
1071
       39
  0
STYLE
  5
1942C
330
19410
100
AcDbSymbolTableRecord
100
AcDbTextStyleTableRecord
  2
Style-gen_eng
 70
     0
 40
0.0
 41
1.0
 50
0.0
 71
     0
 42
0.2
  3
gen_eng.shx
  4

  0
ENDTAB
  0
TABLE
  2
VIEW
  5
19413
330
0
100
AcDbSymbolTable
 70
     2
  0
VIEW
  5
5AD
330
19413
100
AcDbSymbolTableRecord
100
AcDbViewTableRecord
  2
LASTVU
 70
     0
 40
18.99211
 10
14.128263
 20
98.681151
 41
32.11
 11
0.0
 21
0.0
 31
1.0
 12
0.0
 22
0.0
 32
0.0
 42
50.0
 43
0.0
 44
0.0
 50
0.0
 71
     0
281
     0
 72
     0
  0
VIEW
  5
5AF
330
19413
100
AcDbSymbolTableRecord
100
AcDbViewTableRecord
  2
LASTVUÒÒ\U+d2d2p\U+c300\U+c3c3 U+c3c3
 70
     0
 40
435.826153
 10
1060.057893
 20
-413.602132
 41
743.287283
 11
0.0
 21
0.0
 31
1.0
 12
0.0
 22
0.0
 32
0.0
 42
50.0
 43
0.0
 44
0.0
 50
0.0
 71
     0
281
     0
 72
     0
  0
ENDTAB
  0
TABLE
  2
UCS
  5
19414
330
0
100
AcDbSymbolTable
 70
     0
  0
ENDTAB
  0
TABLE
  2
APPID
  5
19416
330
0
100
AcDbSymbolTable
 70
     1
  0
APPID
  5
1941E
330
19416
100
AcDbSymbolTableRecord
100
AcDbRegAppTableRecord
  2
ACAD
 70
     0
  0
ENDTAB
  0
TABLE
  2
DIMSTYLE
  5
19417
330
0
100
AcDbSymbolTable
 70
     5
100
AcDbDimStyleTable
  0
DIMSTYLE
105
19404
330
19417
100
AcDbSymbolTableRecord
100
AcDbDimStyleTableRecord
  2
Standard
 70
     0
340
19402
  0
DIMSTYLE
105
132
330
19417
100
AcDbSymbolTableRecord
100
AcDbDimStyleTableRecord
  2
Style 1
 70
     0
 41
1.125
 42
0.5625
 43
0.0
 44
0.84375
 73
     0
 74
     0
 77
     1
 78
    11
 79
     3
140
1.125
143
0.0254
147
0.5625
171
     4
176
     1
177
     1
178
     1
179
     4
274
     4
277
     4
283
     0
284
    11
285
    15
286
    15
288
     1
340
16350
371
    13
372
    13
  0
DIMSTYLE
105
4722
330
19417
100
AcDbSymbolTableRecord
100
AcDbDimStyleTableRecord
  2
Style 1a
 70
     0
 41
0.9
 42
0.3
 43
0.0
 44
0.3
 73
     0
 74
     0
 77
     1
 78
    11
 79
     3
140
0.6
143
0.0254
147
0.3
171
     4
176
     1
177
     1
178
     1
179
     4
274
     4
276
     2
279
     1
283
     0
284
    11
285
    15
286
    15
340
19423
342
19424
371
    13
372
    13
  0
DIMSTYLE
105
4B38
330
19417
100
AcDbSymbolTableRecord
100
AcDbDimStyleTableRecord
  2
Style 1b
 70
     0
 41
0.6
 42
0.3
 43
0.0
 44
0.45
 73
     0
 74
     0
 77
     1
 78
    11
 79
     3
140
0.6
143
0.0254
147
0.3
171
     4
176
     1
177
     1
178
     1
179
     4
274
     4
276
     2
283
     0
284
    11
285
    15
286
    15
340
19423
371
    13
372
    13
  0
DIMSTYLE
105
501C
330
19417
100
AcDbSymbolTableRecord
100
AcDbDimStyleTableRecord
  2
Style 2
 70
     0
 41
0.06
 42
0.03
 43
0.0
 44
0.045
 73
     0
 74
     0
 77
     1
 78
    11
 79
     3
140
0.06
143
0.0254
147
0.03
171
     4
176
     1
177
     1
178
     5
179
     4
274
     4
276
     2
283
     0
284
    11
285
    15
286
    15
288
     1
340
19423
371
    13
372
    13
  0
ENDTAB
  0
TABLE
  2
BLOCK_RECORD
  5
19406
330
0
100
AcDbSymbolTable
 70
     2
  0
BLOCK_RECORD
  5
19407
330
19406
100
AcDbSymbolTableRecord
100
AcDbBlockTableRecord
  2
*Model_Space
340
1940A
  0
BLOCK_RECORD
  5
1940B
330
19406
100
AcDbSymbolTableRecord
100
AcDbBlockTableRecord
  2
*Paper_Space
340
1940E
  0
BLOCK_RECORD
  5
19424
330
19406
100
AcDbSymbolTableRecord
100
AcDbBlockTableRecord
  2
TerminatorDot
340
0
  0
BLOCK_RECORD
  5
1942D
330
19406
100
AcDbSymbolTableRecord
100
AcDbBlockTableRecord
  2
Greg's Signature
340
0
102
{BLKREFS
331
193F6
102
}
  0
ENDTAB
  0
ENDSEC
  0
SECTION
  2
BLOCKS
  0
BLOCK
  5
19408
330
19407
100
AcDbEntity
  8
0
100
AcDbBlockBegin
  2
*Model_Space
 70
     0
 71
     0
 10
0.0
 20
0.0
 30
0.0
  3
*Model_Space
  1

  0
ENDBLK
  5
19409
330
19407
100
AcDbEntity
  8
0
100
AcDbBlockEnd
  0
BLOCK
  5
1940C
330
1940B
100
AcDbEntity
 67
     1
  8
0
100
AcDbBlockBegin
  2
*Paper_Space
 70
     0
 71
     0
 10
0.0
 20
0.0
 30
0.0
  3
*Paper_Space
  1

  0
ENDBLK
  5
1940D
330
1940B
100
AcDbEntity
 67
     1
  8
0
100
AcDbBlockEnd
  0
BLOCK
  5
19427
330
19424
100
AcDbEntity
  8
0
100
AcDbBlockBegin
  2
TerminatorDot
 70
     0
 71
     0
 10
0.0
 20
0.0
 30
0.0
  3
TerminatorDot
  1

  0
LWPOLYLINE
  5
19425
330
19424
100
AcDbEntity
  8
0
  6
ByBlock
 62
     0
370
    -2
100
AcDbPolyline
 90
        2
 70
     1
 43
0.5
 10
-0.0625
 20
0.0
 42
1.0
 10
0.0625
 20
0.0
 42
1.0
  0
LINE
  5
19426
330
19424
100
AcDbEntity
  8
0
  6
ByBlock
 62
     0
370
    -2
100
AcDbLine
 10
0.0
 20
0.0
 30
0.0
 11
-1.0
 21
0.0
 31
0.0
  0
ENDBLK
  5
19428
330
19424
100
AcDbEntity
  8
0
100
AcDbBlockEnd
  0
BLOCK
  5
1942E
330
1942D
100
AcDbEntity
  8
0
100
AcDbBlockBegin
  2
Greg's Signature
 70
     0
 71
     0
 10
0.0
 20
0.0
 30
0.0
  3
Greg's Signature
  1

  0
LWPOLYLINE
  5
193F7
330
1942D
100
AcDbEntity
  8
Level 1
370
    30
100
AcDbPolyline
 90
       49
 70
   128
 43
0.0
 10
-742.284353
 20
-59.508477
 10
-724.481442
 20
-62.475629
 10
-713.028978
 20
-56.885515
 10
-697.777076
 20
-47.63987
 10
-685.908469
 20
-35.771263
 10
-671.07271
 20
-26.869807
 10
-657.720526
 20
-13.517624
 10
-650.302647
 20
4.285287
 10
-639.917615
 20
17.63747
 10
-626.565432
 20
29.506077
 10
-616.180401
 20
44.341836
 10
-608.762521
 20
60.661171
 10
-605.79537
 20
79.947658
 10
-602.828218
 20
97.750569
 10
-601.344642
 20
115.55348
 10
-611.729673
 20
133.356391
 10
-628.049008
 20
133.356391
 10
-636.950464
 20
120.004208
 10
-639.917615
 20
103.684873
 10
-639.917615
 20
85.881962
 10
-628.049008
 20
74.013355
 10
-617.663977
 20
59.177596
 10
-602.828218
 20
50.27614
 10
-583.541731
 20
48.792564
 10
-567.222396
 20
51.759716
 10
-556.837365
 20
65.111899
 10
-546.452333
 20
81.431234
 10
-537.550878
 20
75.496931
 10
-540.51803
 20
59.177596
 10
-536.067302
 20
42.858261
 10
-530.132998
 20
28.022501
 10
-524.198695
 20
13.186742
 10
-521.231543
 20
-4.616169
 10
-518.264391
 20
-22.419079
 10
-518.264391
 20
-40.22199
 10
-528.649422
 20
-59.508477
 10
-540.51803
 20
-71.377084
 10
-559.804516
 20
-71.377084
 10
-574.640276
 20
-67.297251
 10
-592.443186
 20
-62.475629
 10
-607.278945
 20
-53.574174
 10
-622.114705
 20
-49.786604
 10
-638.43404
 20
-41.705566
 10
-654.753375
 20
-35.771263
 10
-668.105558
 20
-26.869807
 10
-682.941317
 20
-20.935504
 10
-697.777076
 20
-15.0012
 10
-711.129259
 20
-6.099744
 10
-725.965018
 20
-3.132593
  0
LWPOLYLINE
  5
193F8
330
1942D
100
AcDbEntity
  8
Level 1
370
    30
100
AcDbPolyline
 90
       96
 70
   128
 43
0.0
 10
-494.156282
 20
-99.565027
 10
-489.705555
 20
-82.503904
 10
-487.480191
 20
-66.184569
 10
-485.254827
 20
-49.865234
 10
-482.287675
 20
-33.545899
 10
-476.353372
 20
-17.226564
 10
-466.710128
 20
-3.874381
 10
-454.099733
 20
-13.517624
 10
-446.681853
 20
-35.771263
 10
-443.714702
 20
-52.090598
 10
-433.32967
 20
-63.959205
 10
-411.81782
 20
-72.118872
 10
-399.949212
 20
-60.992053
 10
-389.564181
 20
-47.63987
 10
-379.920938
 20
-35.029475
 10
-374.728422
 20
-19.451928
 10
-368.794118
 20
-3.874381
 10
-371.019482
 20
12.444954
 10
-392.531333
 20
15.412106
 10
-392.531333
 20
-0.907229
 10
-392.531333
 20
-17.226564
 10
-390.305969
 20
-33.545899
 10
-384.371665
 20
-49.123446
 10
-365.826966
 20
-50.607022
 10
-355.441935
 20
-38.738414
 10
-350.249419
 20
-22.419079
 10
-335.41366
 20
-15.742988
 10
-319.094325
 20
-15.742988
 10
-300.549626
 20
-29.836959
 10
-305.742142
 20
-50.607022
 10
-322.061477
 20
-52.090598
 10
-330.962933
 20
-38.738414
 10
-330.221145
 20
-21.677291
 10
-325.028629
 20
-5.357956
 10
-310.934658
 20
2.059923
 10
-294.615323
 20
5.027075
 10
-281.26314
 20
-14.259412
 10
-276.812412
 20
-30.578747
 10
-272.361684
 20
-46.156294
 10
-267.169169
 20
-61.733841
 10
-264.943805
 20
-78.053176
 10
-264.943805
 20
-95.114299
 10
-276.812412
 20
-115.142574
 10
-289.422807
 20
-125.527605
 10
-303.516778
 20
-134.429061
 10
-319.836113
 20
-135.170848
 10
-326.512205
 20
-112.91721
 10
-322.061477
 20
-97.339663
 10
-311.676446
 20
-85.471056
 10
-300.22732
 20
-76.999095
 10
-287.939231
 20
-66.926357
 10
-267.910956
 20
-55.057749
 10
-251.591621
 20
-37.996626
 10
-245.920653
 20
-24.644443
 10
-234.530499
 20
-9.808684
 10
-224.887255
 20
2.801711
 10
-203.375404
 20
-1.649017
 10
-199.666465
 20
-17.968352
 10
-199.666465
 20
-34.287687
 10
-205.600768
 20
-49.865234
 10
-218.211164
 20
-59.508477
 10
-233.788711
 20
-64.700993
 10
-247.882682
 20
-57.283113
 10
-250.849834
 20
-41.705566
 10
-247.140894
 20
-26.128019
 10
-237.49765
 20
-12.775836
 10
-222.661891
 20
-6.841532
 10
-201.150041
 20
-16.484776
 10
-179.63819
 20
-23.902655
 10
-161.093491
 20
-12.034048
 10
-151.450248
 20
0.576347
 10
-143.29058
 20
15.412106
 10
-137.356277
 20
31.731441
 10
-137.356277
 20
23.571774
 10
-138.839852
 20
7.252439
 10
-132.163761
 20
-7.58332
 10
-112.877274
 20
-2.390805
 10
-102.492243
 20
10.219591
 10
-101.008667
 20
9.477803
 10
-103.234031
 20
-6.841532
 10
-94.332575
 20
-21.677291
 10
-82.463968
 20
-32.804111
 10
-81.72218
 20
-49.123446
 10
-81.72218
 20
-65.442781
 10
-90.623635
 20
-78.794964
 10
-102.492243
 20
-89.921783
 10
-118.06979
 20
-96.597875
 10
-133.647337
 20
-100.306815
 10
-143.29058
 20
-87.696419
 10
-132.905549
 20
-73.602448
 10
-118.811578
 20
-63.959205
 10
-102.492243
 20
-60.992053
 10
-89.14006
 20
-52.090598
 10
-66.144633
 20
-47.63987
 10
-54.276026
 20
-66.184569
 10
-52.79245
 20
-65.442781
  0
LWPOLYLINE
  5
193F9
330
1942D
100
AcDbEntity
  8
Level 1
370
    30
100
AcDbPolyline
 90
      123
 70
   128
 43
0.0
 10
30.287801
 20
74.013355
 10
31.029589
 20
65.853687
 10
31.029589
 20
57.69402
 10
31.029589
 20
49.534352
 10
31.029589
 20
40.632897
 10
29.546013
 20
32.473229
 10
28.062437
 20
24.313562
 10
28.062437
 20
16.153894
 10
28.062437
 20
7.994227
 10
28.062437
 20
-0.165441
 10
28.804225
 20
-8.325108
 10
29.546013
 20
-16.484776
 10
29.546013
 20
-24.644443
 10
30.287801
 20
-32.804111
 10
31.771377
 20
-40.963778
 10
32.513165
 20
-49.865234
 10
33.254953
 20
-58.024901
 10
35.480317
 20
-66.184569
 10
40.672832
 20
-72.118872
 10
45.12356
 20
-78.794964
 10
47.348924
 20
-70.635296
 10
50.316076
 20
-63.217417
 10
52.54144
 20
-55.057749
 10
53.283228
 20
-46.898082
 10
53.283228
 20
-38.738414
 10
53.283228
 20
-30.578747
 10
54.025016
 20
-22.419079
 10
54.025016
 20
-14.259412
 10
54.766804
 20
-6.099744
 10
55.508592
 20
2.059923
 10
56.250379
 20
10.219591
 10
56.250379
 20
18.379258
 10
56.250379
 20
26.538926
 10
56.250379
 20
34.698593
 10
56.250379
 20
42.858261
 10
56.250379
 20
51.017928
 10
56.250379
 20
59.177596
 10
56.992167
 20
67.337263
 10
58.475743
 20
75.496931
 10
59.959319
 20
84.398386
 10
62.184683
 20
92.558053
 10
64.410047
 20
100.717721
 10
65.151835
 20
108.877388
 10
68.118987
 20
116.295268
 10
71.086139
 20
123.713148
 10
74.05329
 20
131.131027
 10
78.504018
 20
138.548907
 10
85.921898
 20
141.516058
 10
94.081565
 20
140.77427
 10
102.241233
 20
138.548907
 10
107.433748
 20
132.614603
 10
111.142688
 20
125.196723
 10
115.593416
 20
118.520632
 10
119.302356
 20
111.102752
 10
120.785931
 20
102.943085
 10
121.527719
 20
94.783417
 10
121.527719
 20
86.62375
 10
121.527719
 20
78.464082
 10
121.527719
 20
70.304415
 10
121.527719
 20
62.144747
 10
120.044144
 20
53.98508
 10
115.593416
 20
47.308988
 10
109.659112
 20
42.116473
 10
104.466596
 20
36.182169
 10
101.499445
 20
28.764289
 10
97.048717
 20
22.088198
 10
92.597989
 20
15.412106
 10
89.630837
 20
7.994227
 10
82.954746
 20
3.543499
 10
75.536866
 20
-0.165441
 10
68.860775
 20
-5.357956
 10
61.442895
 20
-9.808684
 10
55.508592
 20
-15.0012
 10
49.574288
 20
-20.935504
 10
45.12356
 20
-27.611595
 10
39.189257
 20
-32.804111
 10
34.738529
 20
-39.480202
 10
30.287801
 20
-46.156294
 10
24.353497
 20
-52.832386
 10
19.90277
 20
-59.508477
 10
16.935618
 20
-66.926357
 10
12.48489
 20
-73.602448
 10
9.517738
 20
-81.020328
 10
8.034162
 20
-89.179995
 10
11.001314
 20
-96.597875
 10
18.419194
 20
-99.565027
 10
26.578861
 20
-100.306815
 10
34.738529
 20
-102.532178
 10
42.898196
 20
-104.015754
 10
51.057864
 20
-104.757542
 10
59.217531
 20
-104.757542
 10
68.118987
 20
-104.757542
 10
76.278654
 20
-104.757542
 10
84.438322
 20
-104.757542
 10
92.597989
 20
-104.757542
 10
100.757657
 20
-104.757542
 10
108.917324
 20
-104.757542
 10
117.076992
 20
-104.757542
 10
123.011295
 20
-98.823239
 10
130.429175
 20
-95.856087
 10
137.105266
 20
-91.405359
 10
143.781358
 20
-85.471056
 10
146.74851
 20
-78.053176
 10
149.715662
 20
-70.635296
 10
154.166389
 20
-63.959205
 10
157.133541
 20
-56.541325
 10
159.358905
 20
-48.381658
 10
160.842481
 20
-40.22199
 10
160.842481
 20
-32.062323
 10
155.649965
 20
-26.128019
 10
149.715662
 20
-20.935504
 10
143.781358
 20
-15.0012
 10
138.588842
 20
-8.325108
 10
131.170963
 20
-3.874381
 10
123.753083
 20
0.576347
 10
115.593416
 20
2.059923
 10
107.433748
 20
3.543499
 10
99.274081
 20
5.027075
 10
90.372625
 20
5.027075
 10
81.47117
 20
5.027075
 10
73.311502
 20
5.027075
 10
65.151835
 20
6.510651
 10
65.151835
 20
6.510651
  0
LWPOLYLINE
  5
193FA
330
1942D
100
AcDbEntity
  8
Level 1
370
    30
100
AcDbPolyline
 90
       61
 70
   128
 43
0.0
 10
261.725643
 20
-58.766689
 10
263.209219
 20
-50.607022
 10
263.209219
 20
-42.447354
 10
263.209219
 20
-34.287687
 10
256.533127
 20
-28.353383
 10
250.598823
 20
-22.419079
 10
246.148096
 20
-15.742988
 10
239.472004
 20
-11.29226
 10
232.795913
 20
-6.841532
 10
225.378033
 20
-3.874381
 10
217.218366
 20
-3.874381
 10
209.058698
 20
-6.841532
 10
203.124394
 20
-12.034048
 10
196.448303
 20
-17.226564
 10
190.513999
 20
-22.419079
 10
186.063271
 20
-29.095171
 10
183.09612
 20
-36.513051
 10
178.645392
 20
-43.189142
 10
175.67824
 20
-50.607022
 10
180.870756
 20
-56.541325
 10
186.063271
 20
-62.475629
 10
194.964727
 20
-64.700993
 10
203.124394
 20
-64.700993
 10
211.284062
 20
-64.700993
 10
218.701941
 20
-61.733841
 10
223.894457
 20
-55.057749
 10
229.086973
 20
-49.123446
 10
234.279488
 20
-42.447354
 10
241.697368
 20
-37.996626
 10
250.598823
 20
-37.996626
 10
259.500279
 20
-38.738414
 10
266.918158
 20
-41.705566
 10
274.336038
 20
-44.672718
 10
281.01213
 20
-49.123446
 10
289.171797
 20
-49.123446
 10
291.397161
 20
-40.963778
 10
293.622525
 20
-32.804111
 10
294.364313
 20
-23.902655
 10
294.364313
 20
-15.742988
 10
291.397161
 20
-23.160867
 10
289.913585
 20
-31.320535
 10
289.913585
 20
-39.480202
 10
289.913585
 20
-47.63987
 10
290.655373
 20
-55.799537
 10
298.073253
 20
-59.508477
 10
305.491132
 20
-63.959205
 10
313.6508
 20
-66.184569
 10
321.810467
 20
-66.926357
 10
329.970135
 20
-66.926357
 10
338.129802
 20
-65.442781
 10
344.805894
 20
-60.992053
 10
349.256621
 20
-53.574174
 10
355.190925
 20
-48.381658
 10
359.641653
 20
-40.963778
 10
365.575956
 20
-35.771263
 10
372.252048
 20
-31.320535
 10
378.186352
 20
-25.386231
 10
384.120655
 20
-19.451928
 10
390.796747
 20
-15.0012
 10
397.472838
 20
-10.550472
 10
401.923566
 20
-4.616169
  0
LWPOLYLINE
  5
193FB
330
1942D
100
AcDbEntity
  8
Level 1
370
    30
100
AcDbPolyline
 90
       11
 70
   128
 43
0.0
 10
284.721069
 20
117.037056
 10
284.721069
 20
108.877388
 10
290.655373
 20
103.684873
 10
298.81504
 20
101.459509
 10
306.974708
 20
102.201297
 10
308.458284
 20
110.360964
 10
302.52398
 20
115.55348
 10
296.589677
 20
121.487784
 10
288.430009
 20
121.487784
 10
281.01213
 20
118.520632
 10
281.01213
 20
113.328116
  0
LWPOLYLINE
  5
193FC
330
1942D
100
AcDbEntity
  8
Level 1
370
    30
100
AcDbPolyline
 90
      123
 70
   128
 43
0.0
 10
403.407142
 20
-4.616169
 10
407.85787
 20
2.059923
 10
412.308597
 20
8.736015
 10
416.759325
 20
15.412106
 10
421.951841
 20
21.34641
 10
428.627932
 20
25.797138
 10
433.820448
 20
31.731441
 10
438.271176
 20
39.149321
 10
441.980116
 20
46.5672
 10
447.172631
 20
53.98508
 10
451.623359
 20
61.402959
 10
454.590511
 20
68.820839
 10
459.041239
 20
76.980506
 10
462.750178
 20
85.140174
 10
466.459118
 20
93.299841
 10
469.42627
 20
100.717721
 10
472.393422
 20
108.1356
 10
475.360574
 20
115.55348
 10
477.585937
 20
123.713148
 10
480.553089
 20
131.131027
 10
482.036665
 20
139.290695
 10
483.520241
 20
147.450362
 10
482.036665
 20
155.61003
 10
476.844149
 20
161.544333
 10
469.42627
 20
164.511485
 10
461.266602
 20
165.995061
 10
453.848723
 20
161.544333
 10
447.172631
 20
157.093605
 10
439.754752
 20
154.126454
 10
433.820448
 20
148.933938
 10
429.36972
 20
142.257846
 10
424.918993
 20
135.581755
 10
418.984689
 20
129.647451
 10
417.501113
 20
121.487784
 10
414.533961
 20
114.069904
 10
411.566809
 20
106.652025
 10
407.116082
 20
99.975933
 10
404.14893
 20
92.558053
 10
399.698202
 20
85.881962
 10
398.214626
 20
77.722294
 10
393.763899
 20
71.046203
 10
392.280323
 20
62.886535
 10
389.313171
 20
54.726868
 10
386.346019
 20
46.5672
 10
383.378867
 20
39.149321
 10
383.378867
 20
30.989653
 10
383.378867
 20
22.829986
 10
384.862443
 20
14.670318
 10
388.571383
 20
7.252439
 10
391.538535
 20
-0.907229
 10
395.247475
 20
-8.325108
 10
401.181778
 20
-13.517624
 10
408.599658
 20
-16.484776
 10
415.275749
 20
-21.677291
 10
423.435417
 20
-23.160867
 10
430.853296
 20
-27.611595
 10
438.271176
 20
-30.578747
 10
447.172631
 20
-31.320535
 10
455.332299
 20
-31.320535
 10
459.783027
 20
-24.644443
 10
464.233754
 20
-17.968352
 10
467.942694
 20
-9.808684
 10
470.909846
 20
-1.649017
 10
471.651634
 20
6.510651
 10
473.876998
 20
15.412106
 10
467.942694
 20
20.604622
 10
464.975542
 20
12.444954
 10
462.00839
 20
5.027075
 10
462.00839
 20
-3.132593
 10
462.00839
 20
-11.29226
 10
462.00839
 20
-19.451928
 10
464.975542
 20
-27.611595
 10
472.393422
 20
-32.062323
 10
479.811301
 20
-35.029475
 10
487.970969
 20
-35.771263
 10
496.130636
 20
-35.771263
 10
503.548516
 20
-32.804111
 10
507.999244
 20
-25.386231
 10
513.191759
 20
-19.451928
 10
516.900699
 20
-11.29226
 10
519.126063
 20
-3.132593
 10
515.417123
 20
-11.29226
 10
512.449971
 20
-18.71014
 10
509.482819
 20
-26.128019
 10
512.449971
 20
-33.545899
 10
519.867851
 20
-37.254839
 10
527.28573
 20
-40.963778
 10
532.478246
 20
-46.898082
 10
540.637914
 20
-49.123446
 10
548.797581
 20
-52.090598
 10
553.990097
 20
-58.024901
 10
556.957249
 20
-65.442781
 10
559.9244
 20
-72.86066
 10
559.9244
 20
-81.020328
 10
558.440824
 20
-89.179995
 10
552.506521
 20
-94.372511
 10
548.055793
 20
-101.048603
 10
542.121489
 20
-107.724694
 10
537.670762
 20
-114.400786
 10
530.252882
 20
-119.593301
 10
524.318579
 20
-124.785817
 10
516.900699
 20
-129.236545
 10
509.482819
 20
-133.687273
 10
502.806728
 20
-138.138
 10
493.905272
 20
-138.879788
 10
485.745605
 20
-139.621576
 10
477.585937
 20
-139.621576
 10
470.168058
 20
-135.170848
 10
465.71733
 20
-128.494757
 10
464.233754
 20
-120.335089
 10
464.975542
 20
-112.175422
 10
467.200906
 20
-104.015754
 10
471.651634
 20
-96.597875
 10
476.844149
 20
-90.663571
 10
484.262029
 20
-87.696419
 10
491.679909
 20
-84.729268
 10
499.839576
 20
-83.245692
 10
507.999244
 20
-83.245692
 10
516.158911
 20
-81.762116
 10
524.318579
 20
-81.762116
 10
532.478246
 20
-80.27854
 10
540.637914
 20
-78.794964
 10
545.088641
 20
-77.311388
  0
ENDBLK
  5
1942F
330
1942D
100
AcDbEntity
  8
0
100
AcDbBlockEnd
  0
ENDSEC
  0
SECTION
  2
ENTITIES
  0
POINT
  5
18849
330
19407
100
AcDbEntity
  8
0
  6
Continuous
 62
   250
370
   211
100
AcDbPoint
 10
9147.800901
 20
-14558.233254
 30
0.0
  0
POINT
  5
1884A
330
19407
100
AcDbEntity
  8
0
  6
Continuous
 62
     1
370
    53
100
AcDbPoint
 10
9484.400901
 20
-14558.233254
 30
0.0
  0
POINT
  5
1884B
330
19407
100
AcDbEntity
  8
0
  6
Continuous
 62
   250
370
   211
100
AcDbPoint
 10
9484.400901
 20
-14776.033254
 30
0.0
  0
POINT
  5
1884C
330
19407
100
AcDbEntity
  8
0
  6
Continuous
 62
     1
370
    53
100
AcDbPoint
 10
9147.800901
 20
-14776.033254
 30
0.0
  0
LINE
  5
1884D
330
19407
100
AcDbEntity
  8
0
  6
Continuous
 62
    30
370
   106
100
AcDbLine
 10
9162.650901
 20
-14771.083254
 30
0.0
 11
9162.650901
 21
-14563.183254
 31
0.0
  0
LINE
  5
1884E
330
19407
100
AcDbEntity
  8
0
  6
Continuous
 62
    30
370
   106
100
AcDbLine
 10
9479.450901
 20
-14771.083254
 30
0.0
 11
9162.650901
 21
-14771.083254
 31
0.0
  0
LINE
  5
1884F
330
19407
100
AcDbEntity
  8
0
  6
Continuous
 62
    30
370
   106
100
AcDbLine
 10
9162.650901
 20
-14563.183254
 30
0.0
 11
9479.450901
 21
-14563.183254
 31
0.0
  0
LINE
  5
18850
330
19407
100
AcDbEntity
  8
0
  6
Continuous
 62
    30
370
   106
100
AcDbLine
 10
9479.450901
 20
-14563.183254
 30
0.0
 11
9479.450901
 21
-14771.083254
 31
0.0
  0
POINT
  5
18851
330
19407
100
AcDbEntity
  8
0
  6
Continuous
 62
     1
370
    40
100
AcDbPoint
 10
9479.450901
 20
-14771.083254
 30
0.0
  0
POINT
  5
18852
330
19407
100
AcDbEntity
  8
0
  6
Continuous
 62
     1
370
    40
100
AcDbPoint
 10
9479.450901
 20
-14770.806124
 30
0.0
  0
POINT
  5
18853
330
19407
100
AcDbEntity
  8
0
  6
Continuous
 62
     1
370
    40
100
AcDbPoint
 10
9479.450901
 20
-14735.166124
 30
0.0
  0
POINT
  5
18854
330
19407
100
AcDbEntity
  8
0
  6
Continuous
 62
     1
370
    40
100
AcDbPoint
 10
9415.100901
 20
-14735.166124
 30
0.0
  0
LINE
  5
18855
330
19407
100
AcDbEntity
  8
0
  6
Continuous
 62
    30
370
    70
100
AcDbLine
 10
9479.450901
 20
-14734.374124
 30
0.0
 11
9415.100901
 21
-14734.374124
 31
0.0
  0
LINE
  5
18856
330
19407
100
AcDbEntity
  8
0
  6
Continuous
 62
    30
370
   106
100
AcDbLine
 10
9415.100901
 20
-14734.374124
 30
0.0
 11
9415.100901
 21
-14771.083254
 31
0.0
  0
LINE
  5
18857
330
19407
100
AcDbEntity
  8
0
  6
Continuous
 62
    30
370
    70
100
AcDbLine
 10
9462.818901
 20
-14742.096124
 30
0.0
 11
9462.818901
 21
-14771.083254
 31
0.0
  0
LINE
  5
18858
330
19407
100
AcDbEntity
  8
0
  6
Continuous
 62
    30
370
    70
100
AcDbLine
 10
9462.818901
 20
-14761.896124
 30
0.0
 11
9415.100901
 21
-14761.896124
 31
0.0
  0
LINE
  5
18859
330
19407
100
AcDbEntity
  8
0
  6
Continuous
 62
    30
370
    70
100
AcDbLine
 10
9479.450901
 20
-14742.096124
 30
0.0
 11
9462.818901
 21
-14742.096124
 31
0.0
  0
LINE
  5
1885A
330
19407
100
AcDbEntity
  8
0
  6
Continuous
 62
    30
370
    70
100
AcDbLine
 10
9462.818901
 20
-14742.096124
 30
0.0
 11
9415.100901
 21
-14742.096124
 31
0.0
  0
LINE
  5
1885B
330
19407
100
AcDbEntity
  8
0
  6
Continuous
 62
    30
370
    53
100
AcDbLine
 10
9479.450901
 20
-14745.066124
 30
0.0
 11
9462.818901
 21
-14745.066124
 31
0.0
  0
LINE
  5
1885C
330
19407
100
AcDbEntity
  8
0
  6
Continuous
 62
    30
370
    53
100
AcDbLine
 10
9479.450901
 20
-14748.036124
 30
0.0
 11
9462.818901
 21
-14748.036124
 31
0.0
  0
LINE
  5
1885D
330
19407
100
AcDbEntity
  8
0
  6
Continuous
 62
    30
370
    53
100
AcDbLine
 10
9479.450901
 20
-14751.006124
 30
0.0
 11
9462.818901
 21
-14751.006124
 31
0.0
  0
LINE
  5
1885E
330
19407
100
AcDbEntity
  8
0
  6
Continuous
 62
    30
370
    53
100
AcDbLine
 10
9479.450901
 20
-14753.976124
 30
0.0
 11
9462.818901
 21
-14753.976124
 31
0.0
  0
LINE
  5
1885F
330
19407
100
AcDbEntity
  8
0
  6
Continuous
 62
    30
370
    53
100
AcDbLine
 10
9479.450901
 20
-14756.946124
 30
0.0
 11
9462.818901
 21
-14756.946124
 31
0.0
  0
LINE
  5
18860
330
19407
100
AcDbEntity
  8
0
  6
Continuous
 62
    30
370
    53
100
AcDbLine
 10
9479.450901
 20
-14759.916124
 30
0.0
 11
9462.818901
 21
-14759.916124
 31
0.0
  0
LINE
  5
18861
330
19407
100
AcDbEntity
  8
0
  6
Continuous
 62
    30
370
    53
100
AcDbLine
 10
9479.450901
 20
-14762.886124
 30
0.0
 11
9462.818901
 21
-14762.886124
 31
0.0
  0
POINT
  5
18862
330
19407
100
AcDbEntity
  8
0
  6
Continuous
 62
     1
370
    53
100
AcDbPoint
 10
9415.100901
 20
-14771.083254
 30
0.0
  0
POINT
  5
18863
330
19407
100
AcDbEntity
  8
0
  6
Continuous
 62
     1
370
    53
100
AcDbPoint
 10
9415.100901
 20
-14771.083254
 30
0.0
  0
POINT
  5
18864
330
19407
100
AcDbEntity
  8
0
  6
Continuous
 62
     1
370
    53
100
AcDbPoint
 10
9415.100901
 20
-14747.323254
 30
0.0
  0
LINE
  5
18865
330
19407
100
AcDbEntity
  8
0
  6
Continuous
 62
    30
370
    70
100
AcDbLine
 10
9415.100901
 20
-14747.323254
 30
0.0
 11
9367.085901
 21
-14747.323254
 31
0.0
  0
LINE
  5
18866
330
19407
100
AcDbEntity
  8
0
  6
Continuous
 62
    30
370
    70
100
AcDbLine
 10
9367.085901
 20
-14747.323254
 30
0.0
 11
9367.085901
 21
-14771.083254
 31
0.0
  0
LINE
  5
18867
330
19407
100
AcDbEntity
  8
0
  6
Continuous
 62
    30
370
    70
100
AcDbLine
 10
9403.220901
 20
-14752.768254
 30
0.0
 11
9403.220901
 21
-14771.083254
 31
0.0
  0
LINE
  5
18868
330
19407
100
AcDbEntity
  8
0
  6
Continuous
 62
    30
370
    70
100
AcDbLine
 10
9415.100901
 20
-14752.768254
 30
0.0
 11
9403.220901
 21
-14752.768254
 31
0.0
  0
LINE
  5
18869
330
19407
100
AcDbEntity
  8
0
  6
Continuous
 62
    30
370
    70
100
AcDbLine
 10
9403.220901
 20
-14752.768254
 30
0.0
 11
9367.085901
 21
-14752.768254
 31
0.0
  0
LINE
  5
1886A
330
19407
100
AcDbEntity
  8
0
  6
Continuous
 62
    30
370
    53
100
AcDbLine
 10
9415.100901
 20
-14768.806254
 30
0.0
 11
9403.220901
 21
-14768.806254
 31
0.0
  0
LINE
  5
1886B
330
19407
100
AcDbEntity
  8
0
  6
Continuous
 62
    30
370
    53
100
AcDbLine
 10
9415.100901
 20
-14766.529254
 30
0.0
 11
9403.220901
 21
-14766.529254
 31
0.0
  0
LINE
  5
1886C
330
19407
100
AcDbEntity
  8
0
  6
Continuous
 62
    30
370
    53
100
AcDbLine
 10
9415.100901
 20
-14764.252254
 30
0.0
 11
9403.220901
 21
-14764.252254
 31
0.0
  0
LINE
  5
1886D
330
19407
100
AcDbEntity
  8
0
  6
Continuous
 62
    30
370
    53
100
AcDbLine
 10
9415.100901
 20
-14761.975254
 30
0.0
 11
9403.220901
 21
-14761.975254
 31
0.0
  0
LINE
  5
1886E
330
19407
100
AcDbEntity
  8
0
  6
Continuous
 62
    30
370
    53
100
AcDbLine
 10
9415.100901
 20
-14759.698254
 30
0.0
 11
9403.220901
 21
-14759.698254
 31
0.0
  0
LINE
  5
1886F
330
19407
100
AcDbEntity
  8
0
  6
Continuous
 62
    30
370
    53
100
AcDbLine
 10
9415.100901
 20
-14757.421254
 30
0.0
 11
9403.220901
 21
-14757.421254
 31
0.0
  0
LINE
  5
18870
330
19407
100
AcDbEntity
  8
0
  6
Continuous
 62
    30
370
    53
100
AcDbLine
 10
9409.160901
 20
-14757.421254
 30
0.0
 11
9409.160901
 21
-14771.083254
 31
0.0
  0
TEXT
  5
18879
330
19407
100
AcDbEntity
  8
0
  6
Continuous
 62
     5
370
    30
100
AcDbText
 10
9463.935738
 20
-14755.750109
 30
0.0
 40
0.7425
  1
DATE:
  7
Style 2 - FS Sheet
 11
9463.935738
 21
-14755.378859
 31
0.0
100
AcDbText
 73
     2
  0
TEXT
  5
1887A
330
19407
100
AcDbEntity
  8
0
  6
Continuous
 62
     5
370
    30
100
AcDbText
 10
9463.935738
 20
-14758.736182
 30
0.0
 40
0.7425
  1
SCALE:
  7
Style 2 - FS Sheet
 11
9463.935738
 21
-14758.364932
 31
0.0
100
AcDbText
 73
     2
  0
MTEXT
  5
1887B
330
19407
100
AcDbEntity
  8
0
  6
Continuous
 62
     5
370
    30
100
AcDbMText
 10
9463.935738
 20
-14761.351004
 30
0.0
 40
0.7425
 41
0.0
 71
     4
 72
     1
  1
SHEET NO    OF
  7
Style 2 - FS Sheet
 73
     2
 44
1.4
  0
TEXT
  5
1887D
330
19407
100
AcDbEntity
  8
0
  6
Continuous
 62
     5
370
    30
100
AcDbText
 10
9466.977108
 20
-14764.210648
 30
0.0
 40
0.7425
  1
BRIDGE NUMBER
  7
Style 2 - FS Sheet
 11
9466.977108
 21
-14763.839398
 31
0.0
100
AcDbText
 73
     2
  0
TEXT
  5
1887E
330
19407
100
AcDbEntity
  8
0
  6
Continuous
 62
     5
370
    30
100
AcDbText
 10
9403.827205
 20
-14753.980585
 30
0.0
 40
0.7425
  1
PREPARED:
  7
Style 2 - FS Sheet
 11
9403.827205
 21
-14753.609335
 31
0.0
100
AcDbText
 73
     2
  0
TEXT
  5
1887F
330
19407
100
AcDbEntity
  8
0
  6
Continuous
 62
     5
370
    30
100
AcDbText
 10
9403.827205
 20
-14758.303788
 30
0.0
 40
0.495
  1
REVISED:
  7
Style 2 - FS Sheet
 11
9403.827205
 21
-14758.056288
 31
0.0
100
AcDbText
 73
     2
  0
TEXT
  5
18880
330
19407
100
AcDbEntity
  8
0
  6
DGN Style 1
 62
     5
370
    30
100
AcDbText
 10
9380.781282
 20
-14751.437056
 30
0.0
 40
0.556875
  1
DIRECTOR, ENGINEERING DIVISION
  7
Style 1
100
AcDbText
  0
POINT
  5
18885
330
19407
100
AcDbEntity
  8
0
  6
Continuous
 62
     5
370
    40
100
AcDbPoint
 10
9479.450901
 20
-14563.183254
 30
0.0
  0
POINT
  5
18886
330
19407
100
AcDbEntity
  8
0
  6
Continuous
 62
     5
370
    40
100
AcDbPoint
 10
9479.450901
 20
-14563.183254
 30
0.0
  0
POINT
  5
18887
330
19407
100
AcDbEntity
  8
0
  6
Continuous
 62
     5
370
    40
100
AcDbPoint
 10
9423.515901
 20
-14563.183254
 30
0.0
  0
LINE
  5
18888
330
19407
100
AcDbEntity
  8
0
  6
Continuous
 62
    30
370
    70
100
AcDbLine
 10
9413.665401
 20
-14573.083254
 30
0.0
 11
9479.450901
 21
-14573.083254
 31
0.0
  0
LINE
  5
18889
330
19407
100
AcDbEntity
  8
0
  6
Continuous
 62
    30
370
    70
100
AcDbLine
 10
9413.665401
 20
-14568.133254
 30
0.0
 11
9479.450901
 21
-14568.133254
 31
0.0
  0
LINE
  5
1888A
330
19407
100
AcDbEntity
  8
0
  6
Continuous
 62
    30
370
    70
100
AcDbLine
 10
9467.273901
 20
-14563.183254
 30
0.0
 11
9467.273901
 21
-14573.083254
 31
0.0
  0
LINE
  5
1888B
330
19407
100
AcDbEntity
  8
0
  6
Continuous
 62
    30
370
    70
100
AcDbLine
 10
9473.362401
 20
-14563.183254
 30
0.0
 11
9473.362401
 21
-14573.083254
 31
0.0
  0
LINE
  5
1888C
330
19407
100
AcDbEntity
  8
0
  6
Continuous
 62
    30
370
    70
100
AcDbLine
 10
9451.433901
 20
-14563.183254
 30
0.0
 11
9451.433901
 21
-14573.083254
 31
0.0
  0
LINE
  5
1888D
330
19407
100
AcDbEntity
  8
0
  6
Continuous
 62
    30
370
    70
100
AcDbLine
 10
9445.345401
 20
-14563.183254
 30
0.0
 11
9445.345401
 21
-14573.083254
 31
0.0
  0
LINE
  5
1888E
330
19407
100
AcDbEntity
  8
0
  6
Continuous
 62
    30
370
    70
100
AcDbLine
 10
9429.505401
 20
-14563.183254
 30
0.0
 11
9429.505401
 21
-14573.083254
 31
0.0
  0
LINE
  5
1888F
330
19407
100
AcDbEntity
  8
0
  6
Continuous
 62
    30
370
    70
100
AcDbLine
 10
9413.665401
 20
-14563.183254
 30
0.0
 11
9413.665401
 21
-14573.083254
 31
0.0
  0
MTEXT
  5
18890
330
19407
100
AcDbEntity
  8
0
  6
Continuous
 62
     5
370
    30
100
AcDbMText
 10
9421.356557
 20
-14565.431472
 30
0.0
 40
0.792
 41
0.0
 71
     5
 72
     1
  1
STATE\PPROJECT NUMBER
  7
Style 2 - FS Sheet
 73
     2
 44
1.5
  0
MTEXT
  5
18893
330
19407
100
AcDbEntity
  8
0
  6
Continuous
 62
     5
370
    30
100
AcDbMText
 10
9437.392872
 20
-14565.431472
 30
0.0
 40
0.792
 41
0.0
 71
     5
 72
     1
  1
FEDERAL \PPROJECT NUMBER
  7
Style 2 - FS Sheet
 73
     2
 44
1.5
  0
MTEXT
  5
18896
330
19407
100
AcDbEntity
  8
0
  6
Continuous
 62
     5
370
    30
100
AcDbMText
 10
9448.452399
 20
-14565.646426
 30
0.0
 40
0.792
 41
0.0
 71
     5
 72
     1
  1
STATE\PDIST. \PNO.
  7
Style 2 - FS Sheet
 73
     2
 44
1.275
  0
TEXT
  5
1889A
330
19407
100
AcDbEntity
  8
0
  6
Continuous
 62
     5
370
    30
100
AcDbText
 10
9456.996049
 20
-14566.10396
 30
0.0
 40
0.792
  1
COUNTY
  7
Style 2 - FS Sheet
 72
     1
 11
9459.290934
 21
-14565.70796
 31
0.0
100
AcDbText
 73
     2
  0
MTEXT
  5
1889B
330
19407
100
AcDbEntity
  8
0
  6
Continuous
 62
     5
370
    30
100
AcDbMText
 10
9470.571455
 20
-14565.70796
 30
0.0
 40
0.792
 41
0.0
 71
     5
 72
     1
  1
SHEET \PNO.
  7
Style 2 - FS Sheet
 73
     2
 44
1.5
  0
MTEXT
  5
1889E
330
19407
100
AcDbEntity
  8
0
  6
Continuous
 62
     5
370
    30
100
AcDbMText
 10
9476.377707
 20
-14565.70796
 30
0.0
 40
0.792
 41
0.0
 71
     5
 72
     1
  1
TOTAL \PSHEETS
  7
Style 2 - FS Sheet
 73
     2
 44
1.5
  0
LINE
  5
188A1
330
19407
100
AcDbEntity
  8
0
  6
DGN Style 1
 62
     6
370
    30
100
AcDbLine
 10
9373.82406
 20
-14750.457369
 30
0.0
 11
9400.826486
 21
-14750.457369
 31
0.0
  0
LINE
  5
188A3
330
19407
100
AcDbEntity
  8
0
  6
DGN Style 1
 62
     6
370
    30
100
AcDbLine
 10
9404.525706
 20
-14750.457369
 30
0.0
 11
9413.670185
 21
-14750.457369
 31
0.0
  0
TEXT
  5
188A4
330
19407
100
AcDbEntity
  8
0
  6
Continuous
 62
     5
370
    30
100
AcDbText
 10
9401.915596
 20
-14750.457369
 30
0.0
 40
0.556875
  1
DATE:
  7
Style 1
100
AcDbText
  0
TEXT
  5
188A5
330
19407
100
AcDbEntity
  8
0
  6
Continuous
 62
     5
370
    40
100
AcDbText
 10
9370.853916
 20
-14769.258956
 30
0.0
 40
1.36125
  1
STANDARD SHEET BR-B100
 51
10.000004
  7
Style 1
 72
     1
 11
9385.098354
 21
-14769.258956
 31
0.0
100
AcDbText
  0
MTEXT
  5
188DF
330
19407
100
AcDbEntity
  8
0
  6
Continuous
 62
     5
370
    40
100
AcDbMText
 10
9386.104054
 20
-14765.313825
 30
0.0
 40
0.86625
 41
0.0
 71
     8
 72
     1
  1
PRESTRESSED CONCRETE BEAM\P\PDESIGN & ASSEMBLY NOTES
  7
Style 1
 73
     2
 44
1.285714
  0
MTEXT
  5
188E2
330
19407
100
AcDbEntity
  8
0
  6
Continuous
 62
     5
370
    40
100
AcDbMText
 10
9439.715372
 20
-14769.820488
 30
0.0
 40
1.485
 41
0.0
 71
     8
 72
     1
  1
PRESTRESSED CONCRETE BEAM\P\PDESIGN & ASSEMBLY NOTES
  7
Style 1
 73
     2
 44
1.0
  0
TEXT
  5
18C33
330
19407
100
AcDbEntity
  8
0
 62
     5
370
    30
100
AcDbText
 10
9180.913808
 20
-14650.309628
 30
0.0
 40
1.125
  1
.
  7
Style 1
 11
9180.913808
 21
-14649.747128
 31
0.0
100
AcDbText
 73
     2
  0
TEXT
  5
18C51
330
19407
100
AcDbEntity
  8
0
 62
     5
370
    30
100
AcDbText
 10
9174.930197
 20
-14642.663056
 30
0.0
 40
1.125
  1
TEMPORARY STRESS LIMITS IN CONCRETE BEFORE LOSSES:
  7
Style 1
 11
9174.930197
 21
-14642.100556
 31
0.0
100
AcDbText
 73
     2
  0
LINE
  5
18C57
330
19407
100
AcDbEntity
  8
0
  6
DGN Style 3
 62
     6
370
    40
100
AcDbLine
 10
9221.80967
 20
-14636.729932
 30
0.0
 11
9245.838344
 21
-14636.729932
 31
0.0
  0
LINE
  5
18C58
330
19407
100
AcDbEntity
  8
0
  6
DGN Style 3
 62
     6
370
    40
100
AcDbLine
 10
9214.930873
 20
-14639.368375
 30
0.0
 11
9245.649884
 21
-14639.368375
 31
0.0
  0
LINE
  5
18C59
330
19407
100
AcDbEntity
  8
0
  6
DGN Style 3
 62
     6
370
    40
100
AcDbLine
 10
9222.751971
 20
-14644.55103
 30
0.0
 11
9245.744114
 21
-14644.55103
 31
0.0
  0
LINE
  5
18C5A
330
19407
100
AcDbEntity
  8
0
  6
DGN Style 3
 62
     6
370
    40
100
AcDbLine
 10
9218.511616
 20
-14647.189473
 30
0.0
 11
9245.649884
 21
-14647.189473
 31
0.0
  0
LINE
  5
18C5B
330
19407
100
AcDbEntity
  8
0
  6
DGN Style 3
 62
     6
370
    40
100
AcDbLine
 10
9197.969455
 20
-14652.466358
 30
0.0
 11
9245.649884
 21
-14652.466358
 31
0.0
  0
LINE
  5
18C5C
330
19407
100
AcDbEntity
  8
0
  6
DGN Style 3
 62
     6
370
    40
100
AcDbLine
 10
9195.896393
 20
-14655.199031
 30
0.0
 11
9245.744114
 21
-14655.199031
 31
0.0
  0
LINE
  5
18C5D
330
19407
100
AcDbEntity
  8
0
  6
DGN Style 3
 62
     6
370
    40
100
AcDbLine
 10
9203.434801
 20
-14657.837474
 30
0.0
 11
9245.838344
 21
-14657.837474
 31
0.0
  0
LINE
  5
18C5E
330
19407
100
AcDbEntity
  8
0
  6
DGN Style 3
 62
     6
370
    40
100
AcDbLine
 10
9197.592535
 20
-14663.302819
 30
0.0
 11
9245.649884
 21
-14663.302819
 31
0.0
  0
LINE
  5
18C5F
330
19407
100
AcDbEntity
  8
0
  6
DGN Style 3
 62
     6
370
    40
100
AcDbLine
 10
9216.155864
 20
-14666.600873
 30
0.0
 11
9245.649884
 21
-14666.600873
 31
0.0
  0
LINE
  5
18C60
330
19407
100
AcDbEntity
  8
0
  6
DGN Style 3
 62
     6
370
    40
100
AcDbLine
 10
9214.648182
 20
-14669.145085
 30
0.0
 11
9245.838344
 21
-14669.145085
 31
0.0
  0
TEXT
  5
18C61
330
19407
100
AcDbEntity
  8
0
  6
DGN Style 3
 62
     5
370
    30
100
AcDbText
 10
9248.909027
 20
-14637.198202
 30
0.0
 40
1.125
  1
6000 PSI
  7
Style 1
 11
9248.909027
 21
-14636.635702
 31
0.0
100
AcDbText
 73
     2
  0
TEXT
  5
18C62
330
19407
100
AcDbEntity
  8
0
  6
DGN Style 3
 62
     5
370
    30
100
AcDbText
 10
9248.909027
 20
-14639.742415
 30
0.0
 40
1.125
  1
8000 PSI
  7
Style 1
 11
9248.909027
 21
-14639.179915
 31
0.0
100
AcDbText
 73
     2
  0
TEXT
  5
18C63
330
19407
100
AcDbEntity
  8
0
  6
DGN Style 3
 62
     5
370
    30
100
AcDbText
 10
9248.909027
 20
-14645.0193
 30
0.0
 40
1.125
  1
3600 PSI
  7
Style 1
 11
9248.909027
 21
-14644.4568
 31
0.0
100
AcDbText
 73
     2
  0
TEXT
  5
18C64
330
19407
100
AcDbEntity
  8
0
  6
DGN Style 3
 62
     5
370
    30
100
AcDbText
 10
9248.909027
 20
-14647.657743
 30
0.0
 40
1.125
  1
-200 PSI
  7
Style 1
 11
9248.909027
 21
-14647.095243
 31
0.0
100
AcDbText
 73
     2
  0
TEXT
  5
18C6A
330
19407
100
AcDbEntity
  8
0
  6
DGN Style 3
 62
     5
370
    30
100
AcDbText
 10
9248.909027
 20
-14669.613355
 30
0.0
 40
1.125
  1
194.4 KSI
  7
Style 1
 11
9248.909027
 21
-14669.050855
 31
0.0
100
AcDbText
 73
     2
  0
LINE
  5
18C6B
330
19407
100
AcDbEntity
  8
0
  6
Continuous
 62
     6
370
    40
100
AcDbLine
 10
9165.931223
 20
-14576.47421
 30
0.0
 11
9199.759827
 21
-14576.47421
 31
0.0
  0
LINE
  5
18C6C
330
19407
100
AcDbEntity
  8
0
  6
Continuous
 62
     6
370
    40
100
AcDbLine
 10
9166.204267
 20
-14598.052902
 30
0.0
 11
9183.125748
 21
-14598.052902
 31
0.0
  0
TEXT
  5
18C82
330
19407
100
AcDbEntity
  8
0
  6
Continuous
 62
     5
370
    30
100
AcDbText
 10
9172.056179
 20
-14706.36801
 30
0.0
 40
1.125
  1
MAXIMUM BEAM SKEW SHALL BE 30 DEGREES.
  7
Style 1
 11
9172.056179
 21
-14705.80551
 31
0.0
100
AcDbText
 73
     2
  0
TEXT
  5
18C86
330
19407
100
AcDbEntity
  8
0
  6
Continuous
 62
     5
370
    30
100
AcDbText
 10
9171.679259
 20
-14715.791019
 30
0.0
 40
1.125
  1
NEGATIVE DESIGN CAMBER AFTER ALL LOSSES IS NOT PERMITTED.
  7
Style 1
 11
9171.679259
 21
-14715.228519
 31
0.0
100
AcDbText
 73
     2
  0
TEXT
  5
18C87
330
19407
100
AcDbEntity
  8
0
  6
Continuous
 62
     5
370
    30
100
AcDbText
 10
9168.758126
 20
-14605.117771
 30
0.0
 40
1.125
  1
1.
  7
Style 1
 11
9168.758126
 21
-14604.555271
 31
0.0
100
AcDbText
 73
     2
  0
TEXT
  5
18C88
330
19407
100
AcDbEntity
  8
0
  6
Continuous
 62
     5
370
    30
100
AcDbText
 10
9168.758126
 20
-14626.644431
 30
0.0
 40
1.125
  1
2.
  7
Style 1
 11
9168.758126
 21
-14626.081931
 31
0.0
100
AcDbText
 73
     2
  0
TEXT
  5
18C89
330
19407
100
AcDbEntity
  8
0
  6
Continuous
 62
     5
370
    30
100
AcDbText
 10
9168.758126
 20
-14634.182839
 30
0.0
 40
1.125
  1
3.
  7
Style 1
 11
9168.758126
 21
-14633.620339
 31
0.0
100
AcDbText
 73
     2
  0
TEXT
  5
18C8A
330
19407
100
AcDbEntity
  8
0
  6
Continuous
 62
     5
370
    30
100
AcDbText
 10
9168.758126
 20
-14672.628718
 30
0.0
 40
1.125
  1
4.
  7
Style 1
 11
9168.758126
 21
-14672.066218
 31
0.0
100
AcDbText
 73
     2
  0
TEXT
  5
18C8B
330
19407
100
AcDbEntity
  8
0
  6
Continuous
 62
     5
370
    30
100
AcDbText
 10
9168.758126
 20
-14692.040118
 30
0.0
 40
1.125
  1
5.
  7
Style 1
 11
9168.758126
 21
-14691.477618
 31
0.0
100
AcDbText
 73
     2
  0
TEXT
  5
18C8C
330
19407
100
AcDbEntity
  8
0
  6
Continuous
 62
     5
370
    30
100
AcDbText
 10
9168.758126
 20
-14706.55647
 30
0.0
 40
1.125
  1
6.
  7
Style 1
 11
9168.758126
 21
-14705.99397
 31
0.0
100
AcDbText
 73
     2
  0
TEXT
  5
18C8D
330
19407
100
AcDbEntity
  8
0
  6
Continuous
 62
     5
370
    30
100
AcDbText
 10
9168.758126
 20
-14709.854523
 30
0.0
 40
1.125
  1
7.
  7
Style 1
 11
9168.758126
 21
-14709.292023
 31
0.0
100
AcDbText
 73
     2
  0
TEXT
  5
18C8E
330
19407
100
AcDbEntity
  8
0
  6
Continuous
 62
     5
370
    30
100
AcDbText
 10
9168.758126
 20
-14716.07371
 30
0.0
 40
1.125
  1
8.
  7
Style 1
 11
9168.758126
 21
-14715.51121
 31
0.0
100
AcDbText
 73
     2
  0
TEXT
  5
18C95
330
19407
100
AcDbEntity
  8
0
  6
Continuous
 62
     5
370
    40
100
AcDbText
 10
9269.0
 20
-14575.975662
 30
0.0
 40
1.5
  1
MATERIALS & FABRICATION NOTES
  7
Style 1
 11
9269.0
 21
-14575.225662
 31
0.0
100
AcDbText
 73
     2
  0
LINE
  5
18C96
330
19407
100
AcDbEntity
  8
0
  6
Continuous
 62
     6
370
    40
100
AcDbLine
 10
9268.90577
 20
-14576.450653
 30
0.0
 11
9310.743933
 21
-14576.450653
 31
0.0
  0
MTEXT
  5
18CAD
330
19407
100
AcDbEntity
  8
0
  6
Continuous
 62
     5
370
    30
100
AcDbMText
 10
9269.0
 20
-14627.899793
 30
0.0
 40
1.125
 41
0.0
 71
     4
 72
     1
  1
\Fmsdefault.shx;PRESTRESSING STRAND:
  7
Style 1
 73
     2
 44
0.722892
  0
TEXT
  5
18D2F
330
19407
100
AcDbEntity
  8
0
  6
Continuous
 62
     5
370
    30
100
AcDbText
 10
9168.828798
 20
-14719.376188
 30
0.0
 40
1.125
  1
9.
  7
Style 1
 11
9168.828798
 21
-14718.813688
 31
0.0
100
AcDbText
 73
     2
  0
TEXT
  5
18CC7
330
19407
100
AcDbEntity
  8
0
  6
Continuous
 62
     5
370
    30
100
AcDbText
 10
9269.0
 20
-14705.469901
 30
0.0
 40
1.125
  1
GUARDRAIL, GUARDRAIL POSTS, TUBING & INSERTS:
  7
Style 1
 11
9269.0
 21
-14704.907401
 31
0.0
100
AcDbText
 73
     2
  0
LINE
  5
18D61
330
19407
100
AcDbEntity
  8
0
  6
Continuous
 62
     6
370
    40
100
AcDbLine
 10
9269.777398
 20
-14576.851131
 30
0.0
 11
9310.154995
 21
-14576.851131
 31
0.0
  0
LINE
  5
18D62
330
19407
100
AcDbEntity
  8
0
  6
Continuous
 62
     6
370
    40
100
AcDbLine
 10
9272.133151
 20
-14587.404902
 30
0.0
 11
9291.214745
 21
-14587.404902
 31
0.0
  0
LINE
  5
18D67
330
19407
100
AcDbEntity
  8
0
  6
Continuous
 62
     6
370
    40
100
AcDbLine
 10
9378.989294
 20
-14576.709786
 30
0.0
 11
9400.42664
 21
-14576.709786
 31
0.0
  0
TEXT
  5
18CB4
330
19407
100
AcDbEntity
  8
0
  6
Continuous
 62
     5
370
    30
100
AcDbText
 10
9268.62308
 20
-14663.16108
 30
0.0
 40
1.125
  1
CONCRETE:
  7
Style 1
 11
9268.62308
 21
-14662.59858
 31
0.0
100
AcDbText
 73
     2
  0
LINE
  5
18D69
330
19407
100
AcDbEntity
  8
0
  6
Continuous
 62
     6
370
    40
100
AcDbLine
 10
9166.449488
 20
-14576.851131
 30
0.0
 11
9199.241562
 21
-14576.851131
 31
0.0
  0
LINE
  5
18D6A
330
19407
100
AcDbEntity
  8
0
  6
Continuous
 62
     6
370
    40
100
AcDbLine
 10
9166.579267
 20
-14598.476938
 30
0.0
 11
9182.750748
 21
-14598.476938
 31
0.0
  0
TEXT
  5
18D81
330
19407
100
AcDbEntity
  8
0
  6
Continuous
 62
     5
370
    30
100
AcDbText
 10
9271.944691
 20
-14716.966465
 30
0.0
 40
1.125
  1
ITEM
  7
Style 1
 11
9271.944691
 21
-14716.403965
 31
0.0
100
AcDbText
 73
     2
  0
TEXT
  5
18D82
330
19407
100
AcDbEntity
  8
0
  6
Continuous
 62
     5
370
    30
100
AcDbText
 10
9292.109931
 20
-14716.966465
 30
0.0
 40
1.125
  1
DESCRIPTION
  7
Style 1
 11
9292.109931
 21
-14716.403965
 31
0.0
100
AcDbText
 73
     2
  0
MTEXT
  5
18D86
330
19407
100
AcDbEntity
  8
0
  6
Continuous
 62
     6
370
    30
100
AcDbMText
 10
9271.897575
 20
-14735.155754
 30
0.0
 40
1.125
 41
0.0
 71
     4
 72
     1
  1
\C5;POST\PPLATE\PTUBING\PCHANNEL\PFERRULE\PWIRE\PSTUDS\PNUTS\PCOUPLERS\PBOLTS\PBOLTS\PNUTS\PWASHERS
  7
Style 1
 73
     2
 44
1.4
  0
MTEXT
  5
18DA3
330
19407
100
AcDbEntity
  8
0
  6
Continuous
 62
     6
370
    30
100
AcDbMText
 10
9315.007844
 20
-14735.438444
 30
0.0
 40
1.125
 41
0.0
 71
     4
 72
     1
  3
\C5;AASHTO M270, GR 36\PAASHTO M270, GR 36\PASTM A500, GR B\PAASHTO M270, GR 36\PASTM A108 (11L17 STEEL)\PASTM A510 (1018 STEEL)\PASTM A108 (1045 C.D. STEEL)\PAASHTO M291, CLASS C\PASTM A108 (12L14 STEEL)\PAASHTO M164 (TYPE 1, HH)\PAASHTO M164 (TYPE 
  1
1, HH)\PAASHTO M291, CLASS C\PAASHTO M293
  7
STD SHEET
 73
     2
 44
1.4
  0
TEXT
  5
18D83
330
19407
100
AcDbEntity
  8
0
  6
Continuous
 62
     5
370
    30
100
AcDbText
 10
9314.960729
 20
-14716.965973
 30
0.0
 40
1.125
  1
MATERIAL SPEC.
  7
Style 1
 11
9314.960729
 21
-14716.403473
 31
0.0
100
AcDbText
 73
     2
  0
LINE
  5
18DB1
330
19407
100
AcDbEntity
  8
0
  6
Continuous
 62
     6
370
    40
100
AcDbLine
 10
9279.812904
 20
-14729.030798
 30
0.0
 11
9281.791736
 21
-14729.030798
 31
0.0
  0
LINE
  5
18DB2
330
19407
100
AcDbEntity
  8
0
  6
Continuous
 62
     6
370
    40
100
AcDbLine
 10
9281.791736
 20
-14729.030798
 30
0.0
 11
9281.791736
 21
-14733.459612
 31
0.0
  0
LINE
  5
18DB3
330
19407
100
AcDbEntity
  8
0
  6
Continuous
 62
     6
370
    40
100
AcDbLine
 10
9281.791736
 20
-14733.459612
 30
0.0
 11
9279.907134
 21
-14733.459612
 31
0.0
  0
LINE
  5
18DB4
330
19407
100
AcDbEntity
  8
0
  6
Continuous
 62
     6
370
    40
100
AcDbLine
 10
9281.791736
 20
-14731.245205
 30
0.0
 11
9282.828267
 21
-14731.245205
 31
0.0
  0
LINE
  5
18DB5
330
19407
100
AcDbEntity
  8
0
  6
Continuous
 62
     6
370
    40
100
AcDbLine
 10
9280.943665
 20
-14739.490338
 30
0.0
 11
9281.980196
 21
-14739.490338
 31
0.0
  0
LINE
  5
18DB6
330
19407
100
AcDbEntity
  8
0
  6
Continuous
 62
     6
370
    40
100
AcDbLine
 10
9281.980196
 20
-14739.490338
 30
0.0
 11
9281.980196
 21
-14743.636463
 31
0.0
  0
LINE
  5
18DB7
330
19407
100
AcDbEntity
  8
0
  6
Continuous
 62
     6
370
    40
100
AcDbLine
 10
9281.980196
 20
-14743.636463
 30
0.0
 11
9280.99078
 21
-14743.636463
 31
0.0
  0
LINE
  5
18DB8
330
19407
100
AcDbEntity
  8
0
  6
Continuous
 62
     6
370
    40
100
AcDbLine
 10
9281.980196
 20
-14741.563401
 30
0.0
 11
9282.969612
 21
-14741.563401
 31
0.0
  0
MTEXT
  5
18DB9
330
19407
100
AcDbEntity
  8
0
  6
Continuous
 62
     6
370
    30
100
AcDbMText
 10
9282.828267
 20
-14731.245205
 30
0.0
 40
1.125
 41
0.0
 71
     4
 72
     1
  1
\C5;TYPE 2A\PANCHOR
  7
STD SHEET
 73
     2
 44
1.4
  0
MTEXT
  5
18DBC
330
19407
100
AcDbEntity
  8
0
  6
Continuous
 62
     6
370
    30
100
AcDbMText
 10
9282.474904
 20
-14741.563401
 30
0.0
 40
1.125
 41
0.0
 71
     4
 72
     1
  1
\C5;TYPE 1A\PANCHOR
  7
STD SHEET
 73
     2
 44
1.4
  0
TEXT
  5
18D84
330
19407
100
AcDbEntity
  8
0
  6
Continuous
 62
     5
370
    30
100
AcDbText
 10
9344.878785
 20
-14716.965481
 30
0.0
 40
1.125
  1
COATING SPEC.
  7
Style 1
 11
9344.878785
 21
-14716.402981
 31
0.0
100
AcDbText
 73
     2
  0
MTEXT
  5
18DC0
330
19407
100
AcDbEntity
  8
0
  6
Continuous
 62
     6
370
    30
100
AcDbMText
 10
9344.973015
 20
-14735.640971
 30
0.0
 40
1.125
 41
0.0
 71
     4
 72
     1
  1
\C5;AASHTO M111\PAASHTO M111\PAASHTO M111\PAASHTO M111\PAASHTO M232\PAASHTO M232\PAASHTO M232\PAASHTO M232\PAASHTO M232\PAASHTO M232\PAASHTO M232\PAASHTO M232\PAASHTO M232
  7
STD SHEET
 73
     2
 44
1.4
  0
LINE
  5
18DCE
330
19407
100
AcDbEntity
  8
0
  6
Continuous
 62
     6
370
    30
100
AcDbLine
 10
9271.944691
 20
-14717.346266
 30
0.0
 11
9275.808124
 21
-14717.346266
 31
0.0
  0
LINE
  5
18DCF
330
19407
100
AcDbEntity
  8
0
  6
Continuous
 62
     6
370
    30
100
AcDbLine
 10
9292.062816
 20
-14717.252036
 30
0.0
 11
9303.606003
 21
-14717.252036
 31
0.0
  0
MTEXT
  5
18D94
330
19407
100
AcDbEntity
  8
0
  6
Continuous
 62
     6
370
    30
100
AcDbMText
 10
9291.874356
 20
-14735.155754
 30
0.0
 40
1.125
 41
0.0
 71
     4
 72
     1
  3
\C5;W6x25\P{\T1.0;\W0.7x;\H0.7x;\S1#2;}" x 7"\PTS 8x4x3/16\PC7x9.8\P1{\T1.0;\W0.7x;\H0.7x;\S1#4;}" ~ x 2{\T1.0;\W0.7x;\H0.7x;\S1#2;}" MIN LEN.\P{\T1.0;\W0.7x;\H0.7x;\S3#8;}" ~\P1{\T1.0;\W0.7x;\H0.7x;\S1#4;}" ~ x 8" LONG\P1{\T1.0;\W0.7x;\H0.7x;\S1#4;}
  1
" ~\P1{\T1.0;\W0.7x;\H0.7x;\S1#4;}" ~ x 5" LONG\P1{\T1.0;\W0.7x;\H0.7x;\S1#4;}" ~ x 12" LONG\P{\T1.0;\W0.7x;\H0.7x;\S5#8;}" ~ x  ALL LEN.\P{\T1.0;\W0.7x;\H0.7x;\S5#8;}" ~\PALL
  7
Style 1
 73
     2
 44
1.4
  0
HATCH
  5
18DEB
330
19407
100
AcDbEntity
  8
0
  6
Continuous
 62
     6
370
    30
100
AcDbHatch
 10
0.0
 20
0.0
 30
0.0
210
0.0
220
0.0
230
1.0
  2
SOLID
 70
     1
 71
     0
 91
        1
 92
        1
 93
        1
 72
     2
 10
9380.178948490864
 20
-14674.23204587702
 40
0.2061283355202951
 50
0.0
 51
360.0
 73
     1
 97
        0
 75
     0
 76
     1
 98
        0
  0
HATCH
  5
18DEC
330
19407
100
AcDbEntity
  8
0
  6
Continuous
 62
     6
370
    30
100
AcDbHatch
 10
0.0
 20
0.0
 30
0.0
210
0.0
220
0.0
230
1.0
  2
SOLID
 70
     1
 71
     0
 91
        1
 92
        1
 93
        1
 72
     2
 10
9384.065939960683
 20
-14671.0223332239
 40
0.2061283355202951
 50
0.0
 51
360.0
 73
     1
 97
        0
 75
     0
 76
     1
 98
        0
  0
HATCH
  5
18DED
330
19407
100
AcDbEntity
  8
0
  6
Continuous
 62
     6
370
    30
100
AcDbHatch
 10
0.0
 20
0.0
 30
0.0
210
0.0
220
0.0
230
1.0
  2
SOLID
 70
     1
 71
     0
 91
        1
 92
        1
 93
        1
 72
     2
 10
9384.065939960683
 20
-14667.39447451874
 40
0.2061283355202951
 50
0.0
 51
360.0
 73
     1
 97
        0
 75
     0
 76
     1
 98
        0
  0
HATCH
  5
18DEE
330
19407
100
AcDbEntity
  8
0
  6
Continuous
 62
     6
370
    30
100
AcDbHatch
 10
0.0
 20
0.0
 30
0.0
210
0.0
220
0.0
230
1.0
  2
SOLID
 70
     1
 71
     0
 91
        1
 92
        1
 93
        1
 72
     2
 10
9384.065939960683
 20
-14664.8031468722
 40
0.2061283355202951
 50
0.0
 51
360.0
 73
     1
 97
        0
 75
     0
 76
     1
 98
        0
  0
HATCH
  5
18DEF
330
19407
100
AcDbEntity
  8
0
  6
Continuous
 62
     6
370
    30
100
AcDbHatch
 10
0.0
 20
0.0
 30
0.0
210
0.0
220
0.0
230
1.0
  2
SOLID
 70
     1
 71
     0
 91
        1
 92
        1
 93
        1
 72
     2
 10
9384.065939960683
 20
-14662.21181922565
 40
0.2061283355202951
 50
0.0
 51
360.0
 73
     1
 97
        0
 75
     0
 76
     1
 98
        0
  0
HATCH
  5
18DF0
330
19407
100
AcDbEntity
  8
0
  6
Continuous
 62
     6
370
    30
100
AcDbHatch
 10
0.0
 20
0.0
 30
0.0
210
0.0
220
0.0
230
1.0
  2
SOLID
 70
     1
 71
     0
 91
        1
 92
        1
 93
        1
 72
     2
 10
9384.065939960683
 20
-14659.66760662723
 40
0.2061283355202951
 50
0.0
 51
360.0
 73
     1
 97
        0
 75
     0
 76
     1
 98
        0
  0
HATCH
  5
18DF1
330
19407
100
AcDbEntity
  8
0
  6
Continuous
 62
     6
370
    30
100
AcDbHatch
 10
0.0
 20
0.0
 30
0.0
210
0.0
220
0.0
230
1.0
  2
SOLID
 70
     1
 71
     0
 91
        1
 92
        1
 93
        1
 72
     2
 10
9380.956346784826
 20
-14651.04555282145
 40
0.2061283355202951
 50
0.0
 51
360.0
 73
     1
 97
        0
 75
     0
 76
     1
 98
        0
  0
HATCH
  5
18DF2
330
19407
100
AcDbEntity
  8
0
  6
Continuous
 62
     6
370
    30
100
AcDbHatch
 10
0.0
 20
0.0
 30
0.0
210
0.0
220
0.0
230
1.0
  2
SOLID
 70
     1
 71
     0
 91
        1
 92
        1
 93
        1
 72
     2
 10
9380.956346784826
 20
-14578.81818405502
 40
0.2061283355202951
 50
0.0
 51
360.0
 73
     1
 97
        0
 75
     0
 76
     1
 98
        0
  0
HATCH
  5
18DF3
330
19407
100
AcDbEntity
  8
0
  6
Continuous
 62
     6
370
    30
100
AcDbHatch
 10
0.0
 20
0.0
 30
0.0
210
0.0
220
0.0
230
1.0
  2
SOLID
 70
     1
 71
     0
 91
        1
 92
        1
 93
        1
 72
     2
 10
9380.956346784826
 20
-14598.13535378381
 40
0.2061283355202951
 50
0.0
 51
360.0
 73
     1
 97
        0
 75
     0
 76
     1
 98
        0
  0
HATCH
  5
18DF4
330
19407
100
AcDbEntity
  8
0
  6
Continuous
 62
     6
370
    30
100
AcDbHatch
 10
0.0
 20
0.0
 30
0.0
210
0.0
220
0.0
230
1.0
  2
SOLID
 70
     1
 71
     0
 91
        1
 92
        1
 93
        1
 72
     2
 10
9380.956346784826
 20
-14614.81408081793
 40
0.2061283355202951
 50
0.0
 51
360.0
 73
     1
 97
        0
 75
     0
 76
     1
 98
        0
  0
HATCH
  5
18DF5
330
19407
100
AcDbEntity
  8
0
  6
Continuous
 62
     6
370
    30
100
AcDbHatch
 10
0.0
 20
0.0
 30
0.0
210
0.0
220
0.0
230
1.0
  2
SOLID
 70
     1
 71
     0
 91
        1
 92
        1
 93
        1
 72
     2
 10
9380.956346784826
 20
-14621.59864774707
 40
0.2061283355202951
 50
0.0
 51
360.0
 73
     1
 97
        0
 75
     0
 76
     1
 98
        0
  0
HATCH
  5
18DF6
330
19407
100
AcDbEntity
  8
0
  6
Continuous
 62
     6
370
    30
100
AcDbHatch
 10
0.0
 20
0.0
 30
0.0
210
0.0
220
0.0
230
1.0
  2
SOLID
 70
     1
 71
     0
 91
        1
 92
        1
 93
        1
 72
     2
 10
9271.037725831169
 20
-14579.57202482493
 40
0.2061283355202951
 50
0.0
 51
360.0
 73
     1
 97
        0
 75
     0
 76
     1
 98
        0
  0
HATCH
  5
18DF7
330
19407
100
AcDbEntity
  8
0
  6
Continuous
 62
     6
370
    30
100
AcDbHatch
 10
0.0
 20
0.0
 30
0.0
210
0.0
220
0.0
230
1.0
  2
SOLID
 70
     1
 71
     0
 91
        1
 92
        1
 93
        1
 72
     2
 10
9274.053088910785
 20
-14589.79599026676
 40
0.2061283355202951
 50
0.0
 51
360.0
 73
     1
 97
        0
 75
     0
 76
     1
 98
        0
  0
HATCH
  5
18DF8
330
19407
100
AcDbEntity
  8
0
  6
Continuous
 62
     6
370
    30
100
AcDbHatch
 10
0.0
 20
0.0
 30
0.0
210
0.0
220
0.0
230
1.0
  2
SOLID
 70
     1
 71
     0
 91
        1
 92
        1
 93
        1
 72
     2
 10
9274.053088910785
 20
-14603.7891595581
 40
0.2061283355202951
 50
0.0
 51
360.0
 73
     1
 97
        0
 75
     0
 76
     1
 98
        0
  0
HATCH
  5
18DF9
330
19407
100
AcDbEntity
  8
0
  6
Continuous
 62
     6
370
    30
100
AcDbHatch
 10
0.0
 20
0.0
 30
0.0
210
0.0
220
0.0
230
1.0
  2
SOLID
 70
     1
 71
     0
 91
        1
 92
        1
 93
        1
 72
     2
 10
9274.053088910785
 20
-14615.28523129913
 40
0.2061283355202951
 50
0.0
 51
360.0
 73
     1
 97
        0
 75
     0
 76
     1
 98
        0
  0
HATCH
  5
18DFA
330
19407
100
AcDbEntity
  8
0
  6
Continuous
 62
     6
370
    30
100
AcDbHatch
 10
0.0
 20
0.0
 30
0.0
210
0.0
220
0.0
230
1.0
  2
SOLID
 70
     1
 71
     0
 91
        1
 92
        1
 93
        1
 72
     2
 10
9274.053088910785
 20
-14621.17461231401
 40
0.2061283355202951
 50
0.0
 51
360.0
 73
     1
 97
        0
 75
     0
 76
     1
 98
        0
  0
HATCH
  5
18DFB
330
19407
100
AcDbEntity
  8
0
  6
Continuous
 62
     6
370
    30
100
AcDbHatch
 10
0.0
 20
0.0
 30
0.0
210
0.0
220
0.0
230
1.0
  2
SOLID
 70
     1
 71
     0
 91
        1
 92
        1
 93
        1
 72
     2
 10
9270.849265638695
 20
-14630.97454232276
 40
0.2061283355202951
 50
0.0
 51
360.0
 73
     1
 97
        0
 75
     0
 76
     1
 98
        0
  0
HATCH
  5
18DFC
330
19407
100
AcDbEntity
  8
0
  6
Continuous
 62
     6
370
    30
100
AcDbHatch
 10
0.0
 20
0.0
 30
0.0
210
0.0
220
0.0
230
1.0
  2
SOLID
 70
     1
 71
     0
 91
        1
 92
        1
 93
        1
 72
     2
 10
9270.849265638695
 20
-14636.86392333763
 40
0.2061283355202951
 50
0.0
 51
360.0
 73
     1
 97
        0
 75
     0
 76
     1
 98
        0
  0
HATCH
  5
18DFD
330
19407
100
AcDbEntity
  8
0
  6
Continuous
 62
     6
370
    30
100
AcDbHatch
 10
0.0
 20
0.0
 30
0.0
210
0.0
220
0.0
230
1.0
  2
SOLID
 70
     1
 71
     0
 91
        1
 92
        1
 93
        1
 72
     2
 10
9270.849265638695
 20
-14648.12441983807
 40
0.2061283355202951
 50
0.0
 51
360.0
 73
     1
 97
        0
 75
     0
 76
     1
 98
        0
  0
HATCH
  5
18DFE
330
19407
100
AcDbEntity
  8
0
  6
Continuous
 62
     6
370
    30
100
AcDbHatch
 10
0.0
 20
0.0
 30
0.0
210
0.0
220
0.0
230
1.0
  2
SOLID
 70
     1
 71
     0
 91
        1
 92
        1
 93
        1
 72
     2
 10
9270.849265638695
 20
-14665.27235892384
 40
0.2061283355202951
 50
0.0
 51
360.0
 73
     1
 97
        0
 75
     0
 76
     1
 98
        0
  0
HATCH
  5
18DFF
330
19407
100
AcDbEntity
  8
0
  6
Continuous
 62
     6
370
    30
100
AcDbHatch
 10
0.0
 20
0.0
 30
0.0
210
0.0
220
0.0
230
1.0
  2
SOLID
 70
     1
 71
     0
 91
        1
 92
        1
 93
        1
 72
     2
 10
9270.849265638695
 20
-14676.15593503932
 40
0.2061283355202951
 50
0.0
 51
360.0
 73
     1
 97
        0
 75
     0
 76
     1
 98
        0
  0
HATCH
  5
18E00
330
19407
100
AcDbEntity
  8
0
  6
Continuous
 62
     6
370
    30
100
AcDbHatch
 10
0.0
 20
0.0
 30
0.0
210
0.0
220
0.0
230
1.0
  2
SOLID
 70
     1
 71
     0
 91
        1
 92
        1
 93
        1
 72
     2
 10
9270.943495734933
 20
-14682.89338692034
 40
0.2061283355202951
 50
0.0
 51
360.0
 73
     1
 97
        0
 75
     0
 76
     1
 98
        0
  0
HATCH
  5
18E01
330
19407
100
AcDbEntity
  8
0
  6
Continuous
 62
     6
370
    30
100
AcDbHatch
 10
0.0
 20
0.0
 30
0.0
210
0.0
220
0.0
230
1.0
  2
SOLID
 70
     1
 71
     0
 91
        1
 92
        1
 93
        1
 72
     2
 10
9270.943495734933
 20
-14693.91830818019
 40
0.2061283355202951
 50
0.0
 51
360.0
 73
     1
 97
        0
 75
     0
 76
     1
 98
        0
  0
HATCH
  5
18E02
330
19407
100
AcDbEntity
  8
0
  6
Continuous
 62
     6
370
    30
100
AcDbHatch
 10
0.0
 20
0.0
 30
0.0
210
0.0
220
0.0
230
1.0
  2
SOLID
 70
     1
 71
     0
 91
        1
 92
        1
 93
        1
 72
     2
 10
9270.943495734933
 20
-14700.04326443566
 40
0.2061283355202951
 50
0.0
 51
360.0
 73
     1
 97
        0
 75
     0
 76
     1
 98
        0
  0
HATCH
  5
18E03
330
19407
100
AcDbEntity
  8
0
  6
Continuous
 62
     6
370
    30
100
AcDbHatch
 10
0.0
 20
0.0
 30
0.0
210
0.0
220
0.0
230
1.0
  2
SOLID
 70
     1
 71
     0
 91
        1
 92
        1
 93
        1
 72
     2
 10
9270.943495734933
 20
-14707.81724737529
 40
0.2061283355202951
 50
0.0
 51
360.0
 73
     1
 97
        0
 75
     0
 76
     1
 98
        0
  0
LINE
  5
18E1A
330
19407
100
AcDbEntity
  8
0
  6
Continuous
 62
     6
370
    40
100
AcDbLine
 10
9183.917392
 20
-14751.513937
 30
0.0
 11
9183.917392
 21
-14756.513937
 31
0.0
  0
LINE
  5
18E1B
330
19407
100
AcDbEntity
  8
0
  6
Continuous
 62
     6
370
    40
100
AcDbLine
 10
9189.906726
 20
-14751.513937
 30
0.0
 11
9189.906726
 21
-14756.513937
 31
0.0
  0
LINE
  5
18E1C
330
19407
100
AcDbEntity
  8
0
  6
Continuous
 62
     6
370
    40
100
AcDbLine
 10
9195.906726
 20
-14751.513937
 30
0.0
 11
9195.906726
 21
-14756.513937
 31
0.0
  0
LINE
  5
18E1D
330
19407
100
AcDbEntity
  8
0
  6
Continuous
 62
     6
370
    40
100
AcDbLine
 10
9201.906726
 20
-14751.513937
 30
0.0
 11
9201.906726
 21
-14756.513937
 31
0.0
  0
LINE
  5
18E1E
330
19407
100
AcDbEntity
  8
0
  6
Continuous
 62
     6
370
    40
100
AcDbLine
 10
9207.906726
 20
-14749.513937
 30
0.0
 11
9207.906726
 21
-14756.513937
 31
0.0
  0
LINE
  5
18E21
330
19407
100
AcDbEntity
  8
0
  6
Continuous
 62
     6
370
    40
100
AcDbLine
 10
9171.783617
 20
-14756.513937
 30
0.0
 11
9207.906726
 21
-14756.513937
 31
0.0
  0
LINE
  5
18E18
330
19407
100
AcDbEntity
  8
0
  6
Continuous
 62
     6
370
    40
100
AcDbLine
 10
9171.783617
 20
-14753.982825
 30
0.0
 11
9207.906726
 21
-14753.982825
 31
0.0
  0
LINE
  5
18E1F
330
19407
100
AcDbEntity
  8
0
  6
Continuous
 62
     6
370
    40
100
AcDbLine
 10
9171.783617
 20
-14751.513937
 30
0.0
 11
9207.906726
 21
-14751.513937
 31
0.0
  0
LINE
  5
18E20
330
19407
100
AcDbEntity
  8
0
  6
Continuous
 62
     6
370
    40
100
AcDbLine
 10
9171.783617
 20
-14749.513937
 30
0.0
 11
9207.906726
 21
-14749.513937
 31
0.0
  0
LINE
  5
18E19
330
19407
100
AcDbEntity
  8
0
  6
Continuous
 62
     6
370
    40
100
AcDbLine
 10
9171.783617
 20
-14749.513937
 30
0.0
 11
9171.783617
 21
-14756.513937
 31
0.0
  0
TEXT
  5
18E28
330
19407
100
AcDbEntity
  8
0
  6
Continuous
 62
     5
370
    30
100
AcDbText
 10
9202.920435
 20
-14753.31935
 30
0.0
 40
1.125
  1
NO. 6
  7
STD SHEET
 72
     1
 11
9204.953318
 21
-14752.75685
 31
0.0
100
AcDbText
 73
     2
  0
TEXT
  5
18E2E
330
19407
100
AcDbEntity
  8
0
  6
Continuous
 62
     5
370
    30
100
AcDbText
 10
9203.988403
 20
-14755.911662
 30
0.0
 40
1.125
  1
41"
  7
STD SHEET
 11
9203.988403
 21
-14755.349162
 31
0.0
100
AcDbText
 73
     2
  0
TEXT
  5
18E3F
330
19407
100
AcDbEntity
  8
0
  6
Continuous
 62
     5
370
    30
100
AcDbText
 10
9269.0
 20
-14754.95248
 30
0.0
 40
1.125
  1
WELDING:
  7
STD SHEET
 11
9269.0
 21
-14754.38998
 31
0.0
100
AcDbText
 73
     2
  0
MTEXT
  5
18E4F
330
19407
100
AcDbEntity
  8
0
  6
Continuous
 62
     6
370
    30
100
AcDbMText
 10
9272.250938
 20
-14766.6875
 30
0.0
 40
1.125
 41
0.0
 71
     4
 72
     1
  1
\C5;ALL WELDING OF FABRICATED ITEMS, AS SHOWN IN THESE PLANS SHALL BE IN \PACCORDANCE WITH ALL APPLICABLE PROVISIONS OF AASHTO/AWS D1.5, 2002.
  7
STD SHEET
 73
     2
 44
1.4
  0
LINE
  5
18E58
330
19407
100
AcDbEntity
  8
0
  6
Continuous
 62
     6
370
    40
100
AcDbLine
 10
9379.11886
 20
-14684.473679
 30
0.0
 11
9410.309022
 21
-14684.473679
 31
0.0
  0
HATCH
  5
18E5B
330
19407
100
AcDbEntity
  8
0
  6
Continuous
 62
     6
370
    30
100
AcDbHatch
 10
0.0
 20
0.0
 30
0.0
210
0.0
220
0.0
230
1.0
  2
SOLID
 70
     1
 71
     0
 91
        1
 92
        1
 93
        1
 72
     2
 10
9271.120177165358
 20
-14757.09958770778
 40
0.2061283355202951
 50
0.0
 51
360.0
 73
     1
 97
        0
 75
     0
 76
     1
 98
        0
  0
HATCH
  5
18E5C
330
19407
100
AcDbEntity
  8
0
  6
Continuous
 62
     6
370
    30
100
AcDbHatch
 10
0.0
 20
0.0
 30
0.0
210
0.0
220
0.0
230
1.0
  2
SOLID
 70
     1
 71
     0
 91
        1
 92
        1
 93
        1
 72
     2
 10
9271.120177165358
 20
-14765.48606627296
 40
0.2061283355202951
 50
0.0
 51
360.0
 73
     1
 97
        0
 75
     0
 76
     1
 98
        0
  0
HATCH
  5
18E5D
330
19407
100
AcDbEntity
  8
0
  6
Continuous
 62
     6
370
    30
100
AcDbHatch
 10
0.0
 20
0.0
 30
0.0
210
0.0
220
0.0
230
1.0
  2
SOLID
 70
     1
 71
     0
 91
        1
 92
        1
 93
        1
 72
     2
 10
9380.037603346515
 20
-14686.19337871824
 40
0.2061283355202951
 50
0.0
 51
360.0
 73
     1
 97
        0
 75
     0
 76
     1
 98
        0
  0
HATCH
  5
18E5E
330
19407
100
AcDbEntity
  8
0
  6
Continuous
 62
     6
370
    30
100
AcDbHatch
 10
0.0
 20
0.0
 30
0.0
210
0.0
220
0.0
230
1.0
  2
SOLID
 70
     1
 71
     0
 91
        1
 92
        1
 93
        1
 72
     2
 10
9380.037603346515
 20
-14703.39037128168
 40
0.2061283355202951
 50
0.0
 51
360.0
 73
     1
 97
        0
 75
     0
 76
     1
 98
        0
  0
TEXT
  5
18E60
330
19407
100
AcDbEntity
  8
0
 62
     5
370
    30
100
AcDbText
 10
9405.095682
 20
-14756.305984
 30
0.0
 40
1.125
  1
07-02-07
  7
STD SHEET
 11
9405.095682
 21
-14755.743484
 31
0.0
100
AcDbText
 73
     2
  0
LWPOLYLINE
  5
18FD0
330
19407
100
AcDbEntity
  8
0
 62
     5
370
    30
100
AcDbPolyline
 90
       20
 70
   128
 43
0.0
 10
9166.872658
 20
-14580.395119
 10
9166.766366
 20
-14580.288827
 10
9166.606927
 20
-14580.23568
 10
9166.394341
 20
-14580.23568
 10
9166.234902
 20
-14580.288827
 10
9166.119683
 20
-14580.395119
 10
9166.119683
 20
-14580.501412
 10
9166.172829
 20
-14580.607705
 10
9166.234902
 20
-14580.660851
 10
9166.341195
 20
-14580.713997
 10
9166.660073
 20
-14580.82029
 10
9166.766366
 20
-14580.882363
 10
9166.819512
 20
-14580.935509
 10
9166.872658
 20
-14581.041802
 10
9166.872658
 20
-14581.201241
 10
9166.766366
 20
-14581.307534
 10
9166.606927
 20
-14581.36068
 10
9166.394341
 20
-14581.36068
 10
9166.234902
 20
-14581.307534
 10
9166.119683
 20
-14581.201241
  0
LWPOLYLINE
  5
18FD1
330
19407
100
AcDbEntity
  8
0
 62
     5
370
    30
100
AcDbPolyline
 90
        2
 70
   128
 43
0.0
 10
9167.625634
 20
-14580.23568
 10
9167.625634
 20
-14581.36068
  0
LWPOLYLINE
  5
18FD2
330
19407
100
AcDbEntity
  8
0
 62
     5
370
    30
100
AcDbPolyline
 90
        2
 70
   128
 43
0.0
 10
9167.244683
 20
-14580.23568
 10
9167.997658
 20
-14580.23568
  0
LWPOLYLINE
  5
18FD3
330
19407
100
AcDbEntity
  8
0
 62
     5
370
    30
100
AcDbPolyline
 90
        3
 70
   128
 43
0.0
 10
9169.23774
 20
-14581.36068
 10
9168.80378
 20
-14580.23568
 10
9168.369683
 20
-14581.36068
  0
LWPOLYLINE
  5
18FD4
330
19407
100
AcDbEntity
  8
0
 62
     5
370
    30
100
AcDbPolyline
 90
        2
 70
   128
 43
0.0
 10
9168.511406
 20
-14580.988656
 10
9169.096016
 20
-14580.988656
  0
LWPOLYLINE
  5
18FD5
330
19407
100
AcDbEntity
  8
0
 62
     5
370
    30
100
AcDbPolyline
 90
        4
 70
   128
 43
0.0
 10
9169.441399
 20
-14581.36068
 10
9169.441399
 20
-14580.23568
 10
9170.194375
 20
-14581.36068
 10
9170.194375
 20
-14580.23568
  0
LWPOLYLINE
  5
18FD6
330
19407
100
AcDbEntity
  8
0
 62
     5
370
    30
100
AcDbPolyline
 90
        2
 70
   128
 43
0.0
 10
9170.566399
 20
-14580.23568
 10
9170.566399
 20
-14581.36068
  0
LWPOLYLINE
  5
18FD7
330
19407
100
AcDbEntity
  8
0
 62
     5
370
    30
100
AcDbPolyline
 90
       12
 70
   128
 43
0.0
 10
9170.566399
 20
-14580.23568
 10
9170.94735
 20
-14580.23568
 10
9171.106789
 20
-14580.288827
 10
9171.213082
 20
-14580.395119
 10
9171.266228
 20
-14580.501412
 10
9171.319375
 20
-14580.660851
 10
9171.319375
 20
-14580.935509
 10
9171.266228
 20
-14581.094948
 10
9171.213082
 20
-14581.201241
 10
9171.106789
 20
-14581.307534
 10
9170.94735
 20
-14581.36068
 10
9170.566399
 20
-14581.36068
  0
LWPOLYLINE
  5
18FD8
330
19407
100
AcDbEntity
  8
0
 62
     5
370
    30
100
AcDbPolyline
 90
        3
 70
   128
 43
0.0
 10
9172.559456
 20
-14581.36068
 10
9172.125496
 20
-14580.23568
 10
9171.691399
 20
-14581.36068
  0
LWPOLYLINE
  5
18FD9
330
19407
100
AcDbEntity
  8
0
 62
     5
370
    30
100
AcDbPolyline
 90
        2
 70
   128
 43
0.0
 10
9171.833123
 20
-14580.988656
 10
9172.417733
 20
-14580.988656
  0
LWPOLYLINE
  5
18FDA
330
19407
100
AcDbEntity
  8
0
 62
     5
370
    30
100
AcDbPolyline
 90
        2
 70
   128
 43
0.0
 10
9172.763115
 20
-14580.23568
 10
9172.763115
 20
-14581.36068
  0
LWPOLYLINE
  5
18FDB
330
19407
100
AcDbEntity
  8
0
 62
     5
370
    30
100
AcDbPolyline
 90
       10
 70
   128
 43
0.0
 10
9172.763115
 20
-14580.23568
 10
9173.250359
 20
-14580.23568
 10
9173.409798
 20
-14580.288827
 10
9173.462945
 20
-14580.341973
 10
9173.516091
 20
-14580.448266
 10
9173.516091
 20
-14580.554558
 10
9173.462945
 20
-14580.660851
 10
9173.409798
 20
-14580.713997
 10
9173.250359
 20
-14580.767144
 10
9172.763115
 20
-14580.767144
  0
LWPOLYLINE
  5
18FDC
330
19407
100
AcDbEntity
  8
0
 62
     5
370
    30
100
AcDbPolyline
 90
        2
 70
   128
 43
0.0
 10
9173.144066
 20
-14580.767144
 10
9173.516091
 20
-14581.36068
  0
LWPOLYLINE
  5
18FDD
330
19407
100
AcDbEntity
  8
0
 62
     5
370
    30
100
AcDbPolyline
 90
        2
 70
   128
 43
0.0
 10
9173.888115
 20
-14580.23568
 10
9173.888115
 20
-14581.36068
  0
LWPOLYLINE
  5
18FDE
330
19407
100
AcDbEntity
  8
0
 62
     5
370
    30
100
AcDbPolyline
 90
       12
 70
   128
 43
0.0
 10
9173.888115
 20
-14580.23568
 10
9174.269066
 20
-14580.23568
 10
9174.428505
 20
-14580.288827
 10
9174.534798
 20
-14580.395119
 10
9174.587945
 20
-14580.501412
 10
9174.641091
 20
-14580.660851
 10
9174.641091
 20
-14580.935509
 10
9174.587945
 20
-14581.094948
 10
9174.534798
 20
-14581.201241
 10
9174.428505
 20
-14581.307534
 10
9174.269066
 20
-14581.36068
 10
9173.888115
 20
-14581.36068
  0
LWPOLYLINE
  5
18FDF
330
19407
100
AcDbEntity
  8
0
 62
     5
370
    30
100
AcDbPolyline
 90
       20
 70
   128
 43
0.0
 10
9176.891091
 20
-14580.395119
 10
9176.784798
 20
-14580.288827
 10
9176.625359
 20
-14580.23568
 10
9176.412774
 20
-14580.23568
 10
9176.253335
 20
-14580.288827
 10
9176.138115
 20
-14580.395119
 10
9176.138115
 20
-14580.501412
 10
9176.191262
 20
-14580.607705
 10
9176.253335
 20
-14580.660851
 10
9176.359627
 20
-14580.713997
 10
9176.678505
 20
-14580.82029
 10
9176.784798
 20
-14580.882363
 10
9176.837945
 20
-14580.935509
 10
9176.891091
 20
-14581.041802
 10
9176.891091
 20
-14581.201241
 10
9176.784798
 20
-14581.307534
 10
9176.625359
 20
-14581.36068
 10
9176.412774
 20
-14581.36068
 10
9176.253335
 20
-14581.307534
 10
9176.138115
 20
-14581.201241
  0
LWPOLYLINE
  5
18FE0
330
19407
100
AcDbEntity
  8
0
 62
     5
370
    30
100
AcDbPolyline
 90
        2
 70
   128
 43
0.0
 10
9177.263115
 20
-14580.23568
 10
9177.263115
 20
-14581.36068
  0
LWPOLYLINE
  5
18FE1
330
19407
100
AcDbEntity
  8
0
 62
     5
370
    30
100
AcDbPolyline
 90
       10
 70
   128
 43
0.0
 10
9177.263115
 20
-14580.23568
 10
9177.750359
 20
-14580.23568
 10
9177.909798
 20
-14580.288827
 10
9177.962945
 20
-14580.341973
 10
9178.016091
 20
-14580.448266
 10
9178.016091
 20
-14580.607705
 10
9177.962945
 20
-14580.713997
 10
9177.909798
 20
-14580.767144
 10
9177.750359
 20
-14580.82029
 10
9177.263115
 20
-14580.82029
  0
LWPOLYLINE
  5
18FE2
330
19407
100
AcDbEntity
  8
0
 62
     5
370
    30
100
AcDbPolyline
 90
        2
 70
   128
 43
0.0
 10
9178.388115
 20
-14580.23568
 10
9178.388115
 20
-14581.36068
  0
LWPOLYLINE
  5
18FE3
330
19407
100
AcDbEntity
  8
0
 62
     5
370
    30
100
AcDbPolyline
 90
        2
 70
   128
 43
0.0
 10
9178.388115
 20
-14580.23568
 10
9179.087945
 20
-14580.23568
  0
LWPOLYLINE
  5
18FE4
330
19407
100
AcDbEntity
  8
0
 62
     5
370
    30
100
AcDbPolyline
 90
        2
 70
   128
 43
0.0
 10
9178.388115
 20
-14580.767144
 10
9178.822213
 20
-14580.767144
  0
LWPOLYLINE
  5
18FE5
330
19407
100
AcDbEntity
  8
0
 62
     5
370
    30
100
AcDbPolyline
 90
        2
 70
   128
 43
0.0
 10
9178.388115
 20
-14581.36068
 10
9179.087945
 20
-14581.36068
  0
LWPOLYLINE
  5
18FE6
330
19407
100
AcDbEntity
  8
0
 62
     5
370
    30
100
AcDbPolyline
 90
       18
 70
   128
 43
0.0
 10
9180.265954
 20
-14580.501412
 10
9180.212807
 20
-14580.395119
 10
9180.106515
 20
-14580.288827
 10
9180.000222
 20
-14580.23568
 10
9179.787636
 20
-14580.23568
 10
9179.681344
 20
-14580.288827
 10
9179.575051
 20
-14580.395119
 10
9179.512978
 20
-14580.501412
 10
9179.459832
 20
-14580.660851
 10
9179.459832
 20
-14580.935509
 10
9179.512978
 20
-14581.094948
 10
9179.575051
 20
-14581.201241
 10
9179.681344
 20
-14581.307534
 10
9179.787636
 20
-14581.36068
 10
9180.000222
 20
-14581.36068
 10
9180.106515
 20
-14581.307534
 10
9180.212807
 20
-14581.201241
 10
9180.265954
 20
-14581.094948
  0
LWPOLYLINE
  5
18FE7
330
19407
100
AcDbEntity
  8
0
 62
     5
370
    30
100
AcDbPolyline
 90
        2
 70
   128
 43
0.0
 10
9180.992287
 20
-14581.36068
 10
9180.637978
 20
-14581.36068
  0
LWPOLYLINE
  5
18FE8
330
19407
100
AcDbEntity
  8
0
 62
     5
370
    30
100
AcDbPolyline
 90
        2
 70
   128
 43
0.0
 10
9180.815133
 20
-14581.36068
 10
9180.815133
 20
-14580.23568
  0
LWPOLYLINE
  5
18FE9
330
19407
100
AcDbEntity
  8
0
 62
     5
370
    30
100
AcDbPolyline
 90
        2
 70
   128
 43
0.0
 10
9180.637978
 20
-14580.23568
 10
9180.992287
 20
-14580.23568
  0
LWPOLYLINE
  5
18FEA
330
19407
100
AcDbEntity
  8
0
 62
     5
370
    30
100
AcDbPolyline
 90
        2
 70
   128
 43
0.0
 10
9181.364312
 20
-14580.23568
 10
9181.364312
 20
-14581.36068
  0
LWPOLYLINE
  5
18FEB
330
19407
100
AcDbEntity
  8
0
 62
     5
370
    30
100
AcDbPolyline
 90
        2
 70
   128
 43
0.0
 10
9181.364312
 20
-14580.23568
 10
9182.064141
 20
-14580.23568
  0
LWPOLYLINE
  5
18FEC
330
19407
100
AcDbEntity
  8
0
 62
     5
370
    30
100
AcDbPolyline
 90
        2
 70
   128
 43
0.0
 10
9181.364312
 20
-14580.767144
 10
9181.798409
 20
-14580.767144
  0
LWPOLYLINE
  5
18FED
330
19407
100
AcDbEntity
  8
0
 62
     5
370
    30
100
AcDbPolyline
 90
        2
 70
   128
 43
0.0
 10
9182.790337
 20
-14581.36068
 10
9182.436028
 20
-14581.36068
  0
LWPOLYLINE
  5
18FEE
330
19407
100
AcDbEntity
  8
0
 62
     5
370
    30
100
AcDbPolyline
 90
        2
 70
   128
 43
0.0
 10
9182.613183
 20
-14581.36068
 10
9182.613183
 20
-14580.23568
  0
LWPOLYLINE
  5
18FEF
330
19407
100
AcDbEntity
  8
0
 62
     5
370
    30
100
AcDbPolyline
 90
        2
 70
   128
 43
0.0
 10
9182.436028
 20
-14580.23568
 10
9182.790337
 20
-14580.23568
  0
LWPOLYLINE
  5
18FF0
330
19407
100
AcDbEntity
  8
0
 62
     5
370
    30
100
AcDbPolyline
 90
       18
 70
   128
 43
0.0
 10
9183.968484
 20
-14580.501412
 10
9183.915337
 20
-14580.395119
 10
9183.809044
 20
-14580.288827
 10
9183.702752
 20
-14580.23568
 10
9183.490166
 20
-14580.23568
 10
9183.383874
 20
-14580.288827
 10
9183.277581
 20
-14580.395119
 10
9183.215508
 20
-14580.501412
 10
9183.162362
 20
-14580.660851
 10
9183.162362
 20
-14580.935509
 10
9183.215508
 20
-14581.094948
 10
9183.277581
 20
-14581.201241
 10
9183.383874
 20
-14581.307534
 10
9183.490166
 20
-14581.36068
 10
9183.702752
 20
-14581.36068
 10
9183.809044
 20
-14581.307534
 10
9183.915337
 20
-14581.201241
 10
9183.968484
 20
-14581.094948
  0
LWPOLYLINE
  5
18FF1
330
19407
100
AcDbEntity
  8
0
 62
     5
370
    30
100
AcDbPolyline
 90
        3
 70
   128
 43
0.0
 10
9185.208565
 20
-14581.36068
 10
9184.774605
 20
-14580.23568
 10
9184.340508
 20
-14581.36068
  0
LWPOLYLINE
  5
18FF2
330
19407
100
AcDbEntity
  8
0
 62
     5
370
    30
100
AcDbPolyline
 90
        2
 70
   128
 43
0.0
 10
9184.482232
 20
-14580.988656
 10
9185.066842
 20
-14580.988656
  0
LWPOLYLINE
  5
18FF3
330
19407
100
AcDbEntity
  8
0
 62
     5
370
    30
100
AcDbPolyline
 90
        2
 70
   128
 43
0.0
 10
9185.793175
 20
-14580.23568
 10
9185.793175
 20
-14581.36068
  0
LWPOLYLINE
  5
18FF4
330
19407
100
AcDbEntity
  8
0
 62
     5
370
    30
100
AcDbPolyline
 90
        2
 70
   128
 43
0.0
 10
9185.412224
 20
-14580.23568
 10
9186.1652
 20
-14580.23568
  0
LWPOLYLINE
  5
18FF5
330
19407
100
AcDbEntity
  8
0
 62
     5
370
    30
100
AcDbPolyline
 90
        2
 70
   128
 43
0.0
 10
9186.891533
 20
-14581.36068
 10
9186.537224
 20
-14581.36068
  0
LWPOLYLINE
  5
18FF6
330
19407
100
AcDbEntity
  8
0
 62
     5
370
    30
100
AcDbPolyline
 90
        2
 70
   128
 43
0.0
 10
9186.714379
 20
-14581.36068
 10
9186.714379
 20
-14580.23568
  0
LWPOLYLINE
  5
18FF7
330
19407
100
AcDbEntity
  8
0
 62
     5
370
    30
100
AcDbPolyline
 90
        2
 70
   128
 43
0.0
 10
9186.537224
 20
-14580.23568
 10
9186.891533
 20
-14580.23568
  0
LWPOLYLINE
  5
18FF8
330
19407
100
AcDbEntity
  8
0
 62
     5
370
    30
100
AcDbPolyline
 90
       25
 70
   128
 43
0.0
 10
9187.263558
 20
-14581.183526
 10
9187.272484
 20
-14581.227746
 10
9187.2902
 20
-14581.272103
 10
9187.325631
 20
-14581.316323
 10
9187.361062
 20
-14581.342965
 10
9187.440713
 20
-14581.36068
 10
9187.812737
 20
-14581.36068
 10
9187.901314
 20
-14581.342965
 10
9187.936745
 20
-14581.316323
 10
9187.972176
 20
-14581.272103
 10
9187.989892
 20
-14581.227746
 10
9187.998818
 20
-14581.183526
 10
9187.998818
 20
-14580.412835
 10
9187.989892
 20
-14580.368615
 10
9187.972176
 20
-14580.324257
 10
9187.936745
 20
-14580.280038
 10
9187.91903
 20
-14580.262322
 10
9187.812737
 20
-14580.23568
 10
9187.440713
 20
-14580.23568
 10
9187.343346
 20
-14580.262322
 10
9187.325631
 20
-14580.280038
 10
9187.2902
 20
-14580.324257
 10
9187.272484
 20
-14580.368615
 10
9187.263558
 20
-14580.412835
 10
9187.263558
 20
-14581.183526
  0
LWPOLYLINE
  5
18FF9
330
19407
100
AcDbEntity
  8
0
 62
     5
370
    30
100
AcDbPolyline
 90
        4
 70
   128
 43
0.0
 10
9188.370705
 20
-14581.36068
 10
9188.370705
 20
-14580.23568
 10
9189.123681
 20
-14581.36068
 10
9189.123681
 20
-14580.23568
  0
LWPOLYLINE
  5
18FFA
330
19407
100
AcDbEntity
  8
0
 62
     5
370
    30
100
AcDbPolyline
 90
       20
 70
   128
 43
0.0
 10
9190.248681
 20
-14580.395119
 10
9190.142388
 20
-14580.288827
 10
9189.982949
 20
-14580.23568
 10
9189.770363
 20
-14580.23568
 10
9189.610924
 20
-14580.288827
 10
9189.495705
 20
-14580.395119
 10
9189.495705
 20
-14580.501412
 10
9189.548852
 20
-14580.607705
 10
9189.610924
 20
-14580.660851
 10
9189.717217
 20
-14580.713997
 10
9190.036095
 20
-14580.82029
 10
9190.142388
 20
-14580.882363
 10
9190.195534
 20
-14580.935509
 10
9190.248681
 20
-14581.041802
 10
9190.248681
 20
-14581.201241
 10
9190.142388
 20
-14581.307534
 10
9189.982949
 20
-14581.36068
 10
9189.770363
 20
-14581.36068
 10
9189.610924
 20
-14581.307534
 10
9189.495705
 20
-14581.201241
  0
LWPOLYLINE
  5
18FFB
330
19407
100
AcDbEntity
  8
0
 62
     5
370
    30
100
AcDbPolyline
 90
        2
 70
   128
 43
0.0
 10
9191.745705
 20
-14580.23568
 10
9191.745705
 20
-14581.36068
  0
LWPOLYLINE
  5
18FFC
330
19407
100
AcDbEntity
  8
0
 62
     5
370
    30
100
AcDbPolyline
 90
        2
 70
   128
 43
0.0
 10
9191.745705
 20
-14580.23568
 10
9192.445534
 20
-14580.23568
  0
LWPOLYLINE
  5
18FFD
330
19407
100
AcDbEntity
  8
0
 62
     5
370
    30
100
AcDbPolyline
 90
        2
 70
   128
 43
0.0
 10
9191.745705
 20
-14580.767144
 10
9192.179802
 20
-14580.767144
  0
LWPOLYLINE
  5
18FFE
330
19407
100
AcDbEntity
  8
0
 62
     5
370
    30
100
AcDbPolyline
 90
       25
 70
   128
 43
0.0
 10
9192.817422
 20
-14581.183526
 10
9192.826348
 20
-14581.227746
 10
9192.844063
 20
-14581.272103
 10
9192.879494
 20
-14581.316323
 10
9192.914925
 20
-14581.342965
 10
9192.994576
 20
-14581.36068
 10
9193.366601
 20
-14581.36068
 10
9193.455178
 20
-14581.342965
 10
9193.490609
 20
-14581.316323
 10
9193.52604
 20
-14581.272103
 10
9193.543755
 20
-14581.227746
 10
9193.552682
 20
-14581.183526
 10
9193.552682
 20
-14580.412835
 10
9193.543755
 20
-14580.368615
 10
9193.52604
 20
-14580.324257
 10
9193.490609
 20
-14580.280038
 10
9193.472893
 20
-14580.262322
 10
9193.366601
 20
-14580.23568
 10
9192.994576
 20
-14580.23568
 10
9192.89721
 20
-14580.262322
 10
9192.879494
 20
-14580.280038
 10
9192.844063
 20
-14580.324257
 10
9192.826348
 20
-14580.368615
 10
9192.817422
 20
-14580.412835
 10
9192.817422
 20
-14581.183526
  0
LWPOLYLINE
  5
18FFF
330
19407
100
AcDbEntity
  8
0
 62
     5
370
    30
100
AcDbPolyline
 90
        2
 70
   128
 43
0.0
 10
9193.924569
 20
-14580.23568
 10
9193.924569
 20
-14581.36068
  0
LWPOLYLINE
  5
19000
330
19407
100
AcDbEntity
  8
0
 62
     5
370
    30
100
AcDbPolyline
 90
       10
 70
   128
 43
0.0
 10
9193.924569
 20
-14580.23568
 10
9194.411812
 20
-14580.23568
 10
9194.571251
 20
-14580.288827
 10
9194.624398
 20
-14580.341973
 10
9194.677544
 20
-14580.448266
 10
9194.677544
 20
-14580.554558
 10
9194.624398
 20
-14580.660851
 10
9194.571251
 20
-14580.713997
 10
9194.411812
 20
-14580.767144
 10
9193.924569
 20
-14580.767144
  0
LWPOLYLINE
  5
19001
330
19407
100
AcDbEntity
  8
0
 62
     5
370
    30
100
AcDbPolyline
 90
        2
 70
   128
 43
0.0
 10
9194.30552
 20
-14580.767144
 10
9194.677544
 20
-14581.36068
  0
LWPOLYLINE
  5
19002
330
19407
100
AcDbEntity
  8
0
 62
     5
370
    30
100
AcDbPolyline
 90
        2
 70
   128
 43
0.0
 10
9196.174569
 20
-14580.23568
 10
9196.174569
 20
-14581.36068
  0
LWPOLYLINE
  5
19003
330
19407
100
AcDbEntity
  8
0
 62
     5
370
    30
100
AcDbPolyline
 90
       10
 70
   128
 43
0.0
 10
9196.174569
 20
-14580.23568
 10
9196.661812
 20
-14580.23568
 10
9196.821251
 20
-14580.288827
 10
9196.874398
 20
-14580.341973
 10
9196.927544
 20
-14580.448266
 10
9196.927544
 20
-14580.554558
 10
9196.874398
 20
-14580.660851
 10
9196.821251
 20
-14580.713997
 10
9196.661812
 20
-14580.767144
 10
9196.174569
 20
-14580.767144
  0
LWPOLYLINE
  5
19004
330
19407
100
AcDbEntity
  8
0
 62
     5
370
    30
100
AcDbPolyline
 90
        2
 70
   128
 43
0.0
 10
9196.55552
 20
-14580.767144
 10
9196.927544
 20
-14581.36068
  0
LWPOLYLINE
  5
19005
330
19407
100
AcDbEntity
  8
0
 62
     5
370
    30
100
AcDbPolyline
 90
       25
 70
   128
 43
0.0
 10
9197.299569
 20
-14581.183526
 10
9197.308495
 20
-14581.227746
 10
9197.326211
 20
-14581.272103
 10
9197.361641
 20
-14581.316323
 10
9197.397072
 20
-14581.342965
 10
9197.476723
 20
-14581.36068
 10
9197.848748
 20
-14581.36068
 10
9197.937325
 20
-14581.342965
 10
9197.972756
 20
-14581.316323
 10
9198.008187
 20
-14581.272103
 10
9198.025902
 20
-14581.227746
 10
9198.034829
 20
-14581.183526
 10
9198.034829
 20
-14580.412835
 10
9198.025902
 20
-14580.368615
 10
9198.008187
 20
-14580.324257
 10
9197.972756
 20
-14580.280038
 10
9197.955041
 20
-14580.262322
 10
9197.848748
 20
-14580.23568
 10
9197.476723
 20
-14580.23568
 10
9197.379357
 20
-14580.262322
 10
9197.361641
 20
-14580.280038
 10
9197.326211
 20
-14580.324257
 10
9197.308495
 20
-14580.368615
 10
9197.299569
 20
-14580.412835
 10
9197.299569
 20
-14581.183526
  0
LWPOLYLINE
  5
19006
330
19407
100
AcDbEntity
  8
0
 62
     5
370
    30
100
AcDbPolyline
 90
        3
 70
   128
 43
0.0
 10
9199.274773
 20
-14581.36068
 10
9198.840813
 20
-14580.23568
 10
9198.406716
 20
-14581.36068
  0
LWPOLYLINE
  5
19007
330
19407
100
AcDbEntity
  8
0
 62
     5
370
    30
100
AcDbPolyline
 90
        2
 70
   128
 43
0.0
 10
9198.54844
 20
-14580.988656
 10
9199.13305
 20
-14580.988656
  0
LWPOLYLINE
  5
19008
330
19407
100
AcDbEntity
  8
0
 62
     5
370
    30
100
AcDbPolyline
 90
        2
 70
   128
 43
0.0
 10
9199.478432
 20
-14580.23568
 10
9199.478432
 20
-14581.36068
  0
LWPOLYLINE
  5
19009
330
19407
100
AcDbEntity
  8
0
 62
     5
370
    30
100
AcDbPolyline
 90
       12
 70
   128
 43
0.0
 10
9199.478432
 20
-14580.23568
 10
9199.859383
 20
-14580.23568
 10
9200.018822
 20
-14580.288827
 10
9200.125115
 20
-14580.395119
 10
9200.178261
 20
-14580.501412
 10
9200.231408
 20
-14580.660851
 10
9200.231408
 20
-14580.935509
 10
9200.178261
 20
-14581.094948
 10
9200.125115
 20
-14581.201241
 10
9200.018822
 20
-14581.307534
 10
9199.859383
 20
-14581.36068
 10
9199.478432
 20
-14581.36068
  0
LWPOLYLINE
  5
1900A
330
19407
100
AcDbEntity
  8
0
 62
     5
370
    30
100
AcDbPolyline
 90
       20
 70
   128
 43
0.0
 10
9201.356408
 20
-14580.395119
 10
9201.250115
 20
-14580.288827
 10
9201.090676
 20
-14580.23568
 10
9200.87809
 20
-14580.23568
 10
9200.718651
 20
-14580.288827
 10
9200.603432
 20
-14580.395119
 10
9200.603432
 20
-14580.501412
 10
9200.656579
 20
-14580.607705
 10
9200.718651
 20
-14580.660851
 10
9200.824944
 20
-14580.713997
 10
9201.143822
 20
-14580.82029
 10
9201.250115
 20
-14580.882363
 10
9201.303261
 20
-14580.935509
 10
9201.356408
 20
-14581.041802
 10
9201.356408
 20
-14581.201241
 10
9201.250115
 20
-14581.307534
 10
9201.090676
 20
-14581.36068
 10
9200.87809
 20
-14581.36068
 10
9200.718651
 20
-14581.307534
 10
9200.603432
 20
-14581.201241
  0
LWPOLYLINE
  5
1900B
330
19407
100
AcDbEntity
  8
0
 62
     5
370
    30
100
AcDbPolyline
 90
        3
 70
   128
 43
0.0
 10
9203.72149
 20
-14581.36068
 10
9203.28753
 20
-14580.23568
 10
9202.853432
 20
-14581.36068
  0
LWPOLYLINE
  5
1900C
330
19407
100
AcDbEntity
  8
0
 62
     5
370
    30
100
AcDbPolyline
 90
        2
 70
   128
 43
0.0
 10
9202.995156
 20
-14580.988656
 10
9203.579766
 20
-14580.988656
  0
LWPOLYLINE
  5
1900D
330
19407
100
AcDbEntity
  8
0
 62
     5
370
    30
100
AcDbPolyline
 90
        4
 70
   128
 43
0.0
 10
9203.925149
 20
-14581.36068
 10
9203.925149
 20
-14580.23568
 10
9204.678124
 20
-14581.36068
 10
9204.678124
 20
-14580.23568
  0
LWPOLYLINE
  5
1900E
330
19407
100
AcDbEntity
  8
0
 62
     5
370
    30
100
AcDbPolyline
 90
        2
 70
   128
 43
0.0
 10
9205.050149
 20
-14580.23568
 10
9205.050149
 20
-14581.36068
  0
LWPOLYLINE
  5
1900F
330
19407
100
AcDbEntity
  8
0
 62
     5
370
    30
100
AcDbPolyline
 90
       12
 70
   128
 43
0.0
 10
9205.050149
 20
-14580.23568
 10
9205.431099
 20
-14580.23568
 10
9205.590539
 20
-14580.288827
 10
9205.696831
 20
-14580.395119
 10
9205.749978
 20
-14580.501412
 10
9205.803124
 20
-14580.660851
 10
9205.803124
 20
-14580.935509
 10
9205.749978
 20
-14581.094948
 10
9205.696831
 20
-14581.201241
 10
9205.590539
 20
-14581.307534
 10
9205.431099
 20
-14581.36068
 10
9205.050149
 20
-14581.36068
  0
LWPOLYLINE
  5
19010
330
19407
100
AcDbEntity
  8
0
 62
     5
370
    30
100
AcDbPolyline
 90
        2
 70
   128
 43
0.0
 10
9207.300149
 20
-14580.23568
 10
9207.300149
 20
-14581.36068
  0
LWPOLYLINE
  5
19011
330
19407
100
AcDbEntity
  8
0
 62
     5
370
    30
100
AcDbPolyline
 90
        9
 70
   128
 43
0.0
 10
9207.300149
 20
-14580.23568
 10
9207.787392
 20
-14580.23568
 10
9207.946831
 20
-14580.288827
 10
9207.999978
 20
-14580.341973
 10
9208.053124
 20
-14580.448266
 10
9208.053124
 20
-14580.554558
 10
9207.999978
 20
-14580.660851
 10
9207.946831
 20
-14580.713997
 10
9207.787392
 20
-14580.767144
  0
LWPOLYLINE
  5
19012
330
19407
100
AcDbEntity
  8
0
 62
     5
370
    30
100
AcDbPolyline
 90
       10
 70
   128
 43
0.0
 10
9207.300149
 20
-14580.767144
 10
9207.787392
 20
-14580.767144
 10
9207.946831
 20
-14580.82029
 10
9207.999978
 20
-14580.882363
 10
9208.053124
 20
-14580.988656
 10
9208.053124
 20
-14581.148095
 10
9207.999978
 20
-14581.254388
 10
9207.946831
 20
-14581.307534
 10
9207.787392
 20
-14581.36068
 10
9207.300149
 20
-14581.36068
  0
LWPOLYLINE
  5
19013
330
19407
100
AcDbEntity
  8
0
 62
     5
370
    30
100
AcDbPolyline
 90
        2
 70
   128
 43
0.0
 10
9208.425149
 20
-14580.23568
 10
9208.425149
 20
-14581.36068
  0
LWPOLYLINE
  5
19014
330
19407
100
AcDbEntity
  8
0
 62
     5
370
    30
100
AcDbPolyline
 90
       10
 70
   128
 43
0.0
 10
9208.425149
 20
-14580.23568
 10
9208.912392
 20
-14580.23568
 10
9209.071831
 20
-14580.288827
 10
9209.124978
 20
-14580.341973
 10
9209.178124
 20
-14580.448266
 10
9209.178124
 20
-14580.554558
 10
9209.124978
 20
-14580.660851
 10
9209.071831
 20
-14580.713997
 10
9208.912392
 20
-14580.767144
 10
9208.425149
 20
-14580.767144
  0
LWPOLYLINE
  5
19015
330
19407
100
AcDbEntity
  8
0
 62
     5
370
    30
100
AcDbPolyline
 90
        2
 70
   128
 43
0.0
 10
9208.806099
 20
-14580.767144
 10
9209.178124
 20
-14581.36068
  0
LWPOLYLINE
  5
19016
330
19407
100
AcDbEntity
  8
0
 62
     5
370
    30
100
AcDbPolyline
 90
        2
 70
   128
 43
0.0
 10
9209.904458
 20
-14581.36068
 10
9209.550149
 20
-14581.36068
  0
LWPOLYLINE
  5
19017
330
19407
100
AcDbEntity
  8
0
 62
     5
370
    30
100
AcDbPolyline
 90
        2
 70
   128
 43
0.0
 10
9209.727303
 20
-14581.36068
 10
9209.727303
 20
-14580.23568
  0
LWPOLYLINE
  5
19018
330
19407
100
AcDbEntity
  8
0
 62
     5
370
    30
100
AcDbPolyline
 90
        2
 70
   128
 43
0.0
 10
9209.550149
 20
-14580.23568
 10
9209.904458
 20
-14580.23568
  0
LWPOLYLINE
  5
19019
330
19407
100
AcDbEntity
  8
0
 62
     5
370
    30
100
AcDbPolyline
 90
        2
 70
   128
 43
0.0
 10
9210.276482
 20
-14580.23568
 10
9210.276482
 20
-14581.36068
  0
LWPOLYLINE
  5
1901A
330
19407
100
AcDbEntity
  8
0
 62
     5
370
    30
100
AcDbPolyline
 90
       12
 70
   128
 43
0.0
 10
9210.276482
 20
-14580.23568
 10
9210.657433
 20
-14580.23568
 10
9210.816872
 20
-14580.288827
 10
9210.923165
 20
-14580.395119
 10
9210.976311
 20
-14580.501412
 10
9211.029458
 20
-14580.660851
 10
9211.029458
 20
-14580.935509
 10
9210.976311
 20
-14581.094948
 10
9210.923165
 20
-14581.201241
 10
9210.816872
 20
-14581.307534
 10
9210.657433
 20
-14581.36068
 10
9210.276482
 20
-14581.36068
  0
LWPOLYLINE
  5
1901B
330
19407
100
AcDbEntity
  8
0
 62
     5
370
    30
100
AcDbPolyline
 90
       19
 70
   128
 43
0.0
 10
9212.207604
 20
-14580.501412
 10
9212.154458
 20
-14580.395119
 10
9212.048165
 20
-14580.288827
 10
9211.941872
 20
-14580.23568
 10
9211.729287
 20
-14580.23568
 10
9211.622994
 20
-14580.288827
 10
9211.516701
 20
-14580.395119
 10
9211.454629
 20
-14580.501412
 10
9211.401482
 20
-14580.660851
 10
9211.401482
 20
-14580.935509
 10
9211.454629
 20
-14581.094948
 10
9211.516701
 20
-14581.201241
 10
9211.622994
 20
-14581.307534
 10
9211.729287
 20
-14581.36068
 10
9211.941872
 20
-14581.36068
 10
9212.048165
 20
-14581.307534
 10
9212.154458
 20
-14581.201241
 10
9212.207604
 20
-14581.094948
 10
9212.207604
 20
-14580.935509
  0
LWPOLYLINE
  5
1901C
330
19407
100
AcDbEntity
  8
0
 62
     5
370
    30
100
AcDbPolyline
 90
        2
 70
   128
 43
0.0
 10
9211.941872
 20
-14580.935509
 10
9212.207604
 20
-14580.935509
  0
LWPOLYLINE
  5
1901D
330
19407
100
AcDbEntity
  8
0
 62
     5
370
    30
100
AcDbPolyline
 90
        2
 70
   128
 43
0.0
 10
9212.579629
 20
-14580.23568
 10
9212.579629
 20
-14581.36068
  0
LWPOLYLINE
  5
1901E
330
19407
100
AcDbEntity
  8
0
 62
     5
370
    30
100
AcDbPolyline
 90
        2
 70
   128
 43
0.0
 10
9212.579629
 20
-14580.23568
 10
9213.279458
 20
-14580.23568
  0
LWPOLYLINE
  5
1901F
330
19407
100
AcDbEntity
  8
0
 62
     5
370
    30
100
AcDbPolyline
 90
        2
 70
   128
 43
0.0
 10
9212.579629
 20
-14580.767144
 10
9213.013726
 20
-14580.767144
  0
LWPOLYLINE
  5
19020
330
19407
100
AcDbEntity
  8
0
 62
     5
370
    30
100
AcDbPolyline
 90
        2
 70
   128
 43
0.0
 10
9212.579629
 20
-14581.36068
 10
9213.279458
 20
-14581.36068
  0
LWPOLYLINE
  5
19021
330
19407
100
AcDbEntity
  8
0
 62
     5
370
    30
100
AcDbPolyline
 90
       20
 70
   128
 43
0.0
 10
9214.40432
 20
-14580.395119
 10
9214.298028
 20
-14580.288827
 10
9214.138589
 20
-14580.23568
 10
9213.926003
 20
-14580.23568
 10
9213.766564
 20
-14580.288827
 10
9213.651345
 20
-14580.395119
 10
9213.651345
 20
-14580.501412
 10
9213.704491
 20
-14580.607705
 10
9213.766564
 20
-14580.660851
 10
9213.872857
 20
-14580.713997
 10
9214.191735
 20
-14580.82029
 10
9214.298028
 20
-14580.882363
 10
9214.351174
 20
-14580.935509
 10
9214.40432
 20
-14581.041802
 10
9214.40432
 20
-14581.201241
 10
9214.298028
 20
-14581.307534
 10
9214.138589
 20
-14581.36068
 10
9213.926003
 20
-14581.36068
 10
9213.766564
 20
-14581.307534
 10
9213.651345
 20
-14581.201241
  0
LWPOLYLINE
  5
19022
330
19407
100
AcDbEntity
  8
0
 62
     5
370
    30
100
AcDbPolyline
 90
        8
 70
   128
 43
0.0
 10
9214.926995
 20
-14581.307534
 10
9214.873849
 20
-14581.36068
 10
9214.820702
 20
-14581.307534
 10
9214.873849
 20
-14581.254388
 10
9214.926995
 20
-14581.307534
 10
9214.926995
 20
-14581.413827
 10
9214.873849
 20
-14581.520119
 10
9214.820702
 20
-14581.582192
  0
LWPOLYLINE
  5
19023
330
19407
100
AcDbEntity
  8
0
 62
     5
370
    30
100
AcDbPolyline
 90
        3
 70
   128
 43
0.0
 10
9216.778191
 20
-14581.36068
 10
9216.344231
 20
-14580.23568
 10
9215.910134
 20
-14581.36068
  0
LWPOLYLINE
  5
19024
330
19407
100
AcDbEntity
  8
0
 62
     5
370
    30
100
AcDbPolyline
 90
        2
 70
   128
 43
0.0
 10
9216.051858
 20
-14580.988656
 10
9216.636468
 20
-14580.988656
  0
LWPOLYLINE
  5
19025
330
19407
100
AcDbEntity
  8
0
 62
     5
370
    30
100
AcDbPolyline
 90
        2
 70
   128
 43
0.0
 10
9216.98185
 20
-14580.23568
 10
9216.98185
 20
-14581.36068
  0
LWPOLYLINE
  5
19026
330
19407
100
AcDbEntity
  8
0
 62
     5
370
    30
100
AcDbPolyline
 90
       12
 70
   128
 43
0.0
 10
9216.98185
 20
-14580.23568
 10
9217.362801
 20
-14580.23568
 10
9217.52224
 20
-14580.288827
 10
9217.628533
 20
-14580.395119
 10
9217.681679
 20
-14580.501412
 10
9217.734826
 20
-14580.660851
 10
9217.734826
 20
-14580.935509
 10
9217.681679
 20
-14581.094948
 10
9217.628533
 20
-14581.201241
 10
9217.52224
 20
-14581.307534
 10
9217.362801
 20
-14581.36068
 10
9216.98185
 20
-14581.36068
  0
LWPOLYLINE
  5
19027
330
19407
100
AcDbEntity
  8
0
 62
     5
370
    30
100
AcDbPolyline
 90
       25
 70
   128
 43
0.0
 10
9218.10685
 20
-14581.183526
 10
9218.115777
 20
-14581.227746
 10
9218.133492
 20
-14581.272103
 10
9218.168923
 20
-14581.316323
 10
9218.204354
 20
-14581.342965
 10
9218.284005
 20
-14581.36068
 10
9218.656029
 20
-14581.36068
 10
9218.744607
 20
-14581.342965
 10
9218.780037
 20
-14581.316323
 10
9218.815468
 20
-14581.272103
 10
9218.833184
 20
-14581.227746
 10
9218.84211
 20
-14581.183526
 10
9218.84211
 20
-14580.412835
 10
9218.833184
 20
-14580.368615
 10
9218.815468
 20
-14580.324257
 10
9218.780037
 20
-14580.280038
 10
9218.762322
 20
-14580.262322
 10
9218.656029
 20
-14580.23568
 10
9218.284005
 20
-14580.23568
 10
9218.186638
 20
-14580.262322
 10
9218.168923
 20
-14580.280038
 10
9218.133492
 20
-14580.324257
 10
9218.115777
 20
-14580.368615
 10
9218.10685
 20
-14580.412835
 10
9218.10685
 20
-14581.183526
  0
LWPOLYLINE
  5
19028
330
19407
100
AcDbEntity
  8
0
 62
     5
370
    30
100
AcDbPolyline
 90
        2
 70
   128
 43
0.0
 10
9219.213997
 20
-14580.23568
 10
9219.213997
 20
-14581.36068
  0
LWPOLYLINE
  5
19029
330
19407
100
AcDbEntity
  8
0
 62
     5
370
    30
100
AcDbPolyline
 90
       10
 70
   128
 43
0.0
 10
9219.213997
 20
-14580.23568
 10
9219.701241
 20
-14580.23568
 10
9219.86068
 20
-14580.288827
 10
9219.913827
 20
-14580.341973
 10
9219.966973
 20
-14580.448266
 10
9219.966973
 20
-14580.607705
 10
9219.913827
 20
-14580.713997
 10
9219.86068
 20
-14580.767144
 10
9219.701241
 20
-14580.82029
 10
9219.213997
 20
-14580.82029
  0
LWPOLYLINE
  5
1902A
330
19407
100
AcDbEntity
  8
0
 62
     5
370
    30
100
AcDbPolyline
 90
        2
 70
   128
 43
0.0
 10
9220.719948
 20
-14580.23568
 10
9220.719948
 20
-14581.36068
  0
LWPOLYLINE
  5
1902B
330
19407
100
AcDbEntity
  8
0
 62
     5
370
    30
100
AcDbPolyline
 90
        2
 70
   128
 43
0.0
 10
9220.338997
 20
-14580.23568
 10
9221.091973
 20
-14580.23568
  0
LWPOLYLINE
  5
1902C
330
19407
100
AcDbEntity
  8
0
 62
     5
370
    30
100
AcDbPolyline
 90
        2
 70
   128
 43
0.0
 10
9221.463997
 20
-14580.23568
 10
9221.463997
 20
-14581.36068
  0
LWPOLYLINE
  5
1902D
330
19407
100
AcDbEntity
  8
0
 62
     5
370
    30
100
AcDbPolyline
 90
        2
 70
   128
 43
0.0
 10
9221.463997
 20
-14580.23568
 10
9222.163827
 20
-14580.23568
  0
LWPOLYLINE
  5
1902E
330
19407
100
AcDbEntity
  8
0
 62
     5
370
    30
100
AcDbPolyline
 90
        2
 70
   128
 43
0.0
 10
9221.463997
 20
-14580.767144
 10
9221.898095
 20
-14580.767144
  0
LWPOLYLINE
  5
1902F
330
19407
100
AcDbEntity
  8
0
 62
     5
370
    30
100
AcDbPolyline
 90
        2
 70
   128
 43
0.0
 10
9221.463997
 20
-14581.36068
 10
9222.163827
 20
-14581.36068
  0
LWPOLYLINE
  5
19030
330
19407
100
AcDbEntity
  8
0
 62
     5
370
    30
100
AcDbPolyline
 90
        2
 70
   128
 43
0.0
 10
9222.535714
 20
-14580.23568
 10
9222.535714
 20
-14581.36068
  0
LWPOLYLINE
  5
19031
330
19407
100
AcDbEntity
  8
0
 62
     5
370
    30
100
AcDbPolyline
 90
       12
 70
   128
 43
0.0
 10
9222.535714
 20
-14580.23568
 10
9222.916665
 20
-14580.23568
 10
9223.076104
 20
-14580.288827
 10
9223.182396
 20
-14580.395119
 10
9223.235543
 20
-14580.501412
 10
9223.288689
 20
-14580.660851
 10
9223.288689
 20
-14580.935509
 10
9223.235543
 20
-14581.094948
 10
9223.182396
 20
-14581.201241
 10
9223.076104
 20
-14581.307534
 10
9222.916665
 20
-14581.36068
 10
9222.535714
 20
-14581.36068
  0
LWPOLYLINE
  5
19036
330
19407
100
AcDbEntity
  8
0
 62
     5
370
    30
100
AcDbPolyline
 90
        3
 70
   128
 43
0.0
 10
9232.527367
 20
-14581.413827
 10
9232.093407
 20
-14580.288827
 10
9231.65931
 20
-14581.413827
  0
LWPOLYLINE
  5
19037
330
19407
100
AcDbEntity
  8
0
 62
     5
370
    30
100
AcDbPolyline
 90
        2
 70
   128
 43
0.0
 10
9231.801034
 20
-14581.041802
 10
9232.385644
 20
-14581.041802
  0
LWPOLYLINE
  5
19038
330
19407
100
AcDbEntity
  8
0
 62
     5
370
    30
100
AcDbPolyline
 90
       20
 70
   128
 43
0.0
 10
9233.484002
 20
-14580.448266
 10
9233.377709
 20
-14580.341973
 10
9233.21827
 20
-14580.288827
 10
9233.005684
 20
-14580.288827
 10
9232.846245
 20
-14580.341973
 10
9232.731026
 20
-14580.448266
 10
9232.731026
 20
-14580.554558
 10
9232.784173
 20
-14580.660851
 10
9232.846245
 20
-14580.713997
 10
9232.952538
 20
-14580.767144
 10
9233.271416
 20
-14580.873437
 10
9233.377709
 20
-14580.935509
 10
9233.430855
 20
-14580.988656
 10
9233.484002
 20
-14581.094948
 10
9233.484002
 20
-14581.254388
 10
9233.377709
 20
-14581.36068
 10
9233.21827
 20
-14581.413827
 10
9233.005684
 20
-14581.413827
 10
9232.846245
 20
-14581.36068
 10
9232.731026
 20
-14581.254388
  0
LWPOLYLINE
  5
19039
330
19407
100
AcDbEntity
  8
0
 62
     5
370
    30
100
AcDbPolyline
 90
        3
 70
   128
 43
0.0
 10
9235.849084
 20
-14581.413827
 10
9235.415124
 20
-14580.288827
 10
9234.981026
 20
-14581.413827
  0
LWPOLYLINE
  5
1903A
330
19407
100
AcDbEntity
  8
0
 62
     5
370
    30
100
AcDbPolyline
 90
        2
 70
   128
 43
0.0
 10
9235.12275
 20
-14581.041802
 10
9235.70736
 20
-14581.041802
  0
LWPOLYLINE
  5
1903B
330
19407
100
AcDbEntity
  8
0
 62
     5
370
    30
100
AcDbPolyline
 90
        5
 70
   128
 43
0.0
 10
9236.052743
 20
-14581.413827
 10
9236.052743
 20
-14580.288827
 10
9236.48684
 20
-14581.413827
 10
9236.912011
 20
-14580.288827
 10
9236.912011
 20
-14581.413827
  0
LWPOLYLINE
  5
1903C
330
19407
100
AcDbEntity
  8
0
 62
     5
370
    30
100
AcDbPolyline
 90
        2
 70
   128
 43
0.0
 10
9237.284035
 20
-14580.288827
 10
9237.284035
 20
-14581.413827
  0
LWPOLYLINE
  5
1903D
330
19407
100
AcDbEntity
  8
0
 62
     5
370
    30
100
AcDbPolyline
 90
        2
 70
   128
 43
0.0
 10
9237.284035
 20
-14580.288827
 10
9237.983864
 20
-14580.288827
  0
LWPOLYLINE
  5
1903E
330
19407
100
AcDbEntity
  8
0
 62
     5
370
    30
100
AcDbPolyline
 90
        2
 70
   128
 43
0.0
 10
9237.284035
 20
-14580.82029
 10
9237.718133
 20
-14580.82029
  0
LWPOLYLINE
  5
1903F
330
19407
100
AcDbEntity
  8
0
 62
     5
370
    30
100
AcDbPolyline
 90
        2
 70
   128
 43
0.0
 10
9237.284035
 20
-14581.413827
 10
9237.983864
 20
-14581.413827
  0
LWPOLYLINE
  5
19040
330
19407
100
AcDbEntity
  8
0
 62
     5
370
    30
100
AcDbPolyline
 90
        4
 70
   128
 43
0.0
 10
9238.355752
 20
-14581.413827
 10
9238.355752
 20
-14580.288827
 10
9239.108727
 20
-14581.413827
 10
9239.108727
 20
-14580.288827
  0
LWPOLYLINE
  5
19041
330
19407
100
AcDbEntity
  8
0
 62
     5
370
    30
100
AcDbPolyline
 90
        2
 70
   128
 43
0.0
 10
9239.480752
 20
-14580.288827
 10
9239.480752
 20
-14581.413827
  0
LWPOLYLINE
  5
19042
330
19407
100
AcDbEntity
  8
0
 62
     5
370
    30
100
AcDbPolyline
 90
       12
 70
   128
 43
0.0
 10
9239.480752
 20
-14580.288827
 10
9239.861703
 20
-14580.288827
 10
9240.021142
 20
-14580.341973
 10
9240.127434
 20
-14580.448266
 10
9240.180581
 20
-14580.554558
 10
9240.233727
 20
-14580.713997
 10
9240.233727
 20
-14580.988656
 10
9240.180581
 20
-14581.148095
 10
9240.127434
 20
-14581.254388
 10
9240.021142
 20
-14581.36068
 10
9239.861703
 20
-14581.413827
 10
9239.480752
 20
-14581.413827
  0
LWPOLYLINE
  5
19043
330
19407
100
AcDbEntity
  8
0
 62
     5
370
    30
100
AcDbPolyline
 90
        2
 70
   128
 43
0.0
 10
9240.605752
 20
-14580.288827
 10
9240.605752
 20
-14581.413827
  0
LWPOLYLINE
  5
19044
330
19407
100
AcDbEntity
  8
0
 62
     5
370
    30
100
AcDbPolyline
 90
        2
 70
   128
 43
0.0
 10
9240.605752
 20
-14580.288827
 10
9241.305581
 20
-14580.288827
  0
LWPOLYLINE
  5
19045
330
19407
100
AcDbEntity
  8
0
 62
     5
370
    30
100
AcDbPolyline
 90
        2
 70
   128
 43
0.0
 10
9240.605752
 20
-14580.82029
 10
9241.039849
 20
-14580.82029
  0
LWPOLYLINE
  5
19046
330
19407
100
AcDbEntity
  8
0
 62
     5
370
    30
100
AcDbPolyline
 90
        2
 70
   128
 43
0.0
 10
9240.605752
 20
-14581.413827
 10
9241.305581
 20
-14581.413827
  0
LWPOLYLINE
  5
19047
330
19407
100
AcDbEntity
  8
0
 62
     5
370
    30
100
AcDbPolyline
 90
        2
 70
   128
 43
0.0
 10
9241.677468
 20
-14580.288827
 10
9241.677468
 20
-14581.413827
  0
LWPOLYLINE
  5
19048
330
19407
100
AcDbEntity
  8
0
 62
     5
370
    30
100
AcDbPolyline
 90
       12
 70
   128
 43
0.0
 10
9241.677468
 20
-14580.288827
 10
9242.058419
 20
-14580.288827
 10
9242.217858
 20
-14580.341973
 10
9242.324151
 20
-14580.448266
 10
9242.377297
 20
-14580.554558
 10
9242.430443
 20
-14580.713997
 10
9242.430443
 20
-14580.988656
 10
9242.377297
 20
-14581.148095
 10
9242.324151
 20
-14581.254388
 10
9242.217858
 20
-14581.36068
 10
9242.058419
 20
-14581.413827
 10
9241.677468
 20
-14581.413827
  0
LWPOLYLINE
  5
19049
330
19407
100
AcDbEntity
  8
0
 62
     5
370
    30
100
AcDbPolyline
 90
       20
 70
   128
 43
0.0
 10
9166.872658
 20
-14593.085119
 10
9166.766366
 20
-14592.978827
 10
9166.606927
 20
-14592.92568
 10
9166.394341
 20
-14592.92568
 10
9166.234902
 20
-14592.978827
 10
9166.119683
 20
-14593.085119
 10
9166.119683
 20
-14593.191412
 10
9166.172829
 20
-14593.297705
 10
9166.234902
 20
-14593.350851
 10
9166.341195
 20
-14593.403997
 10
9166.660073
 20
-14593.51029
 10
9166.766366
 20
-14593.572363
 10
9166.819512
 20
-14593.625509
 10
9166.872658
 20
-14593.731802
 10
9166.872658
 20
-14593.891241
 10
9166.766366
 20
-14593.997534
 10
9166.606927
 20
-14594.05068
 10
9166.394341
 20
-14594.05068
 10
9166.234902
 20
-14593.997534
 10
9166.119683
 20
-14593.891241
  0
LWPOLYLINE
  5
1904A
330
19407
100
AcDbEntity
  8
0
 62
     5
370
    30
100
AcDbPolyline
 90
        2
 70
   128
 43
0.0
 10
9167.244683
 20
-14592.92568
 10
9167.244683
 20
-14594.05068
  0
LWPOLYLINE
  5
1904B
330
19407
100
AcDbEntity
  8
0
 62
     5
370
    30
100
AcDbPolyline
 90
       10
 70
   128
 43
0.0
 10
9167.244683
 20
-14592.92568
 10
9167.731927
 20
-14592.92568
 10
9167.891366
 20
-14592.978827
 10
9167.944512
 20
-14593.031973
 10
9167.997658
 20
-14593.138266
 10
9167.997658
 20
-14593.297705
 10
9167.944512
 20
-14593.403997
 10
9167.891366
 20
-14593.457144
 10
9167.731927
 20
-14593.51029
 10
9167.244683
 20
-14593.51029
  0
LWPOLYLINE
  5
1904C
330
19407
100
AcDbEntity
  8
0
 62
     5
370
    30
100
AcDbPolyline
 90
        2
 70
   128
 43
0.0
 10
9168.369683
 20
-14592.92568
 10
9168.369683
 20
-14594.05068
  0
LWPOLYLINE
  5
1904D
330
19407
100
AcDbEntity
  8
0
 62
     5
370
    30
100
AcDbPolyline
 90
        2
 70
   128
 43
0.0
 10
9168.369683
 20
-14592.92568
 10
9169.069512
 20
-14592.92568
  0
LWPOLYLINE
  5
1904E
330
19407
100
AcDbEntity
  8
0
 62
     5
370
    30
100
AcDbPolyline
 90
        2
 70
   128
 43
0.0
 10
9168.369683
 20
-14593.457144
 10
9168.80378
 20
-14593.457144
  0
LWPOLYLINE
  5
1904F
330
19407
100
AcDbEntity
  8
0
 62
     5
370
    30
100
AcDbPolyline
 90
        2
 70
   128
 43
0.0
 10
9168.369683
 20
-14594.05068
 10
9169.069512
 20
-14594.05068
  0
LWPOLYLINE
  5
19050
330
19407
100
AcDbEntity
  8
0
 62
     5
370
    30
100
AcDbPolyline
 90
       18
 70
   128
 43
0.0
 10
9170.247521
 20
-14593.191412
 10
9170.194375
 20
-14593.085119
 10
9170.088082
 20
-14592.978827
 10
9169.981789
 20
-14592.92568
 10
9169.769204
 20
-14592.92568
 10
9169.662911
 20
-14592.978827
 10
9169.556618
 20
-14593.085119
 10
9169.494546
 20
-14593.191412
 10
9169.441399
 20
-14593.350851
 10
9169.441399
 20
-14593.625509
 10
9169.494546
 20
-14593.784948
 10
9169.556618
 20
-14593.891241
 10
9169.662911
 20
-14593.997534
 10
9169.769204
 20
-14594.05068
 10
9169.981789
 20
-14594.05068
 10
9170.088082
 20
-14593.997534
 10
9170.194375
 20
-14593.891241
 10
9170.247521
 20
-14593.784948
  0
LWPOLYLINE
  5
19051
330
19407
100
AcDbEntity
  8
0
 62
     5
370
    30
100
AcDbPolyline
 90
        2
 70
   128
 43
0.0
 10
9170.973855
 20
-14594.05068
 10
9170.619546
 20
-14594.05068
  0
LWPOLYLINE
  5
19052
330
19407
100
AcDbEntity
  8
0
 62
     5
370
    30
100
AcDbPolyline
 90
        2
 70
   128
 43
0.0
 10
9170.7967
 20
-14594.05068
 10
9170.7967
 20
-14592.92568
  0
LWPOLYLINE
  5
19053
330
19407
100
AcDbEntity
  8
0
 62
     5
370
    30
100
AcDbPolyline
 90
        2
 70
   128
 43
0.0
 10
9170.619546
 20
-14592.92568
 10
9170.973855
 20
-14592.92568
  0
LWPOLYLINE
  5
19054
330
19407
100
AcDbEntity
  8
0
 62
     5
370
    30
100
AcDbPolyline
 90
        2
 70
   128
 43
0.0
 10
9171.345879
 20
-14592.92568
 10
9171.345879
 20
-14594.05068
  0
LWPOLYLINE
  5
19055
330
19407
100
AcDbEntity
  8
0
 62
     5
370
    30
100
AcDbPolyline
 90
        2
 70
   128
 43
0.0
 10
9171.345879
 20
-14592.92568
 10
9172.045708
 20
-14592.92568
  0
LWPOLYLINE
  5
19056
330
19407
100
AcDbEntity
  8
0
 62
     5
370
    30
100
AcDbPolyline
 90
        2
 70
   128
 43
0.0
 10
9171.345879
 20
-14593.457144
 10
9171.779976
 20
-14593.457144
  0
LWPOLYLINE
  5
19057
330
19407
100
AcDbEntity
  8
0
 62
     5
370
    30
100
AcDbPolyline
 90
        2
 70
   128
 43
0.0
 10
9172.771905
 20
-14594.05068
 10
9172.417595
 20
-14594.05068
  0
LWPOLYLINE
  5
19058
330
19407
100
AcDbEntity
  8
0
 62
     5
370
    30
100
AcDbPolyline
 90
        2
 70
   128
 43
0.0
 10
9172.59475
 20
-14594.05068
 10
9172.59475
 20
-14592.92568
  0
LWPOLYLINE
  5
19059
330
19407
100
AcDbEntity
  8
0
 62
     5
370
    30
100
AcDbPolyline
 90
        2
 70
   128
 43
0.0
 10
9172.417595
 20
-14592.92568
 10
9172.771905
 20
-14592.92568
  0
LWPOLYLINE
  5
1905A
330
19407
100
AcDbEntity
  8
0
 62
     5
370
    30
100
AcDbPolyline
 90
       18
 70
   128
 43
0.0
 10
9173.950051
 20
-14593.191412
 10
9173.896905
 20
-14593.085119
 10
9173.790612
 20
-14592.978827
 10
9173.684319
 20
-14592.92568
 10
9173.471734
 20
-14592.92568
 10
9173.365441
 20
-14592.978827
 10
9173.259148
 20
-14593.085119
 10
9173.197075
 20
-14593.191412
 10
9173.143929
 20
-14593.350851
 10
9173.143929
 20
-14593.625509
 10
9173.197075
 20
-14593.784948
 10
9173.259148
 20
-14593.891241
 10
9173.365441
 20
-14593.997534
 10
9173.471734
 20
-14594.05068
 10
9173.684319
 20
-14594.05068
 10
9173.790612
 20
-14593.997534
 10
9173.896905
 20
-14593.891241
 10
9173.950051
 20
-14593.784948
  0
LWPOLYLINE
  5
1905B
330
19407
100
AcDbEntity
  8
0
 62
     5
370
    30
100
AcDbPolyline
 90
        3
 70
   128
 43
0.0
 10
9175.190133
 20
-14594.05068
 10
9174.756173
 20
-14592.92568
 10
9174.322075
 20
-14594.05068
  0
LWPOLYLINE
  5
1905C
330
19407
100
AcDbEntity
  8
0
 62
     5
370
    30
100
AcDbPolyline
 90
        2
 70
   128
 43
0.0
 10
9174.463799
 20
-14593.678656
 10
9175.048409
 20
-14593.678656
  0
LWPOLYLINE
  5
1905D
330
19407
100
AcDbEntity
  8
0
 62
     5
370
    30
100
AcDbPolyline
 90
        2
 70
   128
 43
0.0
 10
9175.774743
 20
-14592.92568
 10
9175.774743
 20
-14594.05068
  0
LWPOLYLINE
  5
1905E
330
19407
100
AcDbEntity
  8
0
 62
     5
370
    30
100
AcDbPolyline
 90
        2
 70
   128
 43
0.0
 10
9175.393792
 20
-14592.92568
 10
9176.146767
 20
-14592.92568
  0
LWPOLYLINE
  5
1905F
330
19407
100
AcDbEntity
  8
0
 62
     5
370
    30
100
AcDbPolyline
 90
        2
 70
   128
 43
0.0
 10
9176.873101
 20
-14594.05068
 10
9176.518792
 20
-14594.05068
  0
LWPOLYLINE
  5
19060
330
19407
100
AcDbEntity
  8
0
 62
     5
370
    30
100
AcDbPolyline
 90
        2
 70
   128
 43
0.0
 10
9176.695946
 20
-14594.05068
 10
9176.695946
 20
-14592.92568
  0
LWPOLYLINE
  5
19061
330
19407
100
AcDbEntity
  8
0
 62
     5
370
    30
100
AcDbPolyline
 90
        2
 70
   128
 43
0.0
 10
9176.518792
 20
-14592.92568
 10
9176.873101
 20
-14592.92568
  0
LWPOLYLINE
  5
19062
330
19407
100
AcDbEntity
  8
0
 62
     5
370
    30
100
AcDbPolyline
 90
       25
 70
   128
 43
0.0
 10
9177.245125
 20
-14593.873526
 10
9177.254052
 20
-14593.917746
 10
9177.271767
 20
-14593.962103
 10
9177.307198
 20
-14594.006323
 10
9177.342629
 20
-14594.032965
 10
9177.42228
 20
-14594.05068
 10
9177.794304
 20
-14594.05068
 10
9177.882882
 20
-14594.032965
 10
9177.918313
 20
-14594.006323
 10
9177.953744
 20
-14593.962103
 10
9177.971459
 20
-14593.917746
 10
9177.980385
 20
-14593.873526
 10
9177.980385
 20
-14593.102835
 10
9177.971459
 20
-14593.058615
 10
9177.953744
 20
-14593.014257
 10
9177.918313
 20
-14592.970038
 10
9177.900597
 20
-14592.952322
 10
9177.794304
 20
-14592.92568
 10
9177.42228
 20
-14592.92568
 10
9177.324914
 20
-14592.952322
 10
9177.307198
 20
-14592.970038
 10
9177.271767
 20
-14593.014257
 10
9177.254052
 20
-14593.058615
 10
9177.245125
 20
-14593.102835
 10
9177.245125
 20
-14593.873526
  0
LWPOLYLINE
  5
19063
330
19407
100
AcDbEntity
  8
0
 62
     5
370
    30
100
AcDbPolyline
 90
        4
 70
   128
 43
0.0
 10
9178.352273
 20
-14594.05068
 10
9178.352273
 20
-14592.92568
 10
9179.105248
 20
-14594.05068
 10
9179.105248
 20
-14592.92568
  0
LWPOLYLINE
  5
19064
330
19407
100
AcDbEntity
  8
0
 62
     5
370
    30
100
AcDbPolyline
 90
       20
 70
   128
 43
0.0
 10
9180.230248
 20
-14593.085119
 10
9180.123955
 20
-14592.978827
 10
9179.964516
 20
-14592.92568
 10
9179.751931
 20
-14592.92568
 10
9179.592492
 20
-14592.978827
 10
9179.477273
 20
-14593.085119
 10
9179.477273
 20
-14593.191412
 10
9179.530419
 20
-14593.297705
 10
9179.592492
 20
-14593.350851
 10
9179.698784
 20
-14593.403997
 10
9180.017663
 20
-14593.51029
 10
9180.123955
 20
-14593.572363
 10
9180.177102
 20
-14593.625509
 10
9180.230248
 20
-14593.731802
 10
9180.230248
 20
-14593.891241
 10
9180.123955
 20
-14593.997534
 10
9179.964516
 20
-14594.05068
 10
9179.751931
 20
-14594.05068
 10
9179.592492
 20
-14593.997534
 10
9179.477273
 20
-14593.891241
  0
LWPOLYLINE
  5
19065
330
19407
100
AcDbEntity
  8
0
 62
     5
370
    30
100
AcDbPolyline
 90
        8
 70
   128
 43
0.0
 10
9180.752923
 20
-14593.997534
 10
9180.699776
 20
-14594.05068
 10
9180.64663
 20
-14593.997534
 10
9180.699776
 20
-14593.944388
 10
9180.752923
 20
-14593.997534
 10
9180.752923
 20
-14594.103827
 10
9180.699776
 20
-14594.210119
 10
9180.64663
 20
-14594.272192
  0
LWPOLYLINE
  5
19066
330
19407
100
AcDbEntity
  8
0
 62
     5
370
    30
100
AcDbPolyline
 90
        2
 70
   128
 43
0.0
 10
9181.736062
 20
-14592.92568
 10
9181.736062
 20
-14594.05068
  0
LWPOLYLINE
  5
19067
330
19407
100
AcDbEntity
  8
0
 62
     5
370
    30
100
AcDbPolyline
 90
       12
 70
   128
 43
0.0
 10
9181.736062
 20
-14592.92568
 10
9182.117013
 20
-14592.92568
 10
9182.276452
 20
-14592.978827
 10
9182.382744
 20
-14593.085119
 10
9182.435891
 20
-14593.191412
 10
9182.489037
 20
-14593.350851
 10
9182.489037
 20
-14593.625509
 10
9182.435891
 20
-14593.784948
 10
9182.382744
 20
-14593.891241
 10
9182.276452
 20
-14593.997534
 10
9182.117013
 20
-14594.05068
 10
9181.736062
 20
-14594.05068
  0
LWPOLYLINE
  5
19068
330
19407
100
AcDbEntity
  8
0
 62
     5
370
    30
100
AcDbPolyline
 90
        3
 70
   128
 43
0.0
 10
9183.729119
 20
-14594.05068
 10
9183.295159
 20
-14592.92568
 10
9182.861062
 20
-14594.05068
  0
LWPOLYLINE
  5
19069
330
19407
100
AcDbEntity
  8
0
 62
     5
370
    30
100
AcDbPolyline
 90
        2
 70
   128
 43
0.0
 10
9183.002785
 20
-14593.678656
 10
9183.587395
 20
-14593.678656
  0
LWPOLYLINE
  5
1906A
330
19407
100
AcDbEntity
  8
0
 62
     5
370
    30
100
AcDbPolyline
 90
        2
 70
   128
 43
0.0
 10
9184.313729
 20
-14592.92568
 10
9184.313729
 20
-14594.05068
  0
LWPOLYLINE
  5
1906B
330
19407
100
AcDbEntity
  8
0
 62
     5
370
    30
100
AcDbPolyline
 90
        2
 70
   128
 43
0.0
 10
9183.932778
 20
-14592.92568
 10
9184.685753
 20
-14592.92568
  0
LWPOLYLINE
  5
1906C
330
19407
100
AcDbEntity
  8
0
 62
     5
370
    30
100
AcDbPolyline
 90
        2
 70
   128
 43
0.0
 10
9185.057778
 20
-14592.92568
 10
9185.057778
 20
-14594.05068
  0
LWPOLYLINE
  5
1906D
330
19407
100
AcDbEntity
  8
0
 62
     5
370
    30
100
AcDbPolyline
 90
        2
 70
   128
 43
0.0
 10
9185.057778
 20
-14592.92568
 10
9185.757607
 20
-14592.92568
  0
LWPOLYLINE
  5
1906E
330
19407
100
AcDbEntity
  8
0
 62
     5
370
    30
100
AcDbPolyline
 90
        2
 70
   128
 43
0.0
 10
9185.057778
 20
-14593.457144
 10
9185.491875
 20
-14593.457144
  0
LWPOLYLINE
  5
1906F
330
19407
100
AcDbEntity
  8
0
 62
     5
370
    30
100
AcDbPolyline
 90
        2
 70
   128
 43
0.0
 10
9185.057778
 20
-14594.05068
 10
9185.757607
 20
-14594.05068
  0
LWPOLYLINE
  5
19070
330
19407
100
AcDbEntity
  8
0
 62
     5
370
    30
100
AcDbPolyline
 90
        2
 70
   128
 43
0.0
 10
9186.129494
 20
-14592.92568
 10
9186.129494
 20
-14594.05068
  0
LWPOLYLINE
  5
19071
330
19407
100
AcDbEntity
  8
0
 62
     5
370
    30
100
AcDbPolyline
 90
       12
 70
   128
 43
0.0
 10
9186.129494
 20
-14592.92568
 10
9186.510445
 20
-14592.92568
 10
9186.669884
 20
-14592.978827
 10
9186.776177
 20
-14593.085119
 10
9186.829323
 20
-14593.191412
 10
9186.88247
 20
-14593.350851
 10
9186.88247
 20
-14593.625509
 10
9186.829323
 20
-14593.784948
 10
9186.776177
 20
-14593.891241
 10
9186.669884
 20
-14593.997534
 10
9186.510445
 20
-14594.05068
 10
9186.129494
 20
-14594.05068
  0
LWPOLYLINE
  5
19072
330
19407
100
AcDbEntity
  8
0
 62
     5
370
    30
100
AcDbPolyline
 90
        2
 70
   128
 43
0.0
 10
9188.379494
 20
-14594.05068
 10
9188.733803
 20
-14594.05068
  0
LWPOLYLINE
  5
19073
330
19407
100
AcDbEntity
  8
0
 62
     5
370
    30
100
AcDbPolyline
 90
        3
 70
   128
 43
0.0
 10
9188.379494
 20
-14593.102835
 10
9188.556649
 20
-14592.92568
 10
9188.556649
 20
-14594.05068
  0
LWPOLYLINE
  5
19074
330
19407
100
AcDbEntity
  8
0
 62
     5
370
    30
100
AcDbPolyline
 90
       23
 70
   128
 43
0.0
 10
9189.805657
 20
-14593.306631
 10
9189.743584
 20
-14593.46607
 10
9189.637292
 20
-14593.572363
 10
9189.477852
 20
-14593.625509
 10
9189.424706
 20
-14593.625509
 10
9189.265267
 20
-14593.572363
 10
9189.158974
 20
-14593.46607
 10
9189.105828
 20
-14593.306631
 10
9189.105828
 20
-14593.253485
 10
9189.158974
 20
-14593.085119
 10
9189.265267
 20
-14592.978827
 10
9189.424706
 20
-14592.92568
 10
9189.477852
 20
-14592.92568
 10
9189.637292
 20
-14592.978827
 10
9189.743584
 20
-14593.085119
 10
9189.805657
 20
-14593.306631
 10
9189.805657
 20
-14593.572363
 10
9189.743584
 20
-14593.838095
 10
9189.637292
 20
-14593.997534
 10
9189.477852
 20
-14594.05068
 10
9189.37156
 20
-14594.05068
 10
9189.212121
 20
-14593.997534
 10
9189.158974
 20
-14593.891241
  0
LWPOLYLINE
  5
19075
330
19407
100
AcDbEntity
  8
0
 62
     5
370
    30
100
AcDbPolyline
 90
       23
 70
   128
 43
0.0
 10
9190.877373
 20
-14593.306631
 10
9190.815301
 20
-14593.46607
 10
9190.709008
 20
-14593.572363
 10
9190.549569
 20
-14593.625509
 10
9190.496422
 20
-14593.625509
 10
9190.336983
 20
-14593.572363
 10
9190.230691
 20
-14593.46607
 10
9190.177544
 20
-14593.306631
 10
9190.177544
 20
-14593.253485
 10
9190.230691
 20
-14593.085119
 10
9190.336983
 20
-14592.978827
 10
9190.496422
 20
-14592.92568
 10
9190.549569
 20
-14592.92568
 10
9190.709008
 20
-14592.978827
 10
9190.815301
 20
-14593.085119
 10
9190.877373
 20
-14593.306631
 10
9190.877373
 20
-14593.572363
 10
9190.815301
 20
-14593.838095
 10
9190.709008
 20
-14593.997534
 10
9190.549569
 20
-14594.05068
 10
9190.443276
 20
-14594.05068
 10
9190.283837
 20
-14593.997534
 10
9190.230691
 20
-14593.891241
  0
LWPOLYLINE
  5
19076
330
19407
100
AcDbEntity
  8
0
 62
     5
370
    30
100
AcDbPolyline
 90
       29
 70
   128
 43
0.0
 10
9191.514992
 20
-14592.92568
 10
9191.355553
 20
-14592.978827
 10
9191.302407
 20
-14593.085119
 10
9191.302407
 20
-14593.200338
 10
9191.355553
 20
-14593.306631
 10
9191.461846
 20
-14593.359778
 10
9191.674431
 20
-14593.412924
 10
9191.83387
 20
-14593.46607
 10
9191.94909
 20
-14593.572363
 10
9192.002236
 20
-14593.678656
 10
9192.002236
 20
-14593.838095
 10
9191.94909
 20
-14593.944388
 10
9191.887017
 20
-14593.997534
 10
9191.727578
 20
-14594.05068
 10
9191.514992
 20
-14594.05068
 10
9191.355553
 20
-14593.997534
 10
9191.302407
 20
-14593.944388
 10
9191.249261
 20
-14593.838095
 10
9191.249261
 20
-14593.678656
 10
9191.302407
 20
-14593.572363
 10
9191.4087
 20
-14593.46607
 10
9191.568139
 20
-14593.412924
 10
9191.780724
 20
-14593.359778
 10
9191.887017
 20
-14593.306631
 10
9191.94909
 20
-14593.200338
 10
9191.94909
 20
-14593.085119
 10
9191.887017
 20
-14592.978827
 10
9191.727578
 20
-14592.92568
 10
9191.514992
 20
-14592.92568
  0
LWPOLYLINE
  5
19077
330
19407
100
AcDbEntity
  8
0
 62
     5
370
    30
100
AcDbPolyline
 90
        3
 70
   128
 43
0.0
 10
9194.367318
 20
-14594.05068
 10
9193.933358
 20
-14592.92568
 10
9193.499261
 20
-14594.05068
  0
LWPOLYLINE
  5
19078
330
19407
100
AcDbEntity
  8
0
 62
     5
370
    30
100
AcDbPolyline
 90
        2
 70
   128
 43
0.0
 10
9193.640984
 20
-14593.678656
 10
9194.225594
 20
-14593.678656
  0
LWPOLYLINE
  5
19079
330
19407
100
AcDbEntity
  8
0
 62
     5
370
    30
100
AcDbPolyline
 90
       20
 70
   128
 43
0.0
 10
9195.323952
 20
-14593.085119
 10
9195.21766
 20
-14592.978827
 10
9195.05822
 20
-14592.92568
 10
9194.845635
 20
-14592.92568
 10
9194.686196
 20
-14592.978827
 10
9194.570977
 20
-14593.085119
 10
9194.570977
 20
-14593.191412
 10
9194.624123
 20
-14593.297705
 10
9194.686196
 20
-14593.350851
 10
9194.792489
 20
-14593.403997
 10
9195.111367
 20
-14593.51029
 10
9195.21766
 20
-14593.572363
 10
9195.270806
 20
-14593.625509
 10
9195.323952
 20
-14593.731802
 10
9195.323952
 20
-14593.891241
 10
9195.21766
 20
-14593.997534
 10
9195.05822
 20
-14594.05068
 10
9194.845635
 20
-14594.05068
 10
9194.686196
 20
-14593.997534
 10
9194.570977
 20
-14593.891241
  0
LWPOLYLINE
  5
1907A
330
19407
100
AcDbEntity
  8
0
 62
     5
370
    30
100
AcDbPolyline
 90
        3
 70
   128
 43
0.0
 10
9197.689034
 20
-14594.05068
 10
9197.255074
 20
-14592.92568
 10
9196.820977
 20
-14594.05068
  0
LWPOLYLINE
  5
1907B
330
19407
100
AcDbEntity
  8
0
 62
     5
370
    30
100
AcDbPolyline
 90
        2
 70
   128
 43
0.0
 10
9196.9627
 20
-14593.678656
 10
9197.54731
 20
-14593.678656
  0
LWPOLYLINE
  5
1907C
330
19407
100
AcDbEntity
  8
0
 62
     5
370
    30
100
AcDbPolyline
 90
        5
 70
   128
 43
0.0
 10
9197.892693
 20
-14594.05068
 10
9197.892693
 20
-14592.92568
 10
9198.32679
 20
-14594.05068
 10
9198.751961
 20
-14592.92568
 10
9198.751961
 20
-14594.05068
  0
LWPOLYLINE
  5
1907D
330
19407
100
AcDbEntity
  8
0
 62
     5
370
    30
100
AcDbPolyline
 90
        2
 70
   128
 43
0.0
 10
9199.123986
 20
-14592.92568
 10
9199.123986
 20
-14594.05068
  0
LWPOLYLINE
  5
1907E
330
19407
100
AcDbEntity
  8
0
 62
     5
370
    30
100
AcDbPolyline
 90
        2
 70
   128
 43
0.0
 10
9199.123986
 20
-14592.92568
 10
9199.823815
 20
-14592.92568
  0
LWPOLYLINE
  5
1907F
330
19407
100
AcDbEntity
  8
0
 62
     5
370
    30
100
AcDbPolyline
 90
        2
 70
   128
 43
0.0
 10
9199.123986
 20
-14593.457144
 10
9199.558083
 20
-14593.457144
  0
LWPOLYLINE
  5
19080
330
19407
100
AcDbEntity
  8
0
 62
     5
370
    30
100
AcDbPolyline
 90
        2
 70
   128
 43
0.0
 10
9199.123986
 20
-14594.05068
 10
9199.823815
 20
-14594.05068
  0
LWPOLYLINE
  5
19081
330
19407
100
AcDbEntity
  8
0
 62
     5
370
    30
100
AcDbPolyline
 90
        4
 70
   128
 43
0.0
 10
9200.195702
 20
-14594.05068
 10
9200.195702
 20
-14592.92568
 10
9200.948678
 20
-14594.05068
 10
9200.948678
 20
-14592.92568
  0
LWPOLYLINE
  5
19082
330
19407
100
AcDbEntity
  8
0
 62
     5
370
    30
100
AcDbPolyline
 90
        2
 70
   128
 43
0.0
 10
9201.320702
 20
-14592.92568
 10
9201.320702
 20
-14594.05068
  0
LWPOLYLINE
  5
19083
330
19407
100
AcDbEntity
  8
0
 62
     5
370
    30
100
AcDbPolyline
 90
       12
 70
   128
 43
0.0
 10
9201.320702
 20
-14592.92568
 10
9201.701653
 20
-14592.92568
 10
9201.861092
 20
-14592.978827
 10
9201.967385
 20
-14593.085119
 10
9202.020531
 20
-14593.191412
 10
9202.073678
 20
-14593.350851
 10
9202.073678
 20
-14593.625509
 10
9202.020531
 20
-14593.784948
 10
9201.967385
 20
-14593.891241
 10
9201.861092
 20
-14593.997534
 10
9201.701653
 20
-14594.05068
 10
9201.320702
 20
-14594.05068
  0
LWPOLYLINE
  5
19084
330
19407
100
AcDbEntity
  8
0
 62
     5
370
    30
100
AcDbPolyline
 90
        2
 70
   128
 43
0.0
 10
9202.445702
 20
-14592.92568
 10
9202.445702
 20
-14594.05068
  0
LWPOLYLINE
  5
19085
330
19407
100
AcDbEntity
  8
0
 62
     5
370
    30
100
AcDbPolyline
 90
        2
 70
   128
 43
0.0
 10
9202.445702
 20
-14592.92568
 10
9203.145531
 20
-14592.92568
  0
LWPOLYLINE
  5
19086
330
19407
100
AcDbEntity
  8
0
 62
     5
370
    30
100
AcDbPolyline
 90
        2
 70
   128
 43
0.0
 10
9202.445702
 20
-14593.457144
 10
9202.879799
 20
-14593.457144
  0
LWPOLYLINE
  5
19087
330
19407
100
AcDbEntity
  8
0
 62
     5
370
    30
100
AcDbPolyline
 90
        2
 70
   128
 43
0.0
 10
9202.445702
 20
-14594.05068
 10
9203.145531
 20
-14594.05068
  0
LWPOLYLINE
  5
19088
330
19407
100
AcDbEntity
  8
0
 62
     5
370
    30
100
AcDbPolyline
 90
        2
 70
   128
 43
0.0
 10
9203.517418
 20
-14592.92568
 10
9203.517418
 20
-14594.05068
  0
LWPOLYLINE
  5
19089
330
19407
100
AcDbEntity
  8
0
 62
     5
370
    30
100
AcDbPolyline
 90
       12
 70
   128
 43
0.0
 10
9203.517418
 20
-14592.92568
 10
9203.898369
 20
-14592.92568
 10
9204.057808
 20
-14592.978827
 10
9204.164101
 20
-14593.085119
 10
9204.217248
 20
-14593.191412
 10
9204.270394
 20
-14593.350851
 10
9204.270394
 20
-14593.625509
 10
9204.217248
 20
-14593.784948
 10
9204.164101
 20
-14593.891241
 10
9204.057808
 20
-14593.997534
 10
9203.898369
 20
-14594.05068
 10
9203.517418
 20
-14594.05068
  0
LWPOLYLINE
  5
1908A
330
19407
100
AcDbEntity
  8
0
 62
     5
370
    30
100
AcDbPolyline
 90
        2
 70
   128
 43
0.0
 10
9205.767418
 20
-14592.92568
 10
9205.767418
 20
-14594.05068
  0
LWPOLYLINE
  5
1908B
330
19407
100
AcDbEntity
  8
0
 62
     5
370
    30
100
AcDbPolyline
 90
        9
 70
   128
 43
0.0
 10
9205.767418
 20
-14592.92568
 10
9206.254662
 20
-14592.92568
 10
9206.414101
 20
-14592.978827
 10
9206.467248
 20
-14593.031973
 10
9206.520394
 20
-14593.138266
 10
9206.520394
 20
-14593.244558
 10
9206.467248
 20
-14593.350851
 10
9206.414101
 20
-14593.403997
 10
9206.254662
 20
-14593.457144
  0
LWPOLYLINE
  5
1908C
330
19407
100
AcDbEntity
  8
0
 62
     5
370
    30
100
AcDbPolyline
 90
       10
 70
   128
 43
0.0
 10
9205.767418
 20
-14593.457144
 10
9206.254662
 20
-14593.457144
 10
9206.414101
 20
-14593.51029
 10
9206.467248
 20
-14593.572363
 10
9206.520394
 20
-14593.678656
 10
9206.520394
 20
-14593.838095
 10
9206.467248
 20
-14593.944388
 10
9206.414101
 20
-14593.997534
 10
9206.254662
 20
-14594.05068
 10
9205.767418
 20
-14594.05068
  0
LWPOLYLINE
  5
1908D
330
19407
100
AcDbEntity
  8
0
 62
     5
370
    30
100
AcDbPolyline
 90
        3
 70
   128
 43
0.0
 10
9206.892418
 20
-14592.92568
 10
9207.326516
 20
-14593.457144
 10
9207.326516
 20
-14594.05068
  0
LWPOLYLINE
  5
1908E
330
19407
100
AcDbEntity
  8
0
 62
     5
370
    30
100
AcDbPolyline
 90
        2
 70
   128
 43
0.0
 10
9207.751687
 20
-14592.92568
 10
9207.326516
 20
-14593.457144
  0
LWPOLYLINE
  5
1908F
330
19407
100
AcDbEntity
  8
0
 62
     5
370
    30
100
AcDbPolyline
 90
        2
 70
   128
 43
0.0
 10
9209.735955
 20
-14592.92568
 10
9209.735955
 20
-14594.05068
  0
LWPOLYLINE
  5
19090
330
19407
100
AcDbEntity
  8
0
 62
     5
370
    30
100
AcDbPolyline
 90
        2
 70
   128
 43
0.0
 10
9209.355004
 20
-14592.92568
 10
9210.107979
 20
-14592.92568
  0
LWPOLYLINE
  5
19091
330
19407
100
AcDbEntity
  8
0
 62
     5
370
    30
100
AcDbPolyline
 90
        2
 70
   128
 43
0.0
 10
9210.480004
 20
-14592.92568
 10
9210.480004
 20
-14594.05068
  0
LWPOLYLINE
  5
19092
330
19407
100
AcDbEntity
  8
0
 62
     5
370
    30
100
AcDbPolyline
 90
        2
 70
   128
 43
0.0
 10
9211.232979
 20
-14592.92568
 10
9211.232979
 20
-14594.05068
  0
LWPOLYLINE
  5
19093
330
19407
100
AcDbEntity
  8
0
 62
     5
370
    30
100
AcDbPolyline
 90
        2
 70
   128
 43
0.0
 10
9210.480004
 20
-14593.457144
 10
9211.232979
 20
-14593.457144
  0
LWPOLYLINE
  5
19094
330
19407
100
AcDbEntity
  8
0
 62
     5
370
    30
100
AcDbPolyline
 90
        2
 70
   128
 43
0.0
 10
9211.605004
 20
-14592.92568
 10
9211.605004
 20
-14594.05068
  0
LWPOLYLINE
  5
19095
330
19407
100
AcDbEntity
  8
0
 62
     5
370
    30
100
AcDbPolyline
 90
        2
 70
   128
 43
0.0
 10
9211.605004
 20
-14592.92568
 10
9212.304833
 20
-14592.92568
  0
LWPOLYLINE
  5
19096
330
19407
100
AcDbEntity
  8
0
 62
     5
370
    30
100
AcDbPolyline
 90
        2
 70
   128
 43
0.0
 10
9211.605004
 20
-14593.457144
 10
9212.039101
 20
-14593.457144
  0
LWPOLYLINE
  5
19097
330
19407
100
AcDbEntity
  8
0
 62
     5
370
    30
100
AcDbPolyline
 90
        2
 70
   128
 43
0.0
 10
9211.605004
 20
-14594.05068
 10
9212.304833
 20
-14594.05068
  0
LWPOLYLINE
  5
19098
330
19407
100
AcDbEntity
  8
0
 62
     5
370
    30
100
AcDbPolyline
 90
       14
 70
   128
 43
0.0
 10
9213.801583
 20
-14593.200338
 10
9213.801583
 20
-14593.147192
 10
9213.854729
 20
-14593.040899
 10
9213.907876
 20
-14592.978827
 10
9214.014168
 20
-14592.92568
 10
9214.226754
 20
-14592.92568
 10
9214.333047
 20
-14592.978827
 10
9214.386193
 20
-14593.040899
 10
9214.448266
 20
-14593.147192
 10
9214.448266
 20
-14593.253485
 10
9214.386193
 20
-14593.359778
 10
9214.2799
 20
-14593.519217
 10
9213.748437
 20
-14594.05068
 10
9214.501412
 20
-14594.05068
  0
LWPOLYLINE
  5
19099
330
19407
100
AcDbEntity
  8
0
 62
     5
370
    30
100
AcDbPolyline
 90
       17
 70
   128
 43
0.0
 10
9215.183526
 20
-14592.92568
 10
9215.024087
 20
-14592.978827
 10
9214.917794
 20
-14593.147192
 10
9214.86451
 20
-14593.412924
 10
9214.86451
 20
-14593.572363
 10
9214.917794
 20
-14593.838095
 10
9215.024087
 20
-14593.997534
 10
9215.183526
 20
-14594.05068
 10
9215.289818
 20
-14594.05068
 10
9215.449257
 20
-14593.997534
 10
9215.564339
 20
-14593.838095
 10
9215.617486
 20
-14593.572363
 10
9215.617486
 20
-14593.412924
 10
9215.564339
 20
-14593.147192
 10
9215.449257
 20
-14592.978827
 10
9215.289818
 20
-14592.92568
 10
9215.183526
 20
-14592.92568
  0
LWPOLYLINE
  5
1909A
330
19407
100
AcDbEntity
  8
0
 62
     5
370
    30
100
AcDbPolyline
 90
       17
 70
   128
 43
0.0
 10
9216.299599
 20
-14592.92568
 10
9216.14016
 20
-14592.978827
 10
9216.033867
 20
-14593.147192
 10
9215.980584
 20
-14593.412924
 10
9215.980584
 20
-14593.572363
 10
9216.033867
 20
-14593.838095
 10
9216.14016
 20
-14593.997534
 10
9216.299599
 20
-14594.05068
 10
9216.405892
 20
-14594.05068
 10
9216.565331
 20
-14593.997534
 10
9216.680413
 20
-14593.838095
 10
9216.733559
 20
-14593.572363
 10
9216.733559
 20
-14593.412924
 10
9216.680413
 20
-14593.147192
 10
9216.565331
 20
-14592.978827
 10
9216.405892
 20
-14592.92568
 10
9216.299599
 20
-14592.92568
  0
LWPOLYLINE
  5
1909B
330
19407
100
AcDbEntity
  8
0
 62
     5
370
    30
100
AcDbPolyline
 90
       15
 70
   128
 43
0.0
 10
9217.211876
 20
-14592.92568
 10
9217.805413
 20
-14592.92568
 10
9217.477608
 20
-14593.359778
 10
9217.637047
 20
-14593.359778
 10
9217.74334
 20
-14593.412924
 10
9217.805413
 20
-14593.46607
 10
9217.858559
 20
-14593.625509
 10
9217.858559
 20
-14593.731802
 10
9217.805413
 20
-14593.891241
 10
9217.690194
 20
-14593.997534
 10
9217.530755
 20
-14594.05068
 10
9217.371316
 20
-14594.05068
 10
9217.211876
 20
-14593.997534
 10
9217.15873
 20
-14593.944388
 10
9217.105584
 20
-14593.838095
  0
LWPOLYLINE
  5
1909C
330
19407
100
AcDbEntity
  8
0
 62
     5
370
    30
100
AcDbPolyline
 90
        2
 70
   128
 43
0.0
 10
9219.709893
 20
-14594.05068
 10
9219.355584
 20
-14594.05068
  0
LWPOLYLINE
  5
1909D
330
19407
100
AcDbEntity
  8
0
 62
     5
370
    30
100
AcDbPolyline
 90
        2
 70
   128
 43
0.0
 10
9219.532738
 20
-14594.05068
 10
9219.532738
 20
-14592.92568
  0
LWPOLYLINE
  5
1909E
330
19407
100
AcDbEntity
  8
0
 62
     5
370
    30
100
AcDbPolyline
 90
        2
 70
   128
 43
0.0
 10
9219.355584
 20
-14592.92568
 10
9219.709893
 20
-14592.92568
  0
LWPOLYLINE
  5
1909F
330
19407
100
AcDbEntity
  8
0
 62
     5
370
    30
100
AcDbPolyline
 90
        4
 70
   128
 43
0.0
 10
9220.081917
 20
-14594.05068
 10
9220.081917
 20
-14592.92568
 10
9220.834893
 20
-14594.05068
 10
9220.834893
 20
-14592.92568
  0
LWPOLYLINE
  5
190A0
330
19407
100
AcDbEntity
  8
0
 62
     5
370
    30
100
AcDbPolyline
 90
        2
 70
   128
 43
0.0
 10
9221.587868
 20
-14592.92568
 10
9221.587868
 20
-14594.05068
  0
LWPOLYLINE
  5
190A1
330
19407
100
AcDbEntity
  8
0
 62
     5
370
    30
100
AcDbPolyline
 90
        2
 70
   128
 43
0.0
 10
9221.206917
 20
-14592.92568
 10
9221.959893
 20
-14592.92568
  0
LWPOLYLINE
  5
190A2
330
19407
100
AcDbEntity
  8
0
 62
     5
370
    30
100
AcDbPolyline
 90
        2
 70
   128
 43
0.0
 10
9222.331917
 20
-14592.92568
 10
9222.331917
 20
-14594.05068
  0
LWPOLYLINE
  5
190A3
330
19407
100
AcDbEntity
  8
0
 62
     5
370
    30
100
AcDbPolyline
 90
        2
 70
   128
 43
0.0
 10
9222.331917
 20
-14592.92568
 10
9223.031746
 20
-14592.92568
  0
LWPOLYLINE
  5
190A4
330
19407
100
AcDbEntity
  8
0
 62
     5
370
    30
100
AcDbPolyline
 90
        2
 70
   128
 43
0.0
 10
9222.331917
 20
-14593.457144
 10
9222.766015
 20
-14593.457144
  0
LWPOLYLINE
  5
190A5
330
19407
100
AcDbEntity
  8
0
 62
     5
370
    30
100
AcDbPolyline
 90
        2
 70
   128
 43
0.0
 10
9222.331917
 20
-14594.05068
 10
9223.031746
 20
-14594.05068
  0
LWPOLYLINE
  5
190A6
330
19407
100
AcDbEntity
  8
0
 62
     5
370
    30
100
AcDbPolyline
 90
        2
 70
   128
 43
0.0
 10
9223.403634
 20
-14592.92568
 10
9223.403634
 20
-14594.05068
  0
LWPOLYLINE
  5
190A7
330
19407
100
AcDbEntity
  8
0
 62
     5
370
    30
100
AcDbPolyline
 90
       10
 70
   128
 43
0.0
 10
9223.403634
 20
-14592.92568
 10
9223.890877
 20
-14592.92568
 10
9224.050316
 20
-14592.978827
 10
9224.103463
 20
-14593.031973
 10
9224.156609
 20
-14593.138266
 10
9224.156609
 20
-14593.244558
 10
9224.103463
 20
-14593.350851
 10
9224.050316
 20
-14593.403997
 10
9223.890877
 20
-14593.457144
 10
9223.403634
 20
-14593.457144
  0
LWPOLYLINE
  5
190A8
330
19407
100
AcDbEntity
  8
0
 62
     5
370
    30
100
AcDbPolyline
 90
        2
 70
   128
 43
0.0
 10
9223.784585
 20
-14593.457144
 10
9224.156609
 20
-14594.05068
  0
LWPOLYLINE
  5
190A9
330
19407
100
AcDbEntity
  8
0
 62
     5
370
    30
100
AcDbPolyline
 90
        2
 70
   128
 43
0.0
 10
9224.882943
 20
-14594.05068
 10
9224.528634
 20
-14594.05068
  0
LWPOLYLINE
  5
190AA
330
19407
100
AcDbEntity
  8
0
 62
     5
370
    30
100
AcDbPolyline
 90
        2
 70
   128
 43
0.0
 10
9224.705788
 20
-14594.05068
 10
9224.705788
 20
-14592.92568
  0
LWPOLYLINE
  5
190AB
330
19407
100
AcDbEntity
  8
0
 62
     5
370
    30
100
AcDbPolyline
 90
        2
 70
   128
 43
0.0
 10
9224.528634
 20
-14592.92568
 10
9224.882943
 20
-14592.92568
  0
LWPOLYLINE
  5
190AC
330
19407
100
AcDbEntity
  8
0
 62
     5
370
    30
100
AcDbPolyline
 90
        5
 70
   128
 43
0.0
 10
9225.254967
 20
-14594.05068
 10
9225.254967
 20
-14592.92568
 10
9225.689065
 20
-14594.05068
 10
9226.114235
 20
-14592.92568
 10
9226.114235
 20
-14594.05068
  0
LWPOLYLINE
  5
190AD
330
19407
100
AcDbEntity
  8
0
 62
     5
370
    30
100
AcDbPolyline
 90
       20
 70
   128
 43
0.0
 10
9228.470528
 20
-14593.085119
 10
9228.364235
 20
-14592.978827
 10
9228.204796
 20
-14592.92568
 10
9227.992211
 20
-14592.92568
 10
9227.832772
 20
-14592.978827
 10
9227.717553
 20
-14593.085119
 10
9227.717553
 20
-14593.191412
 10
9227.770699
 20
-14593.297705
 10
9227.832772
 20
-14593.350851
 10
9227.939065
 20
-14593.403997
 10
9228.257943
 20
-14593.51029
 10
9228.364235
 20
-14593.572363
 10
9228.417382
 20
-14593.625509
 10
9228.470528
 20
-14593.731802
 10
9228.470528
 20
-14593.891241
 10
9228.364235
 20
-14593.997534
 10
9228.204796
 20
-14594.05068
 10
9227.992211
 20
-14594.05068
 10
9227.832772
 20
-14593.997534
 10
9227.717553
 20
-14593.891241
  0
LWPOLYLINE
  5
190AE
330
19407
100
AcDbEntity
  8
0
 62
     5
370
    30
100
AcDbPolyline
 90
        2
 70
   128
 43
0.0
 10
9228.842553
 20
-14592.92568
 10
9228.842553
 20
-14594.05068
  0
LWPOLYLINE
  5
190AF
330
19407
100
AcDbEntity
  8
0
 62
     5
370
    30
100
AcDbPolyline
 90
       10
 70
   128
 43
0.0
 10
9228.842553
 20
-14592.92568
 10
9229.329796
 20
-14592.92568
 10
9229.489235
 20
-14592.978827
 10
9229.542382
 20
-14593.031973
 10
9229.595528
 20
-14593.138266
 10
9229.595528
 20
-14593.297705
 10
9229.542382
 20
-14593.403997
 10
9229.489235
 20
-14593.457144
 10
9229.329796
 20
-14593.51029
 10
9228.842553
 20
-14593.51029
  0
LWPOLYLINE
  5
190B0
330
19407
100
AcDbEntity
  8
0
 62
     5
370
    30
100
AcDbPolyline
 90
        2
 70
   128
 43
0.0
 10
9229.967553
 20
-14592.92568
 10
9229.967553
 20
-14594.05068
  0
LWPOLYLINE
  5
190B1
330
19407
100
AcDbEntity
  8
0
 62
     5
370
    30
100
AcDbPolyline
 90
        2
 70
   128
 43
0.0
 10
9229.967553
 20
-14592.92568
 10
9230.667382
 20
-14592.92568
  0
LWPOLYLINE
  5
190B2
330
19407
100
AcDbEntity
  8
0
 62
     5
370
    30
100
AcDbPolyline
 90
        2
 70
   128
 43
0.0
 10
9229.967553
 20
-14593.457144
 10
9230.40165
 20
-14593.457144
  0
LWPOLYLINE
  5
190B3
330
19407
100
AcDbEntity
  8
0
 62
     5
370
    30
100
AcDbPolyline
 90
        2
 70
   128
 43
0.0
 10
9229.967553
 20
-14594.05068
 10
9230.667382
 20
-14594.05068
  0
LWPOLYLINE
  5
190B4
330
19407
100
AcDbEntity
  8
0
 62
     5
370
    30
100
AcDbPolyline
 90
       18
 70
   128
 43
0.0
 10
9231.845391
 20
-14593.191412
 10
9231.792245
 20
-14593.085119
 10
9231.685952
 20
-14592.978827
 10
9231.579659
 20
-14592.92568
 10
9231.367074
 20
-14592.92568
 10
9231.260781
 20
-14592.978827
 10
9231.154488
 20
-14593.085119
 10
9231.092415
 20
-14593.191412
 10
9231.039269
 20
-14593.350851
 10
9231.039269
 20
-14593.625509
 10
9231.092415
 20
-14593.784948
 10
9231.154488
 20
-14593.891241
 10
9231.260781
 20
-14593.997534
 10
9231.367074
 20
-14594.05068
 10
9231.579659
 20
-14594.05068
 10
9231.685952
 20
-14593.997534
 10
9231.792245
 20
-14593.891241
 10
9231.845391
 20
-14593.784948
  0
LWPOLYLINE
  5
190B5
330
19407
100
AcDbEntity
  8
0
 62
     5
370
    30
100
AcDbPolyline
 90
        2
 70
   128
 43
0.0
 10
9232.571724
 20
-14594.05068
 10
9232.217415
 20
-14594.05068
  0
LWPOLYLINE
  5
190B6
330
19407
100
AcDbEntity
  8
0
 62
     5
370
    30
100
AcDbPolyline
 90
        2
 70
   128
 43
0.0
 10
9232.39457
 20
-14594.05068
 10
9232.39457
 20
-14592.92568
  0
LWPOLYLINE
  5
190B7
330
19407
100
AcDbEntity
  8
0
 62
     5
370
    30
100
AcDbPolyline
 90
        2
 70
   128
 43
0.0
 10
9232.217415
 20
-14592.92568
 10
9232.571724
 20
-14592.92568
  0
LWPOLYLINE
  5
190B8
330
19407
100
AcDbEntity
  8
0
 62
     5
370
    30
100
AcDbPolyline
 90
        2
 70
   128
 43
0.0
 10
9232.943749
 20
-14592.92568
 10
9232.943749
 20
-14594.05068
  0
LWPOLYLINE
  5
190B9
330
19407
100
AcDbEntity
  8
0
 62
     5
370
    30
100
AcDbPolyline
 90
        2
 70
   128
 43
0.0
 10
9232.943749
 20
-14592.92568
 10
9233.643578
 20
-14592.92568
  0
LWPOLYLINE
  5
190BA
330
19407
100
AcDbEntity
  8
0
 62
     5
370
    30
100
AcDbPolyline
 90
        2
 70
   128
 43
0.0
 10
9232.943749
 20
-14593.457144
 10
9233.377846
 20
-14593.457144
  0
LWPOLYLINE
  5
190BB
330
19407
100
AcDbEntity
  8
0
 62
     5
370
    30
100
AcDbPolyline
 90
        2
 70
   128
 43
0.0
 10
9234.369774
 20
-14594.05068
 10
9234.015465
 20
-14594.05068
  0
LWPOLYLINE
  5
190BC
330
19407
100
AcDbEntity
  8
0
 62
     5
370
    30
100
AcDbPolyline
 90
        2
 70
   128
 43
0.0
 10
9234.19262
 20
-14594.05068
 10
9234.19262
 20
-14592.92568
  0
LWPOLYLINE
  5
190BD
330
19407
100
AcDbEntity
  8
0
 62
     5
370
    30
100
AcDbPolyline
 90
        2
 70
   128
 43
0.0
 10
9234.015465
 20
-14592.92568
 10
9234.369774
 20
-14592.92568
  0
LWPOLYLINE
  5
190BE
330
19407
100
AcDbEntity
  8
0
 62
     5
370
    30
100
AcDbPolyline
 90
       18
 70
   128
 43
0.0
 10
9235.547921
 20
-14593.191412
 10
9235.494774
 20
-14593.085119
 10
9235.388482
 20
-14592.978827
 10
9235.282189
 20
-14592.92568
 10
9235.069604
 20
-14592.92568
 10
9234.963311
 20
-14592.978827
 10
9234.857018
 20
-14593.085119
 10
9234.794945
 20
-14593.191412
 10
9234.741799
 20
-14593.350851
 10
9234.741799
 20
-14593.625509
 10
9234.794945
 20
-14593.784948
 10
9234.857018
 20
-14593.891241
 10
9234.963311
 20
-14593.997534
 10
9235.069604
 20
-14594.05068
 10
9235.282189
 20
-14594.05068
 10
9235.388482
 20
-14593.997534
 10
9235.494774
 20
-14593.891241
 10
9235.547921
 20
-14593.784948
  0
LWPOLYLINE
  5
190BF
330
19407
100
AcDbEntity
  8
0
 62
     5
370
    30
100
AcDbPolyline
 90
        3
 70
   128
 43
0.0
 10
9236.788003
 20
-14594.05068
 10
9236.354043
 20
-14592.92568
 10
9235.919945
 20
-14594.05068
  0
LWPOLYLINE
  5
190C0
330
19407
100
AcDbEntity
  8
0
 62
     5
370
    30
100
AcDbPolyline
 90
        2
 70
   128
 43
0.0
 10
9236.061669
 20
-14593.678656
 10
9236.646279
 20
-14593.678656
  0
LWPOLYLINE
  5
190C1
330
19407
100
AcDbEntity
  8
0
 62
     5
370
    30
100
AcDbPolyline
 90
        2
 70
   128
 43
0.0
 10
9237.372613
 20
-14592.92568
 10
9237.372613
 20
-14594.05068
  0
LWPOLYLINE
  5
190C2
330
19407
100
AcDbEntity
  8
0
 62
     5
370
    30
100
AcDbPolyline
 90
        2
 70
   128
 43
0.0
 10
9236.991662
 20
-14592.92568
 10
9237.744637
 20
-14592.92568
  0
LWPOLYLINE
  5
190C3
330
19407
100
AcDbEntity
  8
0
 62
     5
370
    30
100
AcDbPolyline
 90
        2
 70
   128
 43
0.0
 10
9238.470971
 20
-14594.05068
 10
9238.116662
 20
-14594.05068
  0
LWPOLYLINE
  5
190C4
330
19407
100
AcDbEntity
  8
0
 62
     5
370
    30
100
AcDbPolyline
 90
        2
 70
   128
 43
0.0
 10
9238.293816
 20
-14594.05068
 10
9238.293816
 20
-14592.92568
  0
LWPOLYLINE
  5
190C5
330
19407
100
AcDbEntity
  8
0
 62
     5
370
    30
100
AcDbPolyline
 90
        2
 70
   128
 43
0.0
 10
9238.116662
 20
-14592.92568
 10
9238.470971
 20
-14592.92568
  0
LWPOLYLINE
  5
190C6
330
19407
100
AcDbEntity
  8
0
 62
     5
370
    30
100
AcDbPolyline
 90
       25
 70
   128
 43
0.0
 10
9238.842995
 20
-14593.873526
 10
9238.851922
 20
-14593.917746
 10
9238.869637
 20
-14593.962103
 10
9238.905068
 20
-14594.006323
 10
9238.940499
 20
-14594.032965
 10
9239.02015
 20
-14594.05068
 10
9239.392174
 20
-14594.05068
 10
9239.480752
 20
-14594.032965
 10
9239.516182
 20
-14594.006323
 10
9239.551613
 20
-14593.962103
 10
9239.569329
 20
-14593.917746
 10
9239.578255
 20
-14593.873526
 10
9239.578255
 20
-14593.102835
 10
9239.569329
 20
-14593.058615
 10
9239.551613
 20
-14593.014257
 10
9239.516182
 20
-14592.970038
 10
9239.498467
 20
-14592.952322
 10
9239.392174
 20
-14592.92568
 10
9239.02015
 20
-14592.92568
 10
9238.922783
 20
-14592.952322
 10
9238.905068
 20
-14592.970038
 10
9238.869637
 20
-14593.014257
 10
9238.851922
 20
-14593.058615
 10
9238.842995
 20
-14593.102835
 10
9238.842995
 20
-14593.873526
  0
LWPOLYLINE
  5
190C7
330
19407
100
AcDbEntity
  8
0
 62
     5
370
    30
100
AcDbPolyline
 90
        4
 70
   128
 43
0.0
 10
9239.950142
 20
-14594.05068
 10
9239.950142
 20
-14592.92568
 10
9240.703118
 20
-14594.05068
 10
9240.703118
 20
-14592.92568
  0
LWPOLYLINE
  5
190C8
330
19407
100
AcDbEntity
  8
0
 62
     5
370
    30
100
AcDbPolyline
 90
       20
 70
   128
 43
0.0
 10
9241.828118
 20
-14593.085119
 10
9241.721825
 20
-14592.978827
 10
9241.562386
 20
-14592.92568
 10
9241.349801
 20
-14592.92568
 10
9241.190362
 20
-14592.978827
 10
9241.075142
 20
-14593.085119
 10
9241.075142
 20
-14593.191412
 10
9241.128289
 20
-14593.297705
 10
9241.190362
 20
-14593.350851
 10
9241.296654
 20
-14593.403997
 10
9241.615532
 20
-14593.51029
 10
9241.721825
 20
-14593.572363
 10
9241.774972
 20
-14593.625509
 10
9241.828118
 20
-14593.731802
 10
9241.828118
 20
-14593.891241
 10
9241.721825
 20
-14593.997534
 10
9241.562386
 20
-14594.05068
 10
9241.349801
 20
-14594.05068
 10
9241.190362
 20
-14593.997534
 10
9241.075142
 20
-14593.891241
  0
LWPOLYLINE
  5
190C9
330
19407
100
AcDbEntity
  8
0
 62
     5
370
    30
100
AcDbPolyline
 90
        5
 70
   128
 43
0.0
 10
9242.297646
 20
-14593.944388
 10
9242.2445
 20
-14593.997534
 10
9242.297646
 20
-14594.05068
 10
9242.350792
 20
-14593.997534
 10
9242.297646
 20
-14593.944388
  0
HATCH
  5
190E7
330
19407
100
AcDbEntity
  8
0
  6
Continuous
 62
     6
370
    30
100
AcDbHatch
 10
0.0
 20
0.0
 30
0.0
210
0.0
220
0.0
230
1.0
  2
SOLID
 70
     1
 71
     0
 91
        1
 92
        1
 93
        1
 72
     2
 10
9270.849265638695
 20
-14654.14575474384
 40
0.2061283355202951
 50
0.0
 51
360.0
 73
     1
 97
        0
 75
     0
 76
     1
 98
        0
  0
MTEXT
  5
18E40
330
19407
100
AcDbEntity
  8
0
  6
Continuous
 62
     5
370
    30
100
AcDbMText
 10
9272.156708
 20
-14759.748637
 30
0.0
 40
1.125
 41
0.0
 71
     4
 72
     1
  1
TACK WELDING OF REINFORCEMENT IS NOT PERMITTED.  REINFORCING CAGES AND \PLONGITUDINAL STEEL SHALL BE ADEQUATELY TIED WITH APPROVED MEANS TO PREVENT \PRACKING AND MISALIGNMENT.
  7
STD SHEET
 73
     2
 44
1.4
  0
LWPOLYLINE
  5
190F6
330
19407
100
AcDbEntity
  8
0
 62
   250
370
   106
100
AcDbPolyline
 90
        4
 70
   129
 43
0.0
 10
9223.647694
 20
-14579.856418
 10
9231.176023
 20
-14579.856418
 10
9231.176023
 20
-14581.784405
 10
9223.647694
 20
-14581.784405
  0
LINE
  5
18D63
330
19407
100
AcDbEntity
  8
0
  6
Continuous
 62
     6
370
    40
100
AcDbLine
 10
9268.970136
 20
-14628.771914
 30
0.0
 11
9289.553718
 21
-14628.771914
 31
0.0
  0
LINE
  5
18D64
330
19407
100
AcDbEntity
  8
0
  6
Continuous
 62
     6
370
    40
100
AcDbLine
 10
9268.616451
 20
-14663.493766
 30
0.0
 11
9277.246092
 21
-14663.493766
 31
0.0
  0
LINE
  5
18D65
330
19407
100
AcDbEntity
  8
0
  6
Continuous
 62
     6
370
    40
100
AcDbLine
 10
9269.000974
 20
-14680.832104
 30
0.0
 11
9294.710368
 21
-14680.832104
 31
0.0
  0
LINE
  5
18D66
330
19407
100
AcDbEntity
  8
0
  6
Continuous
 62
     6
370
    40
100
AcDbLine
 10
9269.001119
 20
-14705.803079
 30
0.0
 11
9313.93118
 21
-14705.803079
 31
0.0
  0
LINE
  5
18DD0
330
19407
100
AcDbEntity
  8
0
  6
Continuous
 62
     6
370
    30
100
AcDbLine
 10
9314.913614
 20
-14717.157806
 30
0.0
 11
9328.563185
 21
-14717.157806
 31
0.0
  0
LINE
  5
18DD1
330
19407
100
AcDbEntity
  8
0
  6
Continuous
 62
     6
370
    30
100
AcDbLine
 10
9344.868676
 20
-14717.252036
 30
0.0
 11
9357.698877
 21
-14717.252036
 31
0.0
  0
LINE
  5
18E59
330
19407
100
AcDbEntity
  8
0
  6
Continuous
 62
     6
370
    40
100
AcDbLine
 10
9378.975299
 20
-14721.082072
 30
0.0
 11
9393.130507
 21
-14721.082072
 31
0.0
  0
LINE
  5
18E5A
330
19407
100
AcDbEntity
  8
0
  6
Continuous
 62
     6
370
    40
100
AcDbLine
 10
9268.998532
 20
-14755.191428
 30
0.0
 11
9276.317636
 21
-14755.191428
 31
0.0
  0
LINE
  5
18D68
330
19407
100
AcDbEntity
  8
0
  6
Continuous
 62
     6
370
    40
100
AcDbLine
 10
9378.956732
 20
-14619.537364
 30
0.0
 11
9395.558593
 21
-14619.537364
 31
0.0
  0
TEXT
  5
18CBA
330
19407
100
AcDbEntity
  8
0
  6
Continuous
 62
     5
370
    30
100
AcDbText
 10
9269.0
 20
-14680.499418
 30
0.0
 40
1.125
  1
ELASTOMERIC BEARING PADS:
  7
Style-gen_eng
 11
9269.0
 21
-14679.936918
 31
0.0
100
AcDbText
 73
     2
  0
TEXT
  5
18CA8
330
19407
100
AcDbEntity
  8
0
  6
Continuous
 62
     5
370
    30
100
AcDbText
 10
9272.203823
 20
-14587.031461
 30
0.0
 40
1.125
  1
MILD REINFORCEMENT:
  7
Style-gen_eng
 11
9272.203823
 21
-14586.468961
 31
0.0
100
AcDbText
 73
     2
  0
TEXT
  5
18C0A
330
19407
100
AcDbEntity
  8
0
  6
Continuous
 62
     5
370
    40
100
AcDbText
 10
9166.025453
 20
-14576.085949
 30
0.0
 40
1.485
  1
GOVERNING SPECIFICATIONS
  7
Style-gen_eng
 11
9166.025453
 21
-14575.343449
 31
0.0
100
AcDbText
 73
     2
  0
TEXT
  5
18C11
330
19407
100
AcDbEntity
  8
0
 62
     5
370
    30
100
AcDbText
 10
9166.119683
 20
-14579.24568
 30
0.0
 40
1.125
  1
THE WEST VIRGINIA DEPARTMENT OF TRANSPORTATION, DIVISION OF HIGHWAYS
  7
Style-gen_eng
 11
9166.119683
 21
-14578.68318
 31
0.0
100
AcDbText
 73
     2
  0
TEXT
  5
18C13
330
19407
100
AcDbEntity
  8
0
 62
     5
370
    30
100
AcDbText
 10
9166.119683
 20
-14583.47568
 30
0.0
 40
1.125
  1
BY THE CURRENT SUPPLEMENTAL SPECIFICATIONS.  THE CONTRACT PLANS AND 
  7
Style-gen_eng
 11
9166.119683
 21
-14582.91318
 31
0.0
100
AcDbText
 73
     2
  0
TEXT
  5
18C14
330
19407
100
AcDbEntity
  8
0
 62
     5
370
    30
100
AcDbText
 10
9166.119683
 20
-14585.59068
 30
0.0
 40
1.125
  1
CONTRACT SPECIAL PROVISIONS ARE THE GOVERNING PROVISIONS APPLICABLE TO
  7
Style-gen_eng
 11
9166.119683
 21
-14585.02818
 31
0.0
100
AcDbText
 73
     2
  0
MTEXT
  5
18C15
330
19407
100
AcDbEntity
  8
0
 62
     5
370
    30
100
AcDbMText
 10
9166.119683
 20
-14587.823377
 30
0.0
 40
1.125
 41
0.0
 71
     4
 72
     1
  1
THIS PROJECT.\P 
  7
Style-gen_eng
 73
     2
 44
0.829333
  0
TEXT
  5
18C16
330
19407
100
AcDbEntity
  8
0
 62
     5
370
    30
100
AcDbText
 10
9166.119683
 20
-14591.93568
 30
0.0
 40
1.125
  1
ALL BEAMS ARE DESIGNED IN ACCORDANCE WITH THE AASHTO LRFD BRIDGE DESIGN 
  7
Style-gen_eng
 11
9166.119683
 21
-14591.37318
 31
0.0
100
AcDbText
 73
     2
  0
MTEXT
  5
18C19
330
19407
100
AcDbEntity
  8
0
 62
     5
370
    30
100
AcDbMText
 10
9166.213913
 20
-14600.879805
 30
0.0
 40
1.125
 41
0.0
 71
     4
 72
     1
  1
ALL STANDARD ADJACENT PRESTRESSED CONCRETE BRIDGE BEAMS ARE DESIGNED\PTO MEET THE FOLLOWING CRITERIA:
  7
Style-gen_eng
 73
     2
 44
1.128
  0
TEXT
  5
18C49
330
19407
100
AcDbEntity
  8
0
 62
     5
370
    30
100
AcDbText
 10
9174.835967
 20
-14607.661984
 30
0.0
 40
1.125
  1
HL-93 LIVE LOAD IN ACCORDANCE WITH THE AASHTO LRFD BRIDGE DESIGN
  7
Style-gen_eng
 11
9174.835967
 21
-14607.099484
 31
0.0
100
AcDbText
 73
     2
  0
TEXT
  5
18C8F
330
19407
100
AcDbEntity
  8
0
  6
Continuous
 62
     5
370
    30
100
AcDbText
 10
9171.867719
 20
-14605.305739
 30
0.0
 40
1.125
  1
DESIGN LOADS:
  7
Style-gen_eng
 11
9171.867719
 21
-14604.743239
 31
0.0
100
AcDbText
 73
     2
  0
TEXT
  5
18D39
330
19407
100
AcDbEntity
  8
0
  6
Continuous
 62
     5
370
    30
100
AcDbText
 10
9271.732673
 20
-14676.730214
 30
0.0
 40
1.125
  1
ALL CONCRETE USED IN PARAPETS AND CURBS SHALL BE CLASS K CONCRETE.
  7
Style-gen_eng
 11
9271.732673
 21
-14676.167714
 31
0.0
100
AcDbText
 73
     2
  0
MTEXT
  5
18CB5
330
19407
100
AcDbEntity
  8
0
  6
Continuous
 62
     5
370
    30
100
AcDbMText
 10
9271.826903
 20
-14669.100949
 30
0.0
 40
1.125
 41
0.0
 71
     4
 72
     1
  1
ALL CONCRETE USED IN MANUFACTURING PRESTRESSED CONCRETE BEAMS SHALL \PMEET THE REQUIREMENTS OF SECTION 603.6 OF THE STANDARD SPECIFICATIONS.\PDESIGN STRENGTHS SHALL MEET OR EXCEED THE MINIMUM VALUES SET FORTH IN\PTHESE PLANS.
  7
Style-gen_eng
 73
     2
 44
1.4
  0
MTEXT
  5
190FC
330
19407
100
AcDbEntity
  8
0
  6
Continuous
 62
     5
370
    30
100
AcDbMText
 10
9271.732673
 20
-14659.04223
 30
0.0
 40
1.125
 41
0.0
 71
     4
 72
     1
  1
MATERIAL SHALL MEET ASTM C836-84.
  7
Style-gen_eng
 73
     2
 44
0.829333
  0
MTEXT
  5
190E5
330
19407
100
AcDbEntity
  8
0
  6
Continuous
 62
     5
370
    30
100
AcDbMText
 10
9271.732673
 20
-14656.625
 30
0.0
 40
1.125
 41
0.0
 71
     4
 72
     1
  1
WITH A LIQUID COLD-APPLIED BITUMINOUS ELASTOMERIC WATERPROOFING MEMBRANE. 
  7
Style-gen_eng
 73
     2
 44
0.829333
  0
TEXT
  5
190E4
330
19407
100
AcDbEntity
  8
0
  6
Continuous
 62
     5
370
    30
100
AcDbText
 10
9271.732673
 20
-14654.5625
 30
0.0
 40
1.125
  1
ALL EXPOSED PRESTRESSING STRAND AT EACH BEAM END SHALL BE SHOP COATED
  7
Style-gen_eng
 11
9271.732673
 21
-14654.0
 31
0.0
100
AcDbText
 73
     2
  0
TEXT
  5
190E2
330
19407
100
AcDbEntity
  8
0
  6
Continuous
 62
     5
370
    30
100
AcDbText
 10
9271.732673
 20
-14648.5625
 30
0.0
 40
1.125
  1
ALL STRANDS SHALL BE ENCLOSED INSIDE THE STIRRUP CAGE FOR THE FULL LENGTH
  7
Style-gen_eng
 11
9271.732673
 21
-14648.0
 31
0.0
100
AcDbText
 73
     2
  0
MTEXT
  5
18CBB
330
19407
100
AcDbEntity
  8
0
  6
Continuous
 62
     5
370
    30
100
AcDbMText
 10
9271.921133
 20
-14686.890765
 30
0.0
 40
1.125
 41
0.0
 71
     4
 72
     1
  1
ALL BEARING PADS SHALL MEET THE APPLICABLE REQUIREMENTS AS SET FORTH IN\PSECTION 18.2 OF THE AASHTO LRFD BRIDGE CONSTRUCTION SPECIFICATIONS, 1998  \PEDITION WITH CURRENT INTERIMS.  ALL BEARINGS SHALL BE STEEL REINFORCED\PLAMINATED BEARINGS.
  7
Style-gen_eng
 73
     2
 44
1.4
  0
MTEXT
  5
18CBF
330
19407
100
AcDbEntity
  8
0
  6
Continuous
 62
     5
370
    30
100
AcDbMText
 10
9271.921133
 20
-14695.290686
 30
0.0
 40
1.125
 41
0.0
 71
     4
 72
     1
  1
THE ELASTOMER MATERIAL SHALL BE 60 DUROMETERS WITH A MINIMUM LOW TEMPERATURE \PGRADE OF 3 (ZONE C).
  7
Style-gen_eng
 73
     2
 44
1.4
  0
TEXT
  5
18CC2
330
19407
100
AcDbEntity
  8
0
  6
Continuous
 62
     5
370
    30
100
AcDbText
 10
9271.732673
 20
-14700.571412
 30
0.0
 40
1.125
  1
ALL STEEL REINFORCING SHALL MEET THE REQUIREMENTS OF AASHTO M270, GRADE 36.
  7
Style-gen_eng
 11
9271.732673
 21
-14700.008912
 31
0.0
100
AcDbText
 73
     2
  0
MTEXT
  5
18D44
330
19407
100
AcDbEntity
  8
0
  6
Continuous
 62
     5
370
    30
100
AcDbMText
 10
9271.944691
 20
-14710.360288
 30
0.0
 40
1.125
 41
0.0
 71
     4
 72
     1
  3
ALL W-BEAM GUARDRAIL AND ATTACHMENT HARDWARE SHALL BE IN ACCORDANCE WITH SECTION \P712.4 OF THE STANDARD SPECIFICATIONS.  GUARDRAIL POSTS, STRUCTURAL TUBING, POST ATTACHMENT\PINSERTS, AND HARDWARE SHALL MEET THE LISTED MATERIAL AND COATING SPECIFICAT
  1
IONS:
  7
Style-gen_eng
 73
     2
 44
1.4
  0
MTEXT
  5
18C6E
330
19407
100
AcDbEntity
  8
0
  6
Continuous
 62
     5
370
    30
100
AcDbMText
 10
9172.056179
 20
-14680.318631
 30
0.0
 40
1.125
 41
0.0
 71
     4
 72
     1
  3
DEBONDING OR SHIELDING OF STRANDS TO REDUCE TEMPORARY TENSILE STRESSES\PIS PERMITTED, HOWEVER DEBONDING IS LIMITED TO 40% PER ROW AND 25% TOTAL.\PIN NO INSTANCES SHALL OUTER STRANDS BE DEBONDED.  DEBONDED STRANDS SHALL\PBE SEPARATED BY AT LEAST ONE F
  1
ULLY BONDED STRAND AND SHALL BE SYMMETRICAL\PABOUT THE \{ OF THE BEAM.\PSHIELDING OF STRANDS SHALL BE ACCOMPLISHED BY TAPING OR TIGHT FITTING PLASTIC \PTUBES TAPED AT EACH END.
  7
Style-gen_eng
 73
     2
 44
1.4
  0
MTEXT
  5
18C7A
330
19407
100
AcDbEntity
  8
0
  6
Continuous
 62
     5
370
    30
100
AcDbMText
 10
9172.056179
 20
-14696.708977
 30
0.0
 40
1.125
 41
0.0
 71
     4
 72
     1
  3
THE ELASTOMERIC BEARING PADS PROVIDED IN THE STANDARD DESIGNS ARE BASED\PON ZERO GRADE AND ARE LIMITED TO A MAXIMUM OF 5% GRADE.  IN INSTANCES OF\PGRADES EXCEEDING THIS LIMIT, PADS SHALL BE SPECIFICALLY DESIGNED.  INDIVIDUAL  \PPAD DESIGNS SHALL BE I
  1
N ACCORDANCE WITH SECTION 14, AASHTO LRFD.  BEVELED \PSOLE PLATES ARE PERMITTED. 
  7
Style-gen_eng
 73
     2
 44
1.4
  0
MTEXT
  5
18C83
330
19407
100
AcDbEntity
  8
0
  6
Continuous
 62
     5
370
    30
100
AcDbMText
 10
9171.679259
 20
-14710.517014
 30
0.0
 40
1.125
 41
0.0
 71
     4
 72
     1
  1
WHEN ALTERNATE DESIGNS OR SITE SPECIFIC DESIGNS ARE PROVIDED, CRITERIA \PSET FORTH IN THESE STANDARDS SHALL APPLY.
  7
Style-gen_eng
 73
     2
 44
1.4
  0
MTEXT
  5
18D29
330
19407
100
AcDbEntity
  8
0
  6
Continuous
 62
     5
370
    30
100
AcDbMText
 10
9172.032621
 20
-14723.902113
 30
0.0
 40
1.125
 41
0.0
 71
     4
 72
     1
  3
EACH BEAM PROVIDED IN THESE STANDARD DESIGNS HAS BEEN LOAD RATED IN ACCORDANCE\PWITH SECTION 3.15 OF THE WEST VIRGINIA DIVISION OF HIGHWAYS BRIDGE DESIGN MANUAL, 2004.\PADDITIONALLY, LOAD RATING PROCEDURES ARE IN ACCORDANCE WITH THE AASHTO MANUAL\PFO
  1
R CONDITION EVALUATION AND LOAD AND RESISTANCE FACTOR RATING OF HIGHWAY BRIDGES,\P2003.
  7
Style-gen_eng
 73
     2
 44
1.4
  0
MTEXT
  5
18E38
330
19407
100
AcDbEntity
  8
0
  6
Continuous
 62
     5
370
    30
100
AcDbMText
 10
9381.992878
 20
-14709.915805
 30
0.0
 40
1.125
 41
0.0
 71
     4
 72
     1
  3
AFTER COMPLETION OF THE SILANE TREATMENT BY FABRICATOR AND A MAXIMUM OF FIVE WORKING\PDAYS PRIOR TO SHIPMENT OF THE BEAMS, THE FABRICATOR SHALL BE RESPONSIBLE FOR ABRASIVE\PBLAST CLEANING TO CLEAN WHITE CONCRETE THE INTERIOR SIDES OF BEAMS FOR THE FU
  1
LL LENGTH.\PCLEAN WHITE CONCRETE SHALL MEAN REMOVAL OF ALL DIRT, GREASE, OIL, AND LOOSE CONCRETE \PLAITANCE AND PROVIDE A ROUGHENED CONCRETE SURFACE.   BLASTING MEDIUM SHALL BE APPROVED\PBY THE DIVISION OF HIGHWAYS. 
  7
Style-gen_eng
 73
     2
 44
1.4
  0
MTEXT
  5
18E53
330
19407
100
AcDbEntity
  8
0
  6
Continuous
 62
     5
370
    30
100
AcDbMText
 10
9382.134223
 20
-14726.547417
 30
0.0
 40
1.125
 41
0.0
 71
     4
 72
     1
  3
THE FABRICATOR SHALL BE RESPONSIBLE FOR THE PREPARATION OF SHOP DRAWINGS IN ACCORDANCE\PWITH THE WEST VIRGINIA DIVISION OF HIGHWAYS DOCUMENTS, DD-102 AND THE STANDARD \PSPECIFICATIONS.  ADDITIONAL INFORMATION IS PROVIDED IN SECTION 7 OF THE BRIDGE DE
  1
SIGN MANUAL.\PSHOP DRAWINGS SHALL INCLUDE THE FABRICATOR'S DETENSIONING PLAN.
  7
Style-gen_eng
 73
     2
 44
1.4
  0
MTEXT
  5
18D11
330
19407
100
AcDbEntity
  8
0
  6
Continuous
 62
     5
370
    30
100
AcDbMText
 10
9385.279152
 20
-14663.589934
 30
0.0
 40
1.125
 41
0.0
 71
     4
 72
     1
  1
A PERIOD OF 18 MONTHS HAS ELAPSED SINCE LAST PRE-APPROVAL TESTING.\PGROUT MANUFACTURER HAS REVISED OR CHANGED THE GROUT SPECIFICATIONS.\PTHE CONTRACTOR ALTERS THE WATER/GROUT MIXTURE RATIO. \PTHE CONTRACTOR CHANGES GROUT MANUFACTURER.
  7
Style-gen_eng
 73
     2
 44
1.4
  0
MTEXT
  5
18D0D
330
19407
100
AcDbEntity
  8
0
  6
Continuous
 62
     5
370
    30
100
AcDbMText
 10
9381.886869
 20
-14653.790004
 30
0.0
 40
1.125
 41
0.0
 71
     4
 72
     1
  1
THE CONTRACTOR SHALL BE REQUIRED TO SUBMIT FOR EACH PROJECT, THE GROUT PRE-TEST\PRESULTS OBTAINED IN THE NOTE ABOVE.  THE CONTRACTOR SHALL BE REQUIRED TO PERFORM\PA NEW PRE-TEST AND SUBMISSION FOR APPROVAL UNDER ANY OF THE FOLLOWING CONDITIONS:
  7
Style-gen_eng
 73
     2
 44
1.4
  0
MTEXT
  5
18D25
330
19407
100
AcDbEntity
  8
0
  6
Continuous
 62
     5
370
    30
100
AcDbMText
 10
9382.169559
 20
-14677.064838
 30
0.0
 40
1.125
 41
0.0
 71
     4
 72
     1
  1
TEST PROCEDURE FOR DETERMINING THE COMPRESSIVE STRENGTH OF GROUT SHALL USE CUBE \PSPECIMENS IN ACCORDANCE WITH ASTM C109, AS MODIFIED BY ASTM C1107.  GROUT TESTING IN \PACCORDANCE WITH AASHTO T23 (STANDARD CYLINDER TEST) IS NOT ACCEPTABLE.
  7
Style-gen_eng
 73
     2
 44
1.4
  0
TEXT
  5
18E30
330
19407
100
AcDbEntity
  8
0
  6
Continuous
 62
     5
370
    30
100
AcDbText
 10
9379.11886
 20
-14684.327977
 30
0.0
 40
1.125
  1
PROTECTIVE SURFACE TREATMENT:
  7
Style-gen_eng
 11
9379.11886
 21
-14683.765477
 31
0.0
100
AcDbText
 73
     2
  0
MTEXT
  5
18CF8
330
19407
100
AcDbEntity
  8
0
  6
Continuous
 62
     5
370
    30
100
AcDbMText
 10
9382.075329
 20
-14604.601894
 30
0.0
 40
1.125
 41
0.0
 71
     4
 72
     1
  3
ALL POST-TENSIONING THREAD BARS, NUTS, BEARING PLATES, COUPLERS, AND ANCILLARY\PHARDWARE SHALL BE HOT-DIPPED GALVANIZED IN ACCORDANCE WITH AASHTO M111.  THE\PGALVANIZING PLANT SHALL ADMINISTER ADEQUATE QUALITY CONTROL MEASURES TO \PSAFEGUARD AGAINST 
  1
HYDROGEN EMBRITTLEMENT.  QUALITY CONTROL MEASURES SHALL \PCOMPLY WITH ASTM A-143.  CERTIFICATION FOR HOT-DIP GALVANIZING SHALL BE PROVIDED\PBY THE GALVANIZING PLANT.
  7
Style-gen_eng
 73
     2
 44
1.4
  0
TEXT
  5
18CFF
330
19407
100
AcDbEntity
  8
0
  6
Continuous
 62
     5
370
    30
100
AcDbText
 10
9382.075329
 20
-14615.341245
 30
0.0
 40
1.125
  1
ALL POST-TENSIONING BEARING PLATES SHALL CONFORM TO AASHTO M270, GRADE 36.
  7
Style-gen_eng
 11
9382.075329
 21
-14614.778745
 31
0.0
100
AcDbText
 73
     2
  0
MTEXT
  5
18C97
330
19407
100
AcDbEntity
  8
0
  6
Continuous
 62
     5
370
    30
100
AcDbMText
 10
9272.015363
 20
-14580.973698
 30
0.0
 40
1.125
 41
0.0
 71
     4
 72
     1
  1
THE PRESTRESSED CONCRETE BEAMS SHALL CONFORM TO ALL APPLICABLE \PPROVISIONS OF SECTION 603 OF THE STANDARD SPECIFICATIONS.
  7
Style-gen_eng
 73
     2
 44
1.4
  0
MTEXT
  5
18C9A
330
19407
100
AcDbEntity
  8
0
  6
Continuous
 62
     5
370
    30
100
AcDbMText
 10
9275.030726
 20
-14595.108212
 30
0.0
 40
1.125
 41
0.0
 71
     4
 72
     1
  3
ALL MILD REINFORCING STEEL SHALL BE GRADE 60, DEFORMED BILLET STEEL AND \PSHALL BE EPOXY COATED EXCEPT WHERE NOTED.  ALL UNCOATED REINFORCING\PSHALL MEET THE REQUIREMENTS OF AASHTO M31.  ALL EPOXY COATED\PREINFORCING SHALL MEET THE REQUIREMENTS OF AA
  1
SHTO M284, EXCEPT WHERE\PAMENDED BY SECTION 709.1 OF THE STANDARD SPECIFICATIONS.
  7
Style-gen_eng
 73
     2
 44
1.4
  0
MTEXT
  5
18CA0
330
19407
100
AcDbEntity
  8
0
  6
Continuous
 62
     5
370
    30
100
AcDbMText
 10
9275.030726
 20
-14607.735045
 30
0.0
 40
1.125
 41
0.0
 71
     4
 72
     1
  3
ALL TENSION LAP SPLICES SHALL BE A CLASS B, CONTACT TYPE.  MINIMUM LAP\PSPLICE LENGTHS SHALL BE AS GIVEN IN THE "LAP SPLICE TABLE", THIS SHEET.  ADDITIONALLY,\PIF LAP SPLICING OF ET, LR, AND BT BARS IS USED, TERMINATION OF THE SPLICE \PSHALL BE NO CL
  1
OSER TO THE END OF THE BEAM THAN 1/10 OF THE SPAN LENGTH.
  7
Style-gen_eng
 73
     2
 44
1.4
  0
MTEXT
  5
18CA5
330
19407
100
AcDbEntity
  8
0
  6
Continuous
 62
     5
370
    30
100
AcDbMText
 10
9275.030726
 20
-14616.686904
 30
0.0
 40
1.125
 41
0.0
 71
     4
 72
     1
  1
MINIMUM BAR BENDING DIAMETER SHALL BE 6 BAR DIAMETERS, EXCEPT THAT \PNO. 4 AB BARS MAY HAVE A MINIMUM BEND DIAMETER OF 4 BAR DIAMETERS.
  7
Style-gen_eng
 73
     2
 44
1.4
  0
MTEXT
  5
18CA9
330
19407
100
AcDbEntity
  8
0
  6
Continuous
 62
     5
370
    30
100
AcDbMText
 10
9274.936496
 20
-14622.43494
 30
0.0
 40
1.125
 41
0.0
 71
     4
 72
     1
  1
MINIMUM CONCRETE COVER SHALL BE AS SPECIFIED IN SECTION 603.5 OF \PTHE STANDARD SPECIFICATIONS, EXCEPT WHERE NOTED ON THE PLANS.
  7
Style-gen_eng
 73
     2
 44
1.4
  0
MTEXT
  5
18CAE
330
19407
100
AcDbEntity
  8
0
  6
Continuous
 62
     5
370
    30
100
AcDbMText
 10
9271.732673
 20
-14632.23487
 30
0.0
 40
1.125
 41
0.0
 71
     4
 72
     1
  1
ALL PRESTRESSING STEEL SHALL BE {\T1.0;\W0.7x;\H0.7x;\S1#2;}" ~, GRADE 270, 7 WIRE UNCOATED, LOW-RELAXATION STRAND\PMEETING THE REQUIREMENTS OF AASHTO M203, SUPPLEMENT S1.
  7
Style-gen_eng
 73
     2
 44
1.4
  0
MTEXT
  5
18D34
330
19407
100
AcDbEntity
  8
0
  6
Continuous
 62
     5
370
    30
100
AcDbMText
 10
9271.638443
 20
-14640.766579
 30
0.0
 40
1.125
 41
0.0
 71
     4
 72
     1
  3
ALL BEAMS DESIGNED IN THESE STANDARDS UTILIZE STRANDS WITH A NOMINAL AREA OF 0.167 SQ. IN.\PSTRANDS WITH A NOMINAL AREA OF 0.153 SQ. IN. IS PERMITTED FOR INDIVIDUAL OR ALTERNATE DESIGNS, \PHOWEVER THE DESIGNER IS ENCOURAGED TO USE THE LARGER STRAND F
  1
OR UNIFORMITY REASONS.  IN \PNO CASES WILL STRESS-RELIEVED STRAND BE PERMITTED.
  7
Style-gen_eng
 73
     2
 44
1.4
  0
TEXT
  5
18C18
330
19407
100
AcDbEntity
  8
0
  6
Continuous
 62
     5
370
    40
100
AcDbText
 10
9166.213913
 20
-14597.48122
 30
0.0
 40
1.5
  1
DESIGN NOTES
  7
Style-gen_eng
 11
9166.213913
 21
-14596.73122
 31
0.0
100
AcDbText
 73
     2
  0
MTEXT
  5
18C4A
330
19407
100
AcDbEntity
  8
0
 62
     5
370
    30
100
AcDbMText
 10
9174.810723
 20
-14610.04754
 30
0.0
 40
1.125
 41
0.0
 71
     4
 72
     1
  1
SPECIFICATIONS.\P 
  7
Style-gen_eng
 73
     2
 44
0.829333
  0
MTEXT
  5
18C4B
330
19407
100
AcDbEntity
  8
0
 62
     5
370
    30
100
AcDbMText
 10
9174.835967
 20
-14613.444484
 30
0.0
 40
1.125
 41
0.0
 71
     4
 72
     1
  1
FUTURE WEARING SURFACE OF 50 PSF OF ROADWAY.\P 
  7
Style-gen_eng
 73
     2
 44
0.829333
  0
MTEXT
  5
18C4C
330
19407
100
AcDbEntity
  8
0
 62
     5
370
    30
100
AcDbMText
 10
9174.835967
 20
-14617.674484
 30
0.0
 40
1.125
 41
0.0
 71
     4
 72
     1
  1
TYPE F PARAPET WEIGHING 321 PLF.\P 
  7
Style-gen_eng
 73
     2
 44
0.829333
  0
MTEXT
  5
18C4D
330
19407
100
AcDbEntity
  8
0
 62
     5
370
    30
100
AcDbMText
 10
9174.936943
 20
-14620.894227
 30
0.0
 40
1.125
 41
0.0
 71
     4
 72
     1
  1
\P\PDIAPHRAGM DEAD LOAD, NUMBER REQUIRED BASED ON 15'-0" MAX. SPACING.\P 
  7
Style 1
 73
     2
 44
0.829333
  0
TEXT
  5
18C4E
330
19407
100
AcDbEntity
  8
0
 62
     5
370
    30
100
AcDbText
 10
9171.867719
 20
-14626.696984
 30
0.0
 40
1.125
  1
TWO LANE BRIDGE WITH AN OVERALL WIDTH OF 24'-5" (INCL.%%131" GAP
  7
Style-gen_eng
 11
9171.867719
 21
-14626.134484
 31
0.0
100
AcDbText
 73
     2
  0
TEXT
  5
18C4F
330
19407
100
AcDbEntity
  8
0
 62
     5
370
    30
100
AcDbText
 10
9171.867719
 20
-14628.811984
 30
0.0
 40
1.125
  1
BETWEEN ADJ. BEAMS),  A CURB-TO-CURB WIDTH OF 22'-1", TRANSVERSE POST-TENSIONING, 
  7
Style-gen_eng
 11
9171.867719
 21
-14628.249484
 31
0.0
100
AcDbText
 73
     2
  0
TEXT
  5
18C50
330
19407
100
AcDbEntity
  8
0
 62
     5
370
    30
100
AcDbText
 10
9171.867719
 20
-14630.926984
 30
0.0
 40
1.125
  1
AND ZERO SKEW.
  7
Style-gen_eng
 11
9171.867719
 21
-14630.364484
 31
0.0
100
AcDbText
 73
     2
  0
TEXT
  5
18C26
330
19407
100
AcDbEntity
  8
0
 62
     5
370
    30
100
AcDbText
 10
9171.867719
 20
-14634.088609
 30
0.0
 40
1.125
  1
DESIGN STRENGTH AND UNIT STRESSES:
  7
Style-gen_eng
 11
9171.867719
 21
-14633.526109
 31
0.0
100
AcDbText
 73
     2
  0
TEXT
  5
18C2F
330
19407
100
AcDbEntity
  8
0
 62
     5
370
    30
100
AcDbText
 10
9175.024427
 20
-14637.184628
 30
0.0
 40
1.125
  1
MINIMUM CONCRETE STRENGTH @ STRAND RELEASE
  7
Style-gen_eng
 11
9175.024427
 21
-14636.622128
 31
0.0
100
AcDbText
 73
     2
  0
MTEXT
  5
18C30
330
19407
100
AcDbEntity
  8
0
 62
     5
370
    30
100
AcDbMText
 10
9175.327356
 20
-14640.05494
 30
0.0
 40
1.125
 41
0.0
 71
     4
 72
     1
  1
MINIMUM CONCRETE STRENGTH @ 28 DAYS\P 
  7
Style-gen_eng
 73
     2
 44
0.829333
  0
TEXT
  5
18C31
330
19407
100
AcDbEntity
  8
0
 62
     5
370
    30
100
AcDbText
 10
9177.85133
 20
-14645.059628
 30
0.0
 40
1.125
  1
COMPRESSION STRESS LIMIT @ STRAND RELEASE
  7
Style-gen_eng
 11
9177.85133
 21
-14644.497128
 31
0.0
100
AcDbText
 73
     2
  0
TEXT
  5
18C32
330
19407
100
AcDbEntity
  8
0
 62
     5
370
    30
100
AcDbText
 10
9177.898445
 20
-14647.684628
 30
0.0
 40
1.125
  1
TENSION STRESS LIMIT @ STRAND RELEASE
  7
Style-gen_eng
 11
9177.898445
 21
-14647.122128
 31
0.0
100
AcDbText
 73
     2
  0
TEXT
  5
18C54
330
19407
100
AcDbEntity
  8
0
 62
     5
370
    30
100
AcDbText
 10
9174.694622
 20
-14650.389431
 30
0.0
 40
1.125
  1
COMPRESSIVE STRESS LIMITS IN CONCRETE @ SERVICE I AFTER LOSSES:
  7
Style-gen_eng
 11
9174.694622
 21
-14649.826931
 31
0.0
100
AcDbText
 73
     2
  0
TEXT
  5
18C34
330
19407
100
AcDbEntity
  8
0
 62
     5
370
    30
100
AcDbText
 10
9177.898445
 20
-14652.93512
 30
0.0
 40
1.125
  1
@ FINAL 1 (PS+DL+LL)
  7
Style-gen_eng
 11
9177.898445
 21
-14652.37262
 31
0.0
100
AcDbText
 73
     2
  0
TEXT
  5
18C35
330
19407
100
AcDbEntity
  8
0
 62
     5
370
    30
100
AcDbText
 10
9177.898445
 20
-14655.56012
 30
0.0
 40
1.125
  1
@ FINAL 2 (PS+DL)
  7
Style-gen_eng
 11
9177.898445
 21
-14654.99762
 31
0.0
100
AcDbText
 73
     2
  0
TEXT
  5
18C36
330
19407
100
AcDbEntity
  8
0
 62
     5
370
    30
100
AcDbText
 10
9177.898445
 20
-14658.185612
 30
0.0
 40
1.125
  1
@ FINAL 3 [50%(PS+DL)+LL]
  7
Style-gen_eng
 11
9177.898445
 21
-14657.623112
 31
0.0
100
AcDbText
 73
     2
  0
TEXT
  5
18C55
330
19407
100
AcDbEntity
  8
0
 62
     5
370
    30
100
AcDbText
 10
9174.977312
 20
-14661.131662
 30
0.0
 40
1.125
  1
TENSILE STRESS LIMIT IN CONCRETE @ SERVICE III AFTER LOSSES:
  7
Style-gen_eng
 11
9174.977312
 21
-14660.569162
 31
0.0
100
AcDbText
 73
     2
  0
TEXT
  5
18C37
330
19407
100
AcDbEntity
  8
0
 62
     5
370
    30
100
AcDbText
 10
9177.804215
 20
-14663.771581
 30
0.0
 40
1.125
  1
@ FINAL 1 (PS+DL+LL)
  7
Style-gen_eng
 11
9177.804215
 21
-14663.209081
 31
0.0
100
AcDbText
 73
     2
  0
TEXT
  5
18C38
330
19407
100
AcDbEntity
  8
0
 62
     5
370
    30
100
AcDbText
 10
9175.071542
 20
-14666.975405
 30
0.0
 40
1.125
  1
TENDON STRESS LIMIT PRIOR TO TRANSFER:
  7
Style-gen_eng
 11
9175.071542
 21
-14666.412905
 31
0.0
100
AcDbText
 73
     2
  0
TEXT
  5
18C39
330
19407
100
AcDbEntity
  8
0
 62
     5
370
    30
100
AcDbText
 10
9175.071542
 20
-14669.600405
 30
0.0
 40
1.125
  1
TENDON STRESS LIMIT AFTER ALL LOSSES:
  7
Style-gen_eng
 11
9175.071542
 21
-14669.037905
 31
0.0
100
AcDbText
 73
     2
  0
TEXT
  5
18C68
330
19407
100
AcDbEntity
  8
0
  6
DGN Style 3
 62
     5
370
    30
100
AcDbText
 10
9248.909027
 20
-14663.676859
 30
0.0
 40
1.125
  1
-270 PSI
  7
Style-gen_eng
 11
9248.909027
 21
-14663.114359
 31
0.0
100
AcDbText
 73
     2
  0
TEXT
  5
18C69
330
19407
100
AcDbEntity
  8
0
  6
DGN Style 3
 62
     5
370
    30
100
AcDbText
 10
9248.909027
 20
-14667.069143
 30
0.0
 40
1.125
  1
202.5 KSI
  7
Style-gen_eng
 11
9248.909027
 21
-14666.506643
 31
0.0
100
AcDbText
 73
     2
  0
TEXT
  5
18C67
330
19407
100
AcDbEntity
  8
0
  6
DGN Style 3
 62
     5
370
    30
100
AcDbText
 10
9248.909027
 20
-14658.399974
 30
0.0
 40
1.125
  1
3200 PSI
  7
Style-gen_eng
 11
9248.909027
 21
-14657.837474
 31
0.0
100
AcDbText
 73
     2
  0
TEXT
  5
18C66
330
19407
100
AcDbEntity
  8
0
  6
DGN Style 3
 62
     5
370
    30
100
AcDbText
 10
9248.909027
 20
-14655.667301
 30
0.0
 40
1.125
  1
3600 PSI
  7
Style-gen_eng
 11
9248.909027
 21
-14655.104801
 31
0.0
100
AcDbText
 73
     2
  0
TEXT
  5
18C65
330
19407
100
AcDbEntity
  8
0
  6
DGN Style 3
 62
     5
370
    30
100
AcDbText
 10
9248.909027
 20
-14652.934628
 30
0.0
 40
1.125
  1
4800 PSI
  7
Style-gen_eng
 11
9248.909027
 21
-14652.372128
 31
0.0
100
AcDbText
 73
     2
  0
TEXT
  5
18CEF
330
19407
100
AcDbEntity
  8
0
  6
Continuous
 62
     5
370
    30
100
AcDbText
 10
9379.012851
 20
-14576.329
 30
0.0
 40
1.125
  1
POST-TENSIONING BARS:
  7
Style-gen_eng
 11
9379.012851
 21
-14575.7665
 31
0.0
100
AcDbText
 73
     2
  0
MTEXT
  5
18CF0
330
19407
100
AcDbEntity
  8
0
  6
Continuous
 62
     5
370
    30
100
AcDbMText
 10
9382.075329
 20
-14586.698176
 30
0.0
 40
1.125
 41
0.0
 71
     4
 72
     1
  3
POST - TENSIONING THREAD BARS SHALL BE ONE INCH DIAMETER, 150 KSI STEEL, AND\PSHALL CONFORM TO AASHTO M275, TYPE II.   STEEL THREAD BARS SHALL BE DESIGNED\PTO ALLOW THE USE OF HEAVY HEX NUTS AND COUPLERS THAT THREAD ONTO THE END\POF THE DEFORMATIONS.
  3
  HEAVY HEX NUTS AND COUPLERS SHALL BE OF A DESIGN AND\PMATERIAL RECOMMENDED BY THE BAR MANUFACTURER TO DEVELOP THE FULL TENSILE\PSTRENGTH OF THE BAR.  PROPERLY DOCUMENTED CERTIFIED MILL TEST REPORTS SHALL\PBE PROVIDED FOR EACH HEAT OF STEEL THREAD B
  1
ARS.
  7
Style-gen_eng
 73
     2
 44
1.4
  0
TEXT
  5
18D00
330
19407
100
AcDbEntity
  8
0
  6
Continuous
 62
     5
370
    30
100
AcDbText
 10
9378.965736
 20
-14619.204678
 30
0.0
 40
1.125
  1
SHEAR KEY GROUT:
  7
Style-gen_eng
 11
9378.965736
 21
-14618.642178
 31
0.0
100
AcDbText
 73
     2
  0
MTEXT
  5
18D01
330
19407
100
AcDbEntity
  8
0
  6
Continuous
 62
     5
370
    30
100
AcDbMText
 10
9381.886869
 20
-14634.755525
 30
0.0
 40
1.125
 41
0.0
 71
     4
 72
     1
  3
SHEAR KEY GROUT SHALL BE A GROUT THAT IS RECOMMENDED BY THE MANUFACTURER\PFOR A POURABLE GROUT APPLICATION AND THAT BASED ON THE MANUFACTURER'S TEST\PDATA WILL ATTAIN A MINIMUM OF 4500 PSI COMPRESSIVE STRENGTH IN 3 DAYS UNDER \PCONDITIONS REPRESENTAT
  3
IVE OF THE CONDITIONS TO BE EXPERIENCED AT THE SITE.\PTHE GROUT MUST BE LISTED ON THE APPROVED LIST OF GROUTS PUBLISHED BY THE WEST\PVIRGINIA DIVISION OF HIGHWAYS, MATERIALS CONTROL, SOIL AND TESTING DIVISION.\PTHE CONTRACTOR SHALL PRE-TEST THE PROPO
  3
SED GROUT FOR COMPRESSIVE STRENGTH\PAT 3 AND 7 DAYS AND SUBMIT THE RESULTS TO THE BRIDGE PROJECT MANAGER FOR APPROVAL\PPRIOR TO INSTALLATION OF THE GROUT IN THE STRUCTURE.   THE TESTS WILL BE BASED ON A \PPOURABLE CONSISTENCY WITH THE SAME WATER/GROU
  1
T MIXTURE RATIO TO BE USED IN THE\PSTRUCTURE.   
  7
Style-gen_eng
 73
     2
 44
1.4
  0
TEXT
  5
18D19
330
19407
100
AcDbEntity
  8
0
  6
Continuous
 62
     5
370
    30
100
AcDbText
 10
9385.279152
 20
-14671.690842
 30
0.0
 40
1.125
  1
THE CONTRACTOR IS REQUIRED TO COMPLETE THE GROUT STRENGTH TABLE ON BR-B103.
  7
Style-gen_eng
 11
9385.279152
 21
-14671.128342
 31
0.0
100
AcDbText
 73
     2
  0
MTEXT
  5
18E31
330
19407
100
AcDbEntity
  8
0
  6
Continuous
 62
     5
370
    30
100
AcDbMText
 10
9381.992878
 20
-14692.907273
 30
0.0
 40
1.125
 41
0.0
 71
     4
 72
     1
  3
EACH PRESTRESSED CONCRETE BEAM SHALL BE TREATED BY THE MANUFACTURER AT THE\PFABRICATION PLANT WITH AN APPROVED CONCRETE SEALER (SILANE).  AN APPROVED LIST OF \PCONCRETE SEALERS ARE ON FILE AT THE WEST VIRGINIA DIVISION OF HIGHWAYS, MATERIALS\PCONTROL
  1
, SOIL AND TESTING DIVISION.  COVERAGE SHALL INCLUDE TOP AND BOTTOM OF\PINTERIOR BEAMS, AND TOP, BOTTOM AND EXTERIOR SIDE OF EXTERIOR BEAM.  APPLICATION\PRATE SHALL BE PER TREATMENT MANUFACTURER'S RECOMMENDATION.
  7
Style-gen_eng
 73
     2
 44
1.4
  0
TEXT
  5
18E52
330
19407
100
AcDbEntity
  8
0
  6
Continuous
 62
     5
370
    30
100
AcDbText
 10
9378.977515
 20
-14720.795517
 30
0.0
 40
1.125
  1
SHOP DRAWINGS:
  7
Style-gen_eng
 11
9378.977515
 21
-14720.233017
 31
0.0
100
AcDbText
 73
     2
  0
MTEXT
  5
18881
330
19407
100
AcDbEntity
  8
0
  6
Continuous
 62
     5
370
    40
100
AcDbMText
 10
9385.18984
 20
-14758.178274
 30
0.0
 40
0.86625
 41
0.0
 71
     8
 72
     1
  1
WEST VIRGINIA DEPARTMENT OF TRANSPORTATION\PDIVISION OF HIGHWAYS\PENGINEERING DIVISION
  7
Style-gen_eng
 73
     2
 44
1.285714
  0
MTEXT
  5
18871
330
19407
100
AcDbEntity
  8
0
  6
Continuous
 62
     5
370
    40
100
AcDbMText
 10
9447.346447
 20
-14741.428507
 30
0.0
 40
1.485
 41
0.0
 71
     8
 72
     1
  1
WEST VIRGINIA DEPARTMENT OF TRANSPORTATION\PDIVISION OF HIGHWAYS\PENGINEERING DIVISION
  7
Style-gen_eng
 73
     2
 44
1.0
  0
TEXT
  5
18E2F
330
19407
100
AcDbEntity
  8
0
  6
Continuous
 62
     5
370
    30
100
AcDbText
 10
9181.5764
 20
-14751.011697
 30
0.0
 40
1.125
  1
LAP SPLICE TABLE
  7
Style-gen_eng
 72
     1
 11
9189.924842
 21
-14750.449197
 31
0.0
100
AcDbText
 73
     2
  0
MTEXT
  5
18E15
330
19407
100
AcDbEntity
  8
0
  6
Continuous
 62
     5
370
    30
100
AcDbMText
 10
9172.13863
 20
-14754.077055
 30
0.0
 40
1.125
 41
0.0
 71
     4
 72
     1
  1
BAR SIZE   \PSPLICE LEN.
  7
Style-gen_eng
 73
     2
 44
1.4
  0
TEXT
  5
18E25
330
19407
100
AcDbEntity
  8
0
  6
Continuous
 62
     5
370
    30
100
AcDbText
 10
9184.991368
 20
-14753.320334
 30
0.0
 40
1.125
  1
NO. 3
  7
Style-gen_eng
 72
     1
 11
9187.050824
 21
-14752.757834
 31
0.0
100
AcDbText
 73
     2
  0
TEXT
  5
18E2B
330
19407
100
AcDbEntity
  8
0
  6
Continuous
 62
     5
370
    30
100
AcDbText
 10
9186.108242
 20
-14755.911662
 30
0.0
 40
1.125
  1
21"
  7
Style-gen_eng
 11
9186.108242
 21
-14755.349162
 31
0.0
100
AcDbText
 73
     2
  0
TEXT
  5
18E26
330
19407
100
AcDbEntity
  8
0
  6
Continuous
 62
     5
370
    30
100
AcDbText
 10
9191.137613
 20
-14753.31935
 30
0.0
 40
1.125
  1
NO. 4
  7
Style-gen_eng
 72
     1
 11
9193.223642
 21
-14752.75685
 31
0.0
100
AcDbText
 73
     2
  0
TEXT
  5
18E27
330
19407
100
AcDbEntity
  8
0
  6
Continuous
 62
     5
370
    30
100
AcDbText
 10
9197.076139
 20
-14753.31935
 30
0.0
 40
1.125
  1
NO. 5
  7
Style-gen_eng
 72
     1
 11
9199.135595
 21
-14752.75685
 31
0.0
100
AcDbText
 73
     2
  0
TEXT
  5
18E2D
330
19407
100
AcDbEntity
  8
0
  6
Continuous
 62
     5
370
    30
100
AcDbText
 10
9198.169694
 20
-14755.911662
 30
0.0
 40
1.125
  1
34"
  7
Style-gen_eng
 11
9198.169694
 21
-14755.349162
 31
0.0
100
AcDbText
 73
     2
  0
TEXT
  5
18E2C
330
19407
100
AcDbEntity
  8
0
  6
Continuous
 62
     5
370
    30
100
AcDbText
 10
9192.162526
 20
-14755.911662
 30
0.0
 40
1.125
  1
28"
  7
Style-gen_eng
 11
9192.162526
 21
-14755.349162
 31
0.0
100
AcDbText
 73
     2
  0
TEXT
  5
18878
330
19407
100
AcDbEntity
  8
0
  6
Continuous
 62
     5
370
    30
100
AcDbText
 10
9463.935738
 20
-14752.598144
 30
0.0
 40
0.7425
  1
REVIEWED BY:TW/
  7
Style 2 - FS Sheet
 11
9463.935738
 21
-14752.226894
 31
0.0
100
AcDbText
 73
     2
  0
MTEXT
  5
190CE
330
19407
100
AcDbEntity
  8
0
  6
Continuous
 62
     5
370
    30
100
AcDbMText
 10
9167.552462
 20
-14762.401182
 30
0.0
 40
1.125
 41
0.0
 71
     1
 72
     1
  1
THIS SHEET SHALL BE USED IN CONJUNCTION WITH STANDARD SHEETS  BR-B17A & B THRU\PBR-B42A & B, BR-B101, BR-B102A & B, BR-B103, BR-B104, BR-B105A & B AND BR-B106 AS APPLICABLE.
  7
Style-gen_eng
 73
     2
 44
1.133333
  0
MTEXT
  5
18875
330
19407
100
AcDbEntity
  8
0
  6
Continuous
 62
     5
370
    30
100
AcDbMText
 10
9463.935738
 20
-14743.782189
 30
0.0
 40
0.7425
 41
0.0
 71
     4
 72
     1
  1
DESIGNED BY:THB/^J
  7
Style 2 - FS Sheet
 73
     2
 44
0.626828
  0
MTEXT
  5
18876
330
19407
100
AcDbEntity
  8
0
  6
Continuous
 62
     5
370
    30
100
AcDbMText
 10
9463.935738
 20
-14746.586535
 30
0.0
 40
0.7425
 41
0.0
 71
     4
 72
     1
  1
DRAWN BY:THB/^J
  7
Style 2 - FS Sheet
 73
     2
 44
0.626828
  0
MTEXT
  5
18877
330
19407
100
AcDbEntity
  8
0
  6
Continuous
 62
     5
370
    30
100
AcDbMText
 10
9463.935738
 20
-14749.627905
 30
0.0
 40
0.7425
 41
0.0
 71
     4
 72
     1
  1
CHECKED BY:TM/^J
  7
Style 2 - FS Sheet
 73
     2
 44
0.626828
  0
INSERT
  5
193F6
330
19407
100
AcDbEntity
  8
Level 1
370
    30
100
AcDbBlockReference
  2
Greg's Signature
 10
9390.121764
 20
-14749.418824
 30
0.0
 41
0.009374
 42
0.009374
 43
0.009374
  0
MTEXT
  5
193FD
330
19407
100
AcDbEntity
  8
0
 62
     5
370
    30
100
AcDbMText
 10
9405.377858
 20
-14749.051881
 30
0.0
 40
1.125
 41
0.0
 71
     4
 72
     1
  1
\FITALIC_WORKING.shx;10-25-07
  7
STD SHEET
 73
     2
 44
0.722892
  0
ENDSEC
  0
SECTION
  2
OBJECTS
  0
DICTIONARY
  5
1941A
330
0
100
AcDbDictionary
281
     1
  3
ACAD_GROUP
350
19418
  3
ACAD_LAYOUT
350
1941B
  3
ACAD_MLINESTYLE
350
19419
  3
ACAD_PLOTSETTINGS
350
1941C
  3
ACAD_PLOTSTYLENAME
350
1941D
  3
AcadDim
350
19429
  3
DWGPROPS
350
19432
  0
DICTIONARY
  5
19421
330
1940F
100
AcDbDictionary
280
     1
281
     1
  3
ACAD_LAYERFILTERS
360
19422
  0
DICTIONARY
  5
19418
102
{ACAD_REACTORS
330
1941A
102
}
330
1941A
100
AcDbDictionary
281
     1
  0
DICTIONARY
  5
1941B
102
{ACAD_REACTORS
330
1941A
102
}
330
1941A
100
AcDbDictionary
281
     1
  3
Layout1
350
1940E
  3
Model
350
1940A
  0
DICTIONARY
  5
19419
102
{ACAD_REACTORS
330
1941A
102
}
330
1941A
100
AcDbDictionary
281
     1
  3
Standard
350
19405
  0
DICTIONARY
  5
1941C
102
{ACAD_REACTORS
330
1941A
102
}
330
1941A
100
AcDbDictionary
281
     1
  0
ACDBDICTIONARYWDFLT
  5
1941D
102
{ACAD_REACTORS
330
1941A
102
}
330
1941A
100
AcDbDictionary
281
     1
  3
Normal
350
19400
100
AcDbDictionaryWithDefault
340
19400
  0
XRECORD
  5
19429
102
{ACAD_REACTORS
330
1941A
102
}
330
1941A
100
AcDbXrecord
280
     1
 90
   990106
  3
 
 60
     0
 61
     0
 62
     1
 63
     1
 64
     0
 65
     0
 66
     0
 67
     3
 68
     1
 69
     1
 70
     0
 71
     0
 72
     0
 40
0.0
170
     0
  0
XRECORD
  5
19432
102
{ACAD_REACTORS
330
1941A
102
}
330
1941A
100
AcDbXrecord
280
     1
  1
DWGPROPS COOKIE
  2

  3

  4
rhill
  6

  7

  8

  9

300
=
301
=
302
=
303
=
304
=
305
=
306
=
307
=
308
=
309
=
 40
0.0
 41
2451789.537469
 42
2451789.537561
  1

 90
        0
  0
DICTIONARY
  5
19422
102
{ACAD_REACTORS
330
19421
102
}
330
19421
100
AcDbDictionary
281
     1
  0
LAYOUT
  5
1940E
102
{ACAD_REACTORS
330
1941B
330
1941B
102
}
330
1941B
100
AcDbPlotSettings
  1

  2

  4

  6

 40
0.0
 41
0.0
 42
0.0
 43
0.0
 44
0.0
 45
0.0
 46
0.0
 47
0.0
 48
0.0
 49
0.0
140
0.0
141
0.0
142
1.0
143
1.0
 70
   688
 72
     0
 73
     0
 74
     5
  7

 75
    16
147
1.0
148
0.0
149
0.0
100
AcDbLayout
  1
Layout1
 70
     1
 71
     1
 10
0.0
 20
0.0
 11
12.0
 21
9.0
 12
0.0
 22
0.0
 32
0.0
 14
1.000000E+20
 24
1.000000E+20
 34
1.000000E+20
 15
-1.000000E+20
 25
-1.000000E+20
 35
-1.000000E+20
146
0.0
 13
0.0
 23
0.0
 33
0.0
 16
1.0
 26
0.0
 36
0.0
 17
0.0
 27
1.0
 37
0.0
 76
     0
330
1940B
  0
LAYOUT
  5
1940A
102
{ACAD_REACTORS
330
1941B
330
1941B
102
}
330
1941B
100
AcDbPlotSettings
  1

  2

  4

  6

 40
0.0
 41
0.0
 42
0.0
 43
0.0
 44
0.0
 45
0.0
 46
0.0
 47
0.0
 48
0.0
 49
0.0
140
0.0
141
0.0
142
1.0
143
1.0
 70
  1712
 72
     0
 73
     0
 74
     0
  7

 75
     0
147
1.0
148
0.0
149
0.0
100
AcDbLayout
  1
Model
 70
     1
 71
     0
 10
0.0
 20
0.0
 11
12.0
 21
9.0
 12
0.0
 22
0.0
 32
0.0
 14
0.0
 24
0.0
 34
0.0
 15
0.0
 25
0.0
 35
0.0
146
0.0
 13
0.0
 23
0.0
 33
0.0
 16
1.0
 26
0.0
 36
0.0
 17
0.0
 27
1.0
 37
0.0
 76
     0
330
19407
  0
MLINESTYLE
  5
19405
102
{ACAD_REACTORS
330
19419
102
}
330
19419
100
AcDbMlineStyle
  2
STANDARD
 70
     0
  3

 62
   256
 51
90.0
 52
90.0
 71
     2
 49
0.5
 62
   256
  6
BYLAYER
 49
-0.5
 62
   256
  6
BYLAYER
  0
ACDBPLACEHOLDER
  5
19400
102
{ACAD_REACTORS
330
1941D
102
}
330
1941D
  0
ENDSEC
  0
SECTION
  2
THUMBNAILIMAGE
 90
    21224
310
28000000B4000000700000000100080000000000C04E000000040000000400000001000009000000FFFFFF000078F800D87828000000F800F800F80040404000F8F8F80018000000F8000000FFFFFF00FFFFFF00FFFFFF00FFFFFF00FFFFFF00FFFFFF00FFFFFF00FFFFFF00FFFFFF00FFFFFF00FFFFFF00FFFFFF00FFFFFF
310
00FFFFFF00FFFFFF00FFFFFF00FFFFFF00FFFFFF00FFFFFF00FFFFFF00FFFFFF00FFFFFF00FFFFFF00FFFFFF00FFFFFF00FFFFFF00FFFFFF00FFFFFF00FFFFFF00FFFFFF00FFFFFF00FFFFFF00FFFFFF00FFFFFF00FFFFFF00FFFFFF00FFFFFF00FFFFFF00FFFFFF00FFFFFF00FFFFFF00FFFFFF00FFFFFF00FFFFFF00FFFF
310
FF00FFFFFF00FFFFFF00FFFFFF00FFFFFF00FFFFFF00FFFFFF00FFFFFF00FFFFFF00FFFFFF00FFFFFF00FFFFFF00FFFFFF00FFFFFF00FFFFFF00FFFFFF00FFFFFF00FFFFFF00FFFFFF00FFFFFF00FFFFFF00FFFFFF00FFFFFF00FFFFFF00FFFFFF00FFFFFF00FFFFFF00FFFFFF00FFFFFF00FFFFFF00FFFFFF00FFFFFF00FF
310
FFFF00FFFFFF00FFFFFF00FFFFFF00FFFFFF00FFFFFF00FFFFFF00FFFFFF00FFFFFF00FFFFFF00FFFFFF00FFFFFF00FFFFFF00FFFFFF00FFFFFF00FFFFFF00FFFFFF00FFFFFF00FFFFFF00FFFFFF00FFFFFF00FFFFFF00FFFFFF00FFFFFF00FFFFFF00FFFFFF00FFFFFF00FFFFFF00FFFFFF00FFFFFF00FFFFFF00FFFFFF00
310
FFFFFF00FFFFFF00FFFFFF00FFFFFF00FFFFFF00FFFFFF00FFFFFF00FFFFFF00FFFFFF00FFFFFF00FFFFFF00FFFFFF00FFFFFF00FFFFFF00FFFFFF00FFFFFF00FFFFFF00FFFFFF00FFFFFF00FFFFFF00FFFFFF00FFFFFF00FFFFFF00FFFFFF00FFFFFF00FFFFFF00FFFFFF00FFFFFF00FFFFFF00FFFFFF00FFFFFF00FFFFFF
310
00FFFFFF00FFFFFF00FFFFFF00FFFFFF00FFFFFF00FFFFFF00FFFFFF00FFFFFF00FFFFFF00FFFFFF00FFFFFF00FFFFFF00FFFFFF00FFFFFF00FFFFFF00FFFFFF00FFFFFF00FFFFFF00FFFFFF00FFFFFF00FFFFFF00FFFFFF00FFFFFF00FFFFFF00FFFFFF00FFFFFF00FFFFFF00FFFFFF00FFFFFF00FFFFFF00FFFFFF00FFFF
310
FF00FFFFFF00FFFFFF00FFFFFF00FFFFFF00FFFFFF00FFFFFF00FFFFFF00FFFFFF00FFFFFF00FFFFFF00FFFFFF00FFFFFF00FFFFFF00FFFFFF00FFFFFF00FFFFFF00FFFFFF00FFFFFF00FFFFFF00FFFFFF00FFFFFF00FFFFFF00FFFFFF00FFFFFF00FFFFFF00FFFFFF00FFFFFF00FFFFFF00FFFFFF00FFFFFF00FFFFFF00FF
310
FFFF00FFFFFF00FFFFFF00FFFFFF00FFFFFF00FFFFFF00FFFFFF00FFFFFF00FFFFFF00FFFFFF00FFFFFF00FFFFFF00FFFFFF00FFFFFF00FFFFFF00FFFFFF00FFFFFF00FFFFFF00FFFFFF00FFFFFF00FFFFFF00FFFFFF00FFFFFF00FFFFFF00FFFFFF00FFFFFF00FFFFFF00FFFFFF00FFFFFF00FFFFFF00FFFFFF00FFFFFF00
310
FFFFFF00FFFFFF00FFFFFF00FFFFFF00FFFFFF00FFFFFF00FFFFFF00FFFFFF00FFFFFF00FFFFFF00FFFFFF00FFFFFF0000000000000000000000000000000000000303030303000000000101010101010101010101010101010101010101010101010101010101010101010101010101010101010101010101010101010101
310
01010101010101010101010101010101010101010101010101010101010101010101010101010101010101010101010101010101010101010101010101010101010101010101010101010101010101010101010101010101010101010101010101010101010000000000000000000000000000000000030303030300000000
310
01010101010101010101010101010101010101010101010101010101010101010101010101010101010101010101010101010101010101010101010101010101010101010101010101010101010101010101010101010101010101010101010101010101010101010101010101010101010101010101010101010101010101
310
01010101010101010101010101010101010101010101010101010100000000000000000000000000000000000303030303000000000101010101010101010101010101010101010101010101010101010101010101010101010101010101010101010101010101010101010101010101010101010101010101010101010101
310
01010101010101010101010101010101010101010101010101010101010101010101010101010101010101010101010101030303030301010101010101010101010101010101010101010101010101010000000000000000000000000000000000030303030300000000010101010101010101010101010101010101010101
310
01010101010101010101010101010101010101010101010101010101010101010101010101010101010101010101010101010101010101010101010101010101010101010101010101010101010101010101080808080808080808080808080808080101010101010103030108080808080808080808080808080808080801
310
01010101010100000000000000000000000000000000000303030303010101010101010101010101010101010101010101010101010101010101010101010101010101010101010101010101010101010101010101010108080808080808080808080808080808080808080808080808080808080808080808080801010101
310
01010101010101010808080808080808080808080808080801010101010101030301080808080808080808080808080808080808010101010101010000000000000000000000000000000000000000000001010101010101080808080808080808080808080808080808080808080808080808080808080808080808080808
310
08080808080808080101010101080808080808080808080808080808080808080808080808080808080808080808080808080101010101010101010101080808080808080808080808080808080101010101010103030108080808080808080808080808080808080801010101010101000000000000000000000000000000
310
00000000000000010101010101010808080808080808080808080808080808080808080808080808080808080808080808080808080808080808080808010101010408080808080808080808080808080808080808080808080808080808080808080808080808010101010101010101010108080808080808080808080808
310
08080801010101010101030308080808080808080808080808080808080808080101010808080000000000000000000000000000000000000000000001010101010101080808080808080808080808080808080808080808080808080808080808080808080808080808080808080808080801010101010808080808080808
310
08080808080808080808080808080808080808080808080808080808080101010101010101010101010101080808080808080808080801010101010101010101010808080808080808080808080808080808080808010808080808000000000000000000000000000000000000000000000101010101010108080808080808
310
08080808080808080808080808080808080808080808080808080808080808080808080801010101010101010108080808080808080808080808080808080808080808080808080808080808080808080808080808080101010101010101010108080808080808080808080101010101010101010101080808080808080808
310
08080808080808080808080108080808080000000000000000000000000000000000000000000001010101010101010100000000000000000000000000000000000000000000000000000000000000000000000000000000000000000000000000000808080808080808080808080808080808080808080808080808080808
310
08080808080808080808080800000001010101010100080808080808080808080801010108080101010101010808080808080808080808080808080808080808010808080808000000000000000000000000000000000000000000000101010101010101010808080808080808080408080808080808080400000000000000
310
00000000000000000000000000000000000000000000040404040408080808080808080808080808080808080808080808080808080808080808080808080808080000000101010101010008080808080808080808080101010808080808080101010101010101010101010101010101010101010101080808010100000000
310
00000000000000000000000000000000000001010101010101040408080808080808080808080808080808080808040000000000000000000000000000000000000000000000000000000004040404040808080808080808080808080808080808080808080808080808080808080808080808000000000000010101080808
310
08080808080808080808080808080808080808080801010101010101010101010101010101010101010101010808080101000000000000000000000000000000000000000000000101010101010104040808080808080808080808080808080808080804000000000000000000000000000000000000000000000000000000
310
00040404040408000000000008080800000000000000000008080808080808000000000000000008080808080808000101010808080808080808080808080808080808080808080808080101010100000000000000000000000000000000010101080808080800000000000000000000000000000000000000000000010101
310
01010101040408080808080808080808080808080808080808040000000000000000000000000000000000000000000000000000000004040404040800000000000808080800000000000000000808080808080808080808080000000808080808080800010101080808080808080606060606060606080808080808080801
310
01010101000000000000000000000000000000000101010808080808000000000000000000000000000000000000000000000101010101010104040404040404080808080808080808040404040404000000000000000000000000000000000000000000000000000000000008080808080000000000080808080000000000
310
00000008080808080808080808080800000008080808080808000101010808080808080806060606060606060808080808080808010303010100000000000000000000000000000000010101080808080800000000000000000000000000000000000000000000010101010101010101040404040404040404040404040404
310
04040404000000000000000000000000000000000000000000000000000000000000080808080000000000000808080808080808080800000808080808080808080808080800000808080808080800010101010101040401010606060606060606010108080808080801030301010000000000000000000000000000000001
310
01010808080808000000000000000000000000000000000000000000000101010101010101010404040404040404040404040404040404040400000000000000000000000000000000000000000000000000000000000008080808040408080808080808080808080808080000080808080808080808080808080000080808
310
08080808000000000101010101010101060101060606010101010101010101010303010101010101010101010101010101010101010101080808080800000000000000000000000000000000000000000000010101010101010101000000000000000000000000000000000000000000000000000000000000000000000000
310
00000000000000000000000000080808040404080808080808080808080808080800000808080808080808080808080800000808080808080800000000010101010101010101010101010101010101010101010101030301010101010101080808080808080808080808080808080808080000000000000000000000000000
310
00000000000000000101010101010101010000000000000000000000000000000000000000000000000000000000000000000000000000000000000000000000000008080804040408080808080808080808080808080000080808080808080808080808080000080808080808080000000001010101010101010101010101
310
01010101010101010101010303010101010101080808080808080808080808080808080808080800000000000000000000000000000000000000000000010101010101010101000000000000000000000000000000000000000000000000000000000000000000000000000000000000000000000000000808080404040808
310
08080808080808080808080000000808080808080808080808080800000808080808080800000000000000000000000000000000000000000000000101010101010101010101010108080808080808080808080808080801010101010000000000000000000000000000000000000000000001010101010101010100000000
310
00000000000000000000000000000000000000000000000000000000000000000000000000000000000000000008080808040404040000080808080808080808000000080808080808080808080808080800080808080808080000000000000000000000000000000000000000000000010101010108080808080808080808
310
08080808080808080808080808080808080800000000000000000000000000000000000000000000010101010101010101000000000000000000000000000000000000000000000000000000000000000000000000000000000000000000000000000808080804040808080808080808080808080800000008080808080808
310
08080808080808000808080808080800000000000000000000000000000000000000000000000101010101080808080808080808080808080808080808080808080808080808080000000000000000000000000000000000000000000001010101010101010100000000000000000000000000000000000000000000000000
310
00000000000000000000000000000000000000000000000008080804040408080808080808080808080808080808080808080808080808080808080800080808080808080000000000000000000000080808080808080808080808080808080808080808080808080808080808080808080808080808080808080808000000
310
00000000000000000000000000000000000000010101010101010101080808080000000000000000000000000000000000000000000000000000000000000000000000000000000000000000000808080404040808080808080808080808080808080808080808080808080808080800000008080808080808000000000000
310
00000000000808080808080808080808080808080808080808080808080808080808080808080808080808080808080808080000000000000000000000000000000000000000000001010101010101010108080808080808080808080808080808080808080808080808080808080808080808080808080808080808080800
310
00000008080804040408080808080808080808080808080808080808080808080808080808000000080808080808080000000000000000000000080808080808080808080808080808080808080808080808080808080808080808080808080808080808080808000000000000000000000000000000000000000000000101
310
01010101010101080808080808080808080808080808080808080808080808080808080808080808080808080808080808080808000000000808080804040400000008080808080808000000000008080808080808080808000000000008080808080800000000000000000000000008080808080808080808080808080808
310
08080808080808080808080808080808080808080808080808080808080000000000000000000000000000000000000000000001010101010101010108080808080808080808080808080808080808080808080808080808080808080808080808080808080808080800000000080808080404000000000808080808080800
310
00000000080808080808080808080000000000080808080808000000000000000000000000080808080808080808080808080808080808080808080808080808080808080808080808080808080808080808000000000000000000000000000000000000000000000101010101010101010808080808080808080808080808
310
08080808080808080808080808080808080808080808080808080808080808080000000808080808000000000008080808080808000000000008080808080808080808000000000008080808080800000000000000000000080808080808080808080808080808080808080808080808080808080808080808080808080808
310
08080808080808080000000000000000000000000000000000000000000001010101010101080808080808080808080808080808080808080808080808080808080808080808080808080808080808080808080808000000080808080000000000000808080808000000000000000808080808080808080800000000000808
310
08080808000000000000000000000808080808080808080808080808080808080808080808080808080808080808080808080808080808080808080808000000000000000000000000000000000000000000000101010101010108080808080808080808080808080808080808080808080808080808080808080808080808
310
08080808080808080808080000000804040800000000000008080808040404000000000004040404040404080808000000000004040404040404000000000000000000080808080808080808080808080808080808000000000000000000000000000000000000000000000000000000000000000000000000000000000000
310
00000000000000000001010101010101080808080808080808080808080808080808080808080808080808080808080808080808080808080808080808000000000000080404080000000000000808080804040400000000000404040404040408000000000000000404040404040400000000000000000004040808080808
310
08080808080808080808080808080808080808080808080808080808080808080808080808080808000000000000000000000000000000000000000000000101010101010108080808080808080808080808080808080808080808080808080808080808080800000000000000000000000000000000000000080808080808
310
08080808080808080808080808080808080808080808080808080808080808080808080804000000000000000000000008080808080808080808080808080808080808080808080808080808080808080808080808080808080808080800000000000000000000000000000000000000000000010101010101010808080808
310
08080808080808080808080808080808080808080808080808080808000000000000000000000000000000000000000808080808080808080808080808080808080808080808080808080808080808080808080808080808080808080808000000000000000808080808080808080808080808080808080808080808080808
310
08080808080808080808080808080808080808000000000000000000000000000000000000000000000101010101010108080808080808080808080808080808080808080808080808080808080808080808080808080808000000000000000000000000080808080808080808080808080808080808080808080808080808
310
08080808080808080808080808080808080808080000000000000008080808080808080808080808080808080808080808080808080808080808080808080808080808080808080800000000000000000000000000000000000000000000010101010101010808080808080808080808080808080808080808080808080808
310
08080808080808080808080808080000000000000000000000040808080808080808080808080808080808080808080808080808080808080808080808080808080808080808080808000000000000000808080808080808080808080808080808080808080808080808080808080808080808080808080808080808080000
310
00000000000000000000000000000000000000000101010101010108080808080808080808080808080808080808080808080808080808080808080808080808080808000000000000000000000404080808080808080808080808080808080808080808080808080808080808080808080808080808080808080800000000
310
00000000000008080808080808080808080808080808080808080808080808080808080808080808080808080808080808080800000000000000000000000000000000000000000000010101010101010808080808080808080808080808080808080808080808080000000000000000000000000000000000000000000000
310
00000004040404040404040404040404040404040404040404040800000000000000000000000000000000000000000000000000000000000000000808080808080808080808080808080808080808080808080808080808080808080808080808080808080808080000000000000000000000000000000000000000000001
310
01010101010101010808080808080808080808080808080808080808080808080808080808080808080808080808080000000000000000000408080808080808080808080808080808080808080808080808080808080808080808080808080808080000000000000000000000000004080808080808080808080808080808
310
08080808080808080808080808080808080808080808080808080808080800000000000000000000000000000000000000000000010101010101010101080808080808080808080808080808080808080808080808080808080808080808080808080808000000000000000000040808080808080808080808080808080808
310
08080808080808080808080808080808080808080808080800000000000000000000000000000808080808080808080808080808080808080808080808080808080808080808000000000000000000000000000000000000000000000000000000000000000000000001010101010101010108080808080808080808080808
310
08080808080808080808080808080808080808080808080808080800000000000000000008080808080808080808080808080808080808080808080808080808080808080808080808080808080000000000000000000000000000080808080808080808080808080808080808080808080808080808080808080808080808
310
08080808080800000000000000000000000000000000000000000000000000010101010101010101080808080808080808080808080808080808080808080808080808080808080808080808080808080000000000000000000808080808080808080808080808080808080808080808080808080808080808080808080808
310
08080808080000000000000000000000000808080808080808080808080808080808080808080808080808080808080808080808080808080808080000000000000000000000000000000000000000000000000001010101010101080808080808080808080808080808080808080808080808080808080808080808080808
310
08080808080800000000000000000008080808080808080808080808080808080808080808080808080808080808080808080808080808080808000000000000000000000000080808080808080808080808080808080808080808080808080808080808080808080808080808080808080000000000000000000000000000
310
00000000000000000000010101010101010808080808080808080808080808080808080808080808080808080808080808080808080808080808000000000000000000000808080808080808080808080808080808080808080808080808080808080808080808080808080808080800000000000000000000000008080808
310
08080808080808080808080808080808080808080808080808080808080808080808080808080800000000000000000000000000000000000000000000000001010101010101080808080808080808080808080808080808080808080808080808080808080808080808080808080800000000000000000000080808080808
310
08080808080808080808080808080808080808080808080808080808080808080000000000000000000000000000000000080808080808080808080808080808080808080808080808080808080808080808080808080808080808080000000000000000000000000000000000000000000000000101010101010101010808
310
08080808080808080808080808080808080808080808080808080808080808080808080808080808000000000000000808080808080808080808080808080808080808080808080808080808080808080808080808080000000000000000000000000000000008080808080808080808080808080808080808080808080808
310
08080808080808080808080808080808080800000000000000000000000000000000000000000000000001010101010101010108080808080808080808080808080808080808080808080808080808080808080808080808080808080800000000000000080808080808080808080808080808080808080808080808080808
310
08080808080808080808080808000000000000000000000000000808080808080808080808080808080808080808080808080808080808080808080808080808080808080808080000000000000000000000000000000000000000000000000101010101010101010808080808080808080808080808080808080808080808
310
08080808080808080808080808080808080808000000000000000808080808080808080808080808080808080808080808080808080808080808080808080808080800000000000000000000000000080808080808080808080808080808080808080808080808080808080808080808080808080808080808080800000000
310
00000000000000000000000000000000000000000001010101010101010108080808080808080808080808080808080808080808080808080808080808080808080808080808080000000000000008080808080808080808080808080808080808080808080808080808080808080808080808080808080000000000000000
310
00000000000808080808080808080808080808080808080808080808080808080808080808080808080808080800000000000000000000000000000000000000000000000000000000000101010101010101010808080808080808080808080808080808080808080808080808080808080808080808080808080808000000
310
00000000080808080808080808080808080800000000000000000000000000000000000000000000000000000000000000000000000000000000040408080808080808080808080808080808080808080808080808080808080808080808080808080808080808080800000000000000000000000000000000000000000000
310
01010101010101010108080808080808080808080808080808080808080808080808080808080808080808080808080808080000000000000008080808080808080808080808080808080808080808080808080808080808080808080808080000000000000000000000000000000000000808080808080808080808080808
310
08080808080808080808080808080808080808080808080808080808080808000000000000000000000000000000000000000000000101010101010101010808080808080808080808080808080808080808080808080808080808080808080808080808080000000000000000000408080808080808080808080808080808
310
08080808080808080808080808080808080808080800000000000000000000000000000000000008080808080808080808080808080808080808080808080808080808080808080808080808080808080808080800000000000000000000000000000000000000000000010101010101010808080808080808080808080808
310
08080808080808080808080808080808080808080808080808080800000000000000000000080808080808080808080808080808080808080808080808080808080808080808080808080000000000000000000000000000000000040808080808080808080808080808080808080808080808080808080808080808080808
310
08080808080808080800000000000000000000000000000000000000000000000101010101010108080808080808080808080808080808080808080808080808080808080808080808080808080808080808080808000000000008080808080808080808080808080808080808080808080808080808080808080808080808
310
08080000000000000000000000000000000008080808080808080808080808080808080808080808080808080808080808080808080808080808080808080000000000000000000000000000000000000000000000010101010101010808080808080808080808080808080808080808080808080808080808080808080808
310
08080808080808080808080000000000080808080808080808080808080808080808080808080808080808080808080808080808080808000000000000000000000000000000000004080808080808080808080808080808080808080808080808080808080808080808080808080808080800000000000000000000000000
310
00000000000000000000000101010101010101010000080808080808080808080808080808080808080808040404040404040404040000040404080808080808000000000008080808080808080808080808080808080808080808080808080808080808080808080808080800000000000000000000000000000000000408
310
08080808080808080808080808080808080808080808080808080808000000000000000000000000000000000000000000000000000000000000000000000000010101010101010101000008080808080808080808080808080808080808080804040404040404040404040404040408080808080800000000040808080808
310
08080808080808080808080808080808080808080808080808080808080808080800000000000000000000000000000000000000080808080808080808080808080808080808080808080808080808080800000000000000000000000000000000000000000000000000000000000000000000000001010101010101010100
310
00080808080808080808080808080808080808080808080808080808080808080804040404080808080808000000000408080808080808080808080808080808080808080808080808080808080808080808080808080000000000000000000000000000000000000408080808080808080808080808080808080808080808
310
08080808080808080808080808080800000000000000000000000000000000000000000000000000000000010101010101010101000008080808080808080808080808080808080808080808080808080808080808080404040408080808080000000000040808080808080808080808080808080808080800000000000000
310
00000000000000000000000000000000000000000000000000000000000008080808080808080808080808080808080808080808080808080808080808080808080808080000000000000000000000000000000000000000000000000000000001010101010101010100000808080808080808080808080808080808080808
310
08080808080808080808080804040404080808080800000000000408080808080808080808080808080808080808080808080808080808080808080808080808080808000000000000000000000000000008080808080808080808080808080808080808080808080808080808080808080808080808080808080808080808
310
00000000000000000000000000000000000000000000010101010101010101000000080808080808080808080808080404040404040404040404040404040404040404040408080808080000000000000808080808080808080808080808080808080808080808080808080808080808080808080808080800000000000000
310
00000000000000080808080808080808080808080808080808080808080808080808080808080808080808080808080808080808080000000000000000000000000000000000000000000001010101010101010100000008080808080808080808080808040404040404040404040404040404040404040404040808080808
310
00000000000008080808080808080808080808080808080808080808080808080808080808080808080808080808000000000000000000000000000008080808080808080808080808080808080808080808080808080808080808080808080808080808080808080808000000000000000000000000000000000000000000
310
00010101010101010101000000080808080808080808080804040404040404040404040404040404040404040404040408080808080000000000000808080808080808080808080808080808080808080808080808080808080808080808080808080000000000000000000000000000000008080808080808080808080808
310
08080808080808080808080808080808080808080808080808080808080800000000000000000000000000000000000000000000000001010101010101010100080808080808080808080808080808080808080808080808080808080808080808080804040808080808000000000000080808080808080808080808080808
310
08080808080808080808080808080808080808080808080800000000000000000000000000000004080808080808080808080808080808080808080808080808080808080808080808080808080808080808080000000000000000000000000000000000000000000000000101010101010101010008080808080808080808
310
08080808080808080808080808080808080808080808080808040408080808080000000000000808080808080808080808080808080808080808080808080808080808080808080808080808080800000000000000000000000000000008080808080808080808080808080808080808080808080808080808080808080808
310
08080808080808080800000000000000000000000000000000000000000000000001010101010101010100080808080808080808080808080808080808080808080808080808080808080808080804040808080808000000000000080808080808080808080808080808080808080808080808080808080808080808080808
310
08080808000000000000000000000000000000080808080808080808080808080808080808080808080808080808080808080808080808080808080808080000000000000000000000000000000000000000000000000101010101010101010000080808080808080808080808080808080808080808080808040404040404
310
04040404000408080808080000000000000808080808080808080808080808080808080808080808080808080808080808080808080808080800000000000000000000000000000008080808080808080808080808080808080808080808080808080808080808080808080808080808080808080800000000000000000000
310
00000000000000000000000001010101010101010100000808080808080808080808080808080808080808080808080404040404040404040400040808080808000000000000080808080808080808080808080808080808080808080808080808080808080808080808080808080808080808080808000000000000000808
310
08080808080808080808080808080808080808080808080808080808080808080808080808080808080808000000000000000000000000000000000000000000000101010101010101010000080808080808080808080808080808080808080804040404040404040404040404040404080808080800000000000008080808
310
08080808080808080808080808080808080808080808080808080808080808080808080808080808080808080808000000000008080808080808080808080808080808080808080808080808080808080808080808080808080808080808080800000000000000000000000000000000000000000000010101010101010101
310
00000808080808080808080808080808080808080808080808080404040404040404040404040808080808000000000000080808080808080808080808080808080808080808080808080808080808080808080808080808080808080808080808080800000000000808080808080808080808080808080808080808080808
310
08080808080808080808080808080808080808080808000000000000000000000000000000000000000000000101010101010101010000080808080808080808080808080808080808080808080808040404040404040404040404080808080800000000000008080808080808080808080808080808080808080808080808
310
08080808080808080808080808080808080808080808080808000000000008080808080808080808080808080808080808080808080808080808080808080808080808080808080808080800000000000000000000000000000000000000000000010101010101010808080808080808080808080808080808080808080808
310
08080808080404040404040404040404040808080808000000000000080808080808080808080808080808080808080808080808080808080808080808080808080808080808080808080808000000000000000808080808080808080808080808080808080808080808080808080808080808080808080808080808080800
310
00000000000000000000000000000000000000000000000101010101010108080808080808080808080808080808080808080800000000000004040404040404040404040000000000000000000000000008080808080808080808080808080808080808080808080808080808080808080808080808080808080808080808
310
08000000000000000008080808080808080808080808080808080808080808080808080808080808080808080808080808080808000000000000000000000000000000000000000000000000010101010101010808080808080808080808080808080808080808080808080808080808080808080808080808080808080808
310
00000000000004080808080808080808080808080808080808080808080808080808080808080808080808080808080808080808080800000000000000000808080808080808080808080808080808080808080808080808080808080808080808080808080808080800000000000000000000000000000000000000000000
310
00000101010101010108080808080808080808080808080808080808080808080808080808080808080808080808080808080808080000000000000408080808080808080808080808080808080808080808080808080808080808080808080808080808080808080808080000000000000000080808080808080808080808
310
08080808080808080808080808080808080808080808080808080808080000000000000000000000000000000000000000000000000000010101010101010808080808080808080808080808080808080808080808080808080808080808080808080808080808080808000000000000040404080808080808080808080808
310
08080808080808080808080808080808080808080800000000000000000000000000000000000000000808080808080808080808080808080808080808080808080808080808080808080808080808080808000000000000000000000000000000000000000000000000000001010101010101080808080808080808080808
310
08080808080808080808080808080808080808080808080000000000000000000000000000000404040808080808080808080808080808080808080808080808080808080808080808080000000000000000000000000000000000000000080808080808080808080808080808080808080808080808080808080808080808
310
08080808080808080000000000000000000000000000000000000000000000000000010101010101010101000008080808080808080808080808080808080808080808080808080808080808080808000000000000000000000000000000080808080808080808080808080808080808080808080808080808080808080808
310
08080000000000000000000000000000000000000808080808080808080808080808080808080808080808080808080808080808080808080808080808000000000000000000000000000000000000000000000000000001010101010101010100000808080808080808080808080808080808080808080808080808080808
310
08080808080000000000000000000000000000040808080808080808080808080808080808080808080808080808080808080808080808080000000000000000000000000000000808080808080808080808080808080808080808080808080808080808080808080808080808080808080000000000000000000000000000
310
00000000000000000000000000010101010101010101000008080808080808080808080808080808080808080808080808080808080808080808000000000000000000000000000000080808080808080808080808080808080808080808080808080808080808080808080808000000000000000000000000000000080808
310
08080808080808080808080808080808080808080808080808080808080808080808080808080800000000000000000000000000000000000000000000000000000001010101010101010100000808080808080808080808080808080808000000000000000000000000000000000000000000000000000000000000000008
310
08080808080808080808080808080808080808080808080808080808080808080808080000000000000000000000000000000808080808080808080808080808080808080808080808080808080808080808080808080808080808080000000000000000000000000000000000000000000000000000000101010101010101
310
01000008080808080808080808080808080808080808080808080800000000000000000000000000000000000000000000000004080808080808080808080808080808080808080808080808080808080808080808080808080808000000000000000000000000040408080808080808080808080808080808080808080808
310
08080808080808080808080808080808080800000000000000000000000000000000000000000000000000000001010101010101010100000808080808080808080808080808080808080808080808080000000000000000000000000000000000000000000000000008080808080808080808080808080808080808080808
310
08080808080808080808080808080808080000000000000000000000000000080808080808080808080808080808080808080808080808080808080808080808080808080808080000000000000000000000000000000000000000000000000000000101010101010101010008080808080808080808080808080808080808
310
08080808080800000000000000000000000000000000000000000000000000080808080808080808080808080808080808080808080808080808080808080808080808080808000000000000000000000000000008080808080808080808080808080808080808080808080808080808080808080808080808080808080808
310
00000000000000000000000000000000000000000000000001010101010101010100080808080808080808080808080808080808080808080808080808080808080808080808000000000000000000000000000008080808080808080808080808080808080808080808080808080808080808080808080808080808080808
310
08080000000000000000080808080808080808080808080808080808080808080808080808080808080808080808080808080808080000000000000000000000000000000000000000000000000101010101010108080808080808080808080808080808080808080808080808080808080808080808080808080800000000
310
00000000000000000000080808080808080808080808080808080808080808080808080808080808080808080808080808080808080808000000000000000008080808080808080808080808080808080808080808080808080808080808080808080808080808080808000000000000000000000000000000000000000000
310
00000001010101010108080808080808080808080808080808080808080808080808080808080808080808080808080808000000000000000000000000000008080808080808080808080808080808080808080808080808080808080808080808080808080808080808080800000000000000000808080808080808080808
310
08080808080808080808080808080808080808080808080808080808080000000000000000000000000000000000000000000000000000000101010101010808080808080808080808080808080808080808080808080808080808080808080808080808000000000000000000000000000000040808080808080808080808
310
08080808080808080808080808080808080808080808080808080000000000000000000000000000000008080808080808080808080808080808080808080808080808080808080808080808080808080808080000000000000000000000000000000000000000000000000000010101010101080808080808080808080808
310
08080808080808080808080808080808080808080808080808080000000000000000000000000000000008080808080808080808080808080808080808080808080808080808080808080808080808080000000000000000000000000000000808080808080808080808080808080808080808080808080808080808080808
310
08080808080808080800000000000000000000000000000000000000000000000000000101010101010808080808080808080808080808080808080808080808080808080808080808080808080808000000000000000000000000000000000808080808080808080808080808080808080808080808080808080808080808
310
08080808080800000000000000000000000000000408080808080808080808080808080808080808080808080808080808080808080808080808080808080000000000000000000000000000000000000000000000000000010101010101080808080808080808080808080808080808080808000808080808080808080808
310
08080808080800000000000000000000000000000008080808080808080808080808080808080808080808080808080808080808080808080808080000000000000000000000000000000808080808080808080808080808080808080808080808080808080808080808080808080808080808000000000000000000000000
310
00000000000000000000000000000101010101010808080808080808080808080808080808080808080808080808080808080808080808080808080800000000000000000000000000000808080808080808080808080808080808080808080808080808080808080808080808080800000000000000000000000000000000
310
08080808080808080808080808080808080808080808080808080808080808080808080808080808080000000000000000000000000000000000000000000000000000010101010101080808080808080808080808080808080808080808080808080808080808080808080808080808080000000000000000000000000000
310
08080808080808080808080808080808080808080808080808080808080808080808080808080000000000000000000000000000000808080808080808080808080808080808080808080808080808080808080808080808080808080808000000000000000000000000000000000000000000000000000001010101010108
310
08080808080808080808080808080808080808080808080808080808080808080808080808080000000000000000000000000000040808080808080808080808080808080808080808080808080808080808080808080808080808000000000000000000000000000000080808080808080808080808080808080808080808
310
08080808080808080808080808080808080808080000000000000000000000000000000000000000000000000000010101010101080808080808080808080808080808080808080808080808080808080808080808080808080800000000000000000000000000000008080808080808080808080808080808080808080808
310
08080808080808080808080808080808080000000000000000000000000000000808080808080808080808080808080808080808080808080808080808080808080808080808080800000000000000000000000000000000000000000000000000000001010101010108080808080808080808080808080808080808080808
310
08080808080808080808080808080808000000000000000000000000000000080808080808080808080000000000000000000000000000000000000000000000000000000000000000000000000000000000000000080808080808080808080808080808080808080808080808080808080808080808080808080808080800
310
00000000000000000000000000000000000000000000000000010101010101080808080808080808080808080808080808080808080808080808080808080808080808080800000000000000000000000000000008080808080808080808080808080808080808080808080808080808080808000000000000000000000000
310
00000000000000000000000808080808080808080808080808080808080808080808080808080808080808080808080808080808000000000000000000000000000000000000000000000000000001010101010108080808080808080808080808080808080808080808080808080808080808080808080808080808000000
310
00000000000000000000080808080808080808080808080808080808080808080808080808080808080808080000000000000000000000000000000000000000080808080808080808080808080808080808080808080808080808080808080808080808080808080800000000000000000000000000000000000000000000
310
00000000010101010101080808080808080808080808080808080808080808080808080808080808080808080808080808080000000000000000000000000408080808080808080808080808080808080808080808080808080808080808080808000000000000000000000000000000000000000008080808080808080808
310
08080808080808080808080808080808080808080808080808080808080800000000000000000000000000000505050505050505050505050501010101010108080808080808080808080808080808080808080808080808080808080808080808080808080808000000000000000000000004040808080808080808080808
310
08080808080808080808080808080808080808080808080000000000000000000000000000000000000808080808080808080808080808080808080808080808080808080808080808080808080808080808080000000000000000000000000000050505050505050505050505050101010101010808080808080808080808
310
08080808080808080808080808080808080808080808080808080000000000000000000000000000040404040404040404040404040404040404040404040000000000000000000000000000000000000000000000000000000000000000080808080808080808080808000000000000010101010101010101010101010101
310
01010101010101010101010101010000000000000000000505050505050505050505050501010101010108080808080808080808080808080808080800000000000000000000000505050500000000000000000000000000000000000004040404040404040404040404040404040404040404000000000000000000000000
310
00000000000000000000000000000000000000000808080808080808080808080000000000000101010101010101010101010101010101010101010101010101010101000000000000000000050505050505050505050505050101010101010808080808080808080808080808080808080101010101010101010101050505
310
05010101010101010101010101010101010101040404040404040404040404040404040404040404040101010101010101010101010101010101010101010101010101010101010101040404040404040404040404010101010101010101010101010101010101010101010101010101010101010101010100000000000000
310
00000505050505050505050505050501010101010101010101010101010101010101010101010101010101010101010101010101010101010101010101010101010101010101010101010101010101010101010101010101010101010101010101010101010101010101010101010101010101010101010101010101010101
310
01010101010101010101010101010101010101010101010101010101010101010108080101010101010101010101000000000000000000050505050505050505050505050101010101010101010101010101010101010101010101010101010101010101010101010101010101010101010101010101010101010101010101
310
01010101010101010101010101010101010101010101010101010101010101010101010101010101010101010101010101010101010101010101010101010101010101010101010808080808080101080808080808010808010101080808010101080800000000000000000005050505050505050505050505010101010101
310
01010101010101010101010101010101010101010101010101010101010101010101010101010101010101010101010101010101010101010101010101010101010101010101010101010101010101010101010101010101010101010101010101010101010101010101010101010101010101010101010101010101080808
310
08080801010808080808080108080801010808080101010808000000000000000000050505050505050505050505050101010101010101010101010101010101010101010101010101010101010101010101010101010101010101010101010101010101010101010101010101010101010101010101010101010101010101
310
01010101010101010101010101010101010101010101010101010101010101010101010101010101010101010101010101010808080808080101080808080808010808080101080808010101080800000000000000000005050505050505050505050505050505050101010101010101010101010101010101010101010101
310
01010101010101010101010101010101010101010101010101010101010101010101010101010101010101010101010101010101010101010101010101010101010101010101010101010101010101010101010101010101010101010101010101010101010101010808080101010101080808010101080808010101010101
310
01010101000000000000000000050505050505050505050505050505050501010101010101010101010101010101010101010101010101010101010101010101010101010101010101010101010101010101010101010101010101010101010101010101010101010101010101010101010101010101010101010101010101
310
01010101010101010101010101010101010101010101010101010101010101080808080101010101010101010101010101010101010101010100000000000000000005050505050505050505050505050505050101010101010101010101010101010101010101010101010101010101010101010101010101010101010101
310
01010101010101010101010101010101010101010101010101010101010101010101010101010101010101010101010101010101010101010101010101010101010101010101010101010101010101010101010108080808010101010101010101010101010101010101010101010000000000000000000505050505050505
310
05050505050505050501010101010101010101010101010101010101010101010101010101010101010101010101010101010101010101010101010101010101010101010101010101010101010101010101010101010101010101010101010101010101010101010101010101010101010101010101010101010101010101
310
01010101010101010101010101010101010101010101010101010101010101010101010100000000000000000005050505050505050505050505050505050505050500000000000000000000000000000000000000000000000000000000000000000000000000000000000000000000000000000000000000000000000000
310
00000000000000000000000000000000000000000000000000000000000000000000000000000000000000000000000000000000000000000000000000000000000000000000000000000000000000000000000000000000000000000000000000000000000000000000000000000000000000000000000000000000000000
310
00000000000000000000000000000000000000000000000000000000000000000000000000000000000000000000000000000000000000000000000000000000000000000000000000000000000000000000000000000000000000000000000000000000000000000000000000000000000000000000000000000000000000
310
000000000000000000000000000702
  0
ENDSEC
  0
EOF
