  0
SECTION
  2
HEADER
  9
$ACADVER
  1
AC1015
  9
$ACADMAINTVER
 70
     6
  9
$DWGCODEPAGE
  3
ANSI_1252
  9
$INSBASE
 10
0.0
 20
0.0
 30
0.0
  9
$EXTMIN
 10
9147.799213
 20
-14524.165354
 30
0.0
  9
$EXTMAX
 10
9484.401575
 20
-14306.362205
 30
0.0
  9
$LIMMIN
 10
8514.254119
 20
-15217.110055
  9
$LIMMAX
 10
10117.946669
 20
-13613.417504
  9
$ORTHOMODE
 70
     0
  9
$REGENMODE
 70
     1
  9
$FILLMODE
 70
     1
  9
$QTEXTMODE
 70
     0
  9
$MIRRTEXT
 70
     1
  9
$LTSCALE
 40
1.0
  9
$ATTMODE
 70
     1
  9
$TEXTSIZE
 40
1.125
  9
$TRACEWID
 40
0.05
  9
$TEXTSTYLE
  7
STD SHEET
  9
$CLAYER
  8
0
  9
$CELTYPE
  6
ByLayer
  9
$CECOLOR
 62
   256
  9
$CELTSCALE
 40
1.0
  9
$DISPSILH
 70
     0
  9
$DIMSCALE
 40
1.0
  9
$DIMASZ
 40
1.125
  9
$DIMEXO
 40
0.5625
  9
$DIMDLI
 40
0.0
  9
$DIMRND
 40
0.0
  9
$DIMDLE
 40
0.0
  9
$DIMEXE
 40
0.84375
  9
$DIMTP
 40
0.0
  9
$DIMTM
 40
0.0
  9
$DIMTXT
 40
1.125
  9
$DIMCEN
 40
0.09
  9
$DIMTSZ
 40
0.0
  9
$DIMTOL
 70
     0
  9
$DIMLIM
 70
     0
  9
$DIMTIH
 70
     0
  9
$DIMTOH
 70
     0
  9
$DIMSE1
 70
     0
  9
$DIMSE2
 70
     0
  9
$DIMTAD
 70
     1
  9
$DIMZIN
 70
    11
  9
$DIMBLK
  1

  9
$DIMASO
 70
     1
  9
$DIMSHO
 70
     1
  9
$DIMPOST
  1

  9
$DIMAPOST
  1

  9
$DIMALT
 70
     0
  9
$DIMALTD
 70
     4
  9
$DIMALTF
 40
0.0254
  9
$DIMLFAC
 40
1.0
  9
$DIMTOFL
 70
     0
  9
$DIMTVP
 40
0.0
  9
$DIMTIX
 70
     0
  9
$DIMSOXD
 70
     0
  9
$DIMSAH
 70
     0
  9
$DIMBLK1
  1

  9
$DIMBLK2
  1

  9
$DIMSTYLE
  2
Style 1
  9
$DIMCLRD
 70
     1
  9
$DIMCLRE
 70
     1
  9
$DIMCLRT
 70
     1
  9
$DIMTFAC
 40
1.0
  9
$DIMGAP
 40
0.5625
  9
$DIMJUST
 70
     0
  9
$DIMSD1
 70
     0
  9
$DIMSD2
 70
     0
  9
$DIMTOLJ
 70
     0
  9
$DIMTZIN
 70
    11
  9
$DIMALTZ
 70
    15
  9
$DIMALTTZ
 70
    15
  9
$DIMUPT
 70
     1
  9
$DIMDEC
 70
     4
  9
$DIMTDEC
 70
     4
  9
$DIMALTU
 70
     2
  9
$DIMALTTD
 70
     4
  9
$DIMTXSTY
  7
STD SHEET
  9
$DIMAUNIT
 70
     0
  9
$DIMADEC
 70
     4
  9
$DIMALTRND
 40
0.0
  9
$DIMAZIN
 70
     3
  9
$DIMDSEP
 70
    46
  9
$DIMATFIT
 70
     3
  9
$DIMFRAC
 70
     0
  9
$DIMLDRBLK
  1

  9
$DIMLUNIT
 70
     4
  9
$DIMLWD
 70
    13
  9
$DIMLWE
 70
    13
  9
$DIMTMOVE
 70
     0
  9
$LUNITS
 70
     4
  9
$LUPREC
 70
     4
  9
$SKETCHINC
 40
0.1
  9
$FILLETRAD
 40
0.5
  9
$AUNITS
 70
     0
  9
$AUPREC
 70
     4
  9
$MENU
  1
.
  9
$ELEVATION
 40
0.0
  9
$PELEVATION
 40
0.0
  9
$THICKNESS
 40
0.0
  9
$LIMCHECK
 70
     0
  9
$CHAMFERA
 40
0.5
  9
$CHAMFERB
 40
0.5
  9
$CHAMFERC
 40
1.0
  9
$CHAMFERD
 40
0.0
  9
$SKPOLY
 70
     0
  9
$TDCREATE
 40
2451789.32913537
  9
$TDUCREATE
 40
2451789.537468704
  9
$TDUPDATE
 40
2451789.329227963
  9
$TDUUPDATE
 40
2451789.537561297
  9
$TDINDWG
 40
0.0000927662
  9
$TDUSRTIMER
 40
0.0000925926
  9
$USRTIMER
 70
     1
  9
$ANGBASE
 50
0.0
  9
$ANGDIR
 70
     0
  9
$PDMODE
 70
     0
  9
$PDSIZE
 40
0.0
  9
$PLINEWID
 40
0.0
  9
$SPLFRAME
 70
     0
  9
$SPLINETYPE
 70
     6
  9
$SPLINESEGS
 70
     8
  9
$HANDSEED
  5
18D1D
  9
$SURFTAB1
 70
     6
  9
$SURFTAB2
 70
     6
  9
$SURFTYPE
 70
     6
  9
$SURFU
 70
     6
  9
$SURFV
 70
     6
  9
$UCSBASE
  2

  9
$UCSNAME
  2

  9
$UCSORG
 10
0.0
 20
0.0
 30
0.0
  9
$UCSXDIR
 10
1.0
 20
0.0
 30
0.0
  9
$UCSYDIR
 10
0.0
 20
1.0
 30
0.0
  9
$UCSORTHOREF
  2

  9
$UCSORTHOVIEW
 70
     0
  9
$UCSORGTOP
 10
0.0
 20
0.0
 30
0.0
  9
$UCSORGBOTTOM
 10
0.0
 20
0.0
 30
0.0
  9
$UCSORGLEFT
 10
0.0
 20
0.0
 30
0.0
  9
$UCSORGRIGHT
 10
0.0
 20
0.0
 30
0.0
  9
$UCSORGFRONT
 10
0.0
 20
0.0
 30
0.0
  9
$UCSORGBACK
 10
0.0
 20
0.0
 30
0.0
  9
$PUCSBASE
  2

  9
$PUCSNAME
  2

  9
$PUCSORG
 10
0.0
 20
0.0
 30
0.0
  9
$PUCSXDIR
 10
1.0
 20
0.0
 30
0.0
  9
$PUCSYDIR
 10
0.0
 20
1.0
 30
0.0
  9
$PUCSORTHOREF
  2

  9
$PUCSORTHOVIEW
 70
     0
  9
$PUCSORGTOP
 10
0.0
 20
0.0
 30
0.0
  9
$PUCSORGBOTTOM
 10
0.0
 20
0.0
 30
0.0
  9
$PUCSORGLEFT
 10
0.0
 20
0.0
 30
0.0
  9
$PUCSORGRIGHT
 10
0.0
 20
0.0
 30
0.0
  9
$PUCSORGFRONT
 10
0.0
 20
0.0
 30
0.0
  9
$PUCSORGBACK
 10
0.0
 20
0.0
 30
0.0
  9
$USERI1
 70
     0
  9
$USERI2
 70
     0
  9
$USERI3
 70
     0
  9
$USERI4
 70
     0
  9
$USERI5
 70
     0
  9
$USERR1
 40
0.0
  9
$USERR2
 40
0.0
  9
$USERR3
 40
0.0
  9
$USERR4
 40
0.0
  9
$USERR5
 40
0.0
  9
$WORLDVIEW
 70
     1
  9
$SHADEDGE
 70
     3
  9
$SHADEDIF
 70
    70
  9
$TILEMODE
 70
     1
  9
$MAXACTVP
 70
    64
  9
$PINSBASE
 10
0.0
 20
0.0
 30
0.0
  9
$PLIMCHECK
 70
     0
  9
$PEXTMIN
 10
1.000000E+20
 20
1.000000E+20
 30
1.000000E+20
  9
$PEXTMAX
 10
-1.000000E+20
 20
-1.000000E+20
 30
-1.000000E+20
  9
$PLIMMIN
 10
0.0
 20
0.0
  9
$PLIMMAX
 10
12.0
 20
9.0
  9
$UNITMODE
 70
     0
  9
$VISRETAIN
 70
     1
  9
$PLINEGEN
 70
     0
  9
$PSLTSCALE
 70
     0
  9
$TREEDEPTH
 70
  3020
  9
$CMLSTYLE
  2
Standard
  9
$CMLJUST
 70
     0
  9
$CMLSCALE
 40
1.0
  9
$PROXYGRAPHICS
 70
     1
  9
$MEASUREMENT
 70
     0
  9
$CELWEIGHT
370
    -1
  9
$ENDCAPS
280
     0
  9
$JOINSTYLE
280
     0
  9
$LWDISPLAY
290
     1
  9
$INSUNITS
 70
     1
  9
$HYPERLINKBASE
  1

  9
$STYLESHEET
  1

  9
$XEDIT
290
     1
  9
$CEPSNTYPE
380
     0
  9
$PSTYLEMODE
290
     1
  9
$FINGERPRINTGUID
  2
{FDEAD576-A652-11D2-9A35-0060089B3A3F}
  9
$VERSIONGUID
  2
{A257D680-BC79-11D2-9A46-0060089B3A3F}
  9
$EXTNAMES
290
     1
  9
$PSVPSCALE
 40
0.0
  9
$OLESTARTUP
290
     0
  0
ENDSEC
  0
SECTION
  2
CLASSES
  0
CLASS
  1
ACDBDICTIONARYWDFLT
  2
AcDbDictionaryWithDefault
  3
ObjectDBX Classes
 90
        0
280
     0
281
     0
  0
CLASS
  1
ACDBPLACEHOLDER
  2
AcDbPlaceHolder
  3
ObjectDBX Classes
 90
        0
280
     0
281
     0
  0
CLASS
  1
LAYOUT
  2
AcDbLayout
  3
ObjectDBX Classes
 90
        0
280
     0
281
     0
  0
ENDSEC
  0
SECTION
  2
TABLES
  0
TABLE
  2
VPORT
  5
18CFE
330
0
100
AcDbSymbolTable
 70
     3
  0
VPORT
  5
4B
330
18CFE
100
AcDbSymbolTableRecord
100
AcDbViewportTableRecord
  2
*ACTIVE
 70
     0
 10
0.0
 20
0.0
 11
1.0
 21
1.0
 12
9316.100394
 22
-14415.26378
 13
0.0
 23
0.0
 14
3.937008
 24
3.937008
 15
1.0
 25
1.0
 16
0.0
 26
0.0
 36
1.0
 17
0.0
 27
0.0
 37
0.0
 40
226.515276
 41
1.581333
 42
50.0
 43
0.0
 44
0.0
 50
0.0
 51
0.0
 71
     0
 72
   100
 73
     1
 74
     2
 75
     0
 76
     0
 77
     0
 78
     1
281
     0
 65
     1
110
0.0
120
0.0
130
0.0
111
1.0
121
0.0
131
0.0
112
0.0
122
1.0
132
0.0
 79
     0
146
0.0
  0
ENDTAB
  0
TABLE
  2
LTYPE
  5
18CFA
330
0
100
AcDbSymbolTable
 70
     2
  0
LTYPE
  5
18CFB
330
18CFA
100
AcDbSymbolTableRecord
100
AcDbLinetypeTableRecord
  2
ByBlock
 70
     0
  3

 72
    65
 73
     0
 40
0.0
  0
LTYPE
  5
18CEC
330
18CFA
100
AcDbSymbolTableRecord
100
AcDbLinetypeTableRecord
  2
ByLayer
 70
     0
  3

 72
    65
 73
     0
 40
0.0
  0
LTYPE
  5
18CEA
330
18CFA
100
AcDbSymbolTableRecord
100
AcDbLinetypeTableRecord
  2
Continuous
 70
     0
  3
Solid line
 72
    65
 73
     0
 40
0.0
  0
LTYPE
  5
18D12
330
18CFA
100
AcDbSymbolTableRecord
100
AcDbLinetypeTableRecord
  2
DGN Style 1
 70
     0
  3
Dgn Style 1
 72
    65
 73
     2
 40
2.149177
 49
0.0
 74
     0
 49
-2.149177
 74
     0
  0
ENDTAB
  0
TABLE
  2
LAYER
  5
18CF8
102
{ACAD_XDICTIONARY
360
18D09
102
}
330
0
100
AcDbSymbolTable
 70
    16
  0
LAYER
  5
18CE8
330
18CF8
100
AcDbSymbolTableRecord
100
AcDbLayerTableRecord
  2
0
 70
     0
 62
     7
  6
Continuous
370
    13
390
18CE9
  0
LAYER
  5
5CCB
330
18CF8
100
AcDbSymbolTableRecord
100
AcDbLayerTableRecord
  2
14
 70
     0
 62
     7
  6
Continuous
370
     0
390
18CE9
  0
LAYER
  5
5CCC
330
18CF8
100
AcDbSymbolTableRecord
100
AcDbLayerTableRecord
  2
63
 70
     0
 62
     7
  6
Continuous
370
     0
390
18CE9
  0
LAYER
  5
129EE
330
18CF8
100
AcDbSymbolTableRecord
100
AcDbLayerTableRecord
  2
Level 20
 70
     0
 62
     7
  6
Continuous
370
     0
390
18CE9
  0
LAYER
  5
129EF
330
18CF8
100
AcDbSymbolTableRecord
100
AcDbLayerTableRecord
  2
Level 7
 70
     0
 62
     7
  6
Continuous
370
     0
390
18CE9
  0
LAYER
  5
129F0
330
18CF8
100
AcDbSymbolTableRecord
100
AcDbLayerTableRecord
  2
Level 61
 70
     0
 62
     7
  6
Continuous
370
     0
390
18CE9
  0
LAYER
  5
129F1
330
18CF8
100
AcDbSymbolTableRecord
100
AcDbLayerTableRecord
  2
Level 1
 70
     0
 62
     7
  6
Continuous
370
     0
390
18CE9
  0
LAYER
  5
129F2
330
18CF8
100
AcDbSymbolTableRecord
100
AcDbLayerTableRecord
  2
Level 2
 70
     0
 62
     7
  6
Continuous
370
     0
390
18CE9
  0
LAYER
  5
129F3
330
18CF8
100
AcDbSymbolTableRecord
100
AcDbLayerTableRecord
  2
Level 14
 70
     0
 62
     7
  6
Continuous
370
     0
390
18CE9
  0
LAYER
  5
129F4
330
18CF8
100
AcDbSymbolTableRecord
100
AcDbLayerTableRecord
  2
Level 17
 70
     0
 62
     7
  6
Continuous
370
     0
390
18CE9
  0
LAYER
  5
129F5
330
18CF8
100
AcDbSymbolTableRecord
100
AcDbLayerTableRecord
  2
Level 21
 70
     0
 62
     7
  6
Continuous
370
     0
390
18CE9
  0
LAYER
  5
129F6
330
18CF8
100
AcDbSymbolTableRecord
100
AcDbLayerTableRecord
  2
Level 3
 70
     0
 62
     7
  6
Continuous
370
     0
390
18CE9
  0
LAYER
  5
12C30
330
18CF8
100
AcDbSymbolTableRecord
100
AcDbLayerTableRecord
  2
Level 4
 70
     0
 62
     7
  6
Continuous
370
     0
390
18CE9
  0
LAYER
  5
12C31
330
18CF8
100
AcDbSymbolTableRecord
100
AcDbLayerTableRecord
  2
Level 10
 70
     0
 62
     7
  6
Continuous
370
     0
390
18CE9
  0
LAYER
  5
12C32
330
18CF8
100
AcDbSymbolTableRecord
100
AcDbLayerTableRecord
  2
Level 23
 70
     0
 62
     7
  6
Continuous
370
     0
390
18CE9
  0
LAYER
  5
18B78
330
18CF8
100
AcDbSymbolTableRecord
100
AcDbLayerTableRecord
  2
SIDEWALK
 70
     0
 62
     5
  6
Continuous
370
    40
390
18CE9
  0
ENDTAB
  0
TABLE
  2
STYLE
  5
18CF9
330
0
100
AcDbSymbolTable
 70
    10
  0
STYLE
  5
18CEB
330
18CF9
100
AcDbSymbolTableRecord
100
AcDbTextStyleTableRecord
  2
Standard
 70
     0
 40
0.0
 41
1.0
 50
0.0
 71
     0
 42
0.2
  3
txt
  4

  0
STYLE
  5
165
330
18CF9
100
AcDbSymbolTableRecord
100
AcDbTextStyleTableRecord
  2
Style 1
 70
     0
 40
2.3
 41
1.0
 50
0.0
 71
     0
 42
0.2
  3
gen_eng.shx
  4

  0
STYLE
  5
53A
330
18CF9
100
AcDbSymbolTableRecord
100
AcDbTextStyleTableRecord
  2
Style 2 - FS Sheet
 70
     0
 40
0.1
 41
1.0
 50
0.0
 71
     0
 42
0.2
  3
gen_eng.shx
  4

  0
STYLE
  5
1214
330
18CF9
100
AcDbSymbolTableRecord
100
AcDbTextStyleTableRecord
  2
Style 1A
 70
     0
 40
2.35
 41
1.0
 50
0.0
 71
     0
 42
0.2
  3
gen_eng.shx
  4

  0
STYLE
  5
1215
330
18CF9
100
AcDbSymbolTableRecord
100
AcDbTextStyleTableRecord
  2
Style 2A
 70
     0
 40
0.09
 41
1.0
 50
0.0
 71
     0
 42
0.2
  3
gen_eng.shx
  4

  0
STYLE
  5
16350
330
18CF9
100
AcDbSymbolTableRecord
100
AcDbTextStyleTableRecord
  2
STD SHEET
 70
     0
 40
1.125
 41
1.0
 50
0.0
 71
     0
 42
1.125
  3
gen_eng.shx
  4

  0
STYLE
  5
16719
330
18CF9
100
AcDbSymbolTableRecord
100
AcDbTextStyleTableRecord
  2
LABELS
 70
     0
 40
1.9375
 41
1.0
 50
0.0
 71
     0
 42
0.2
  3
gen_eng.shx
  4

  0
STYLE
  5
18D0B
330
18CF9
100
AcDbSymbolTableRecord
100
AcDbTextStyleTableRecord
  2
Style-Arial
 70
     0
 40
0.0
 41
1.0
 50
0.0
 71
     0
 42
0.2
  3

  4

1001
ACAD
1000
Arial
1071
       39
  0
STYLE
  5
18D13
330
18CF9
100
AcDbSymbolTableRecord
100
AcDbTextStyleTableRecord
  2
Style-gen_eng
 70
     0
 40
0.0
 41
1.0
 50
0.0
 71
     0
 42
0.2
  3
gen_eng.shx
  4

  0
STYLE
  5
18D14
330
18CF9
100
AcDbSymbolTableRecord
100
AcDbTextStyleTableRecord
  2
Style-straight_squash
 70
     0
 40
0.0
 41
1.0
 50
0.0
 71
     0
 42
0.2
  3
straight_squash.shx
  4

  0
ENDTAB
  0
TABLE
  2
VIEW
  5
18CFC
330
0
100
AcDbSymbolTable
 70
     2
  0
VIEW
  5
5AD
330
18CFC
100
AcDbSymbolTableRecord
100
AcDbViewTableRecord
  2
LASTVU
 70
     0
 40
18.99211
 10
14.128263
 20
98.681151
 41
32.11
 11
0.0
 21
0.0
 31
1.0
 12
0.0
 22
0.0
 32
0.0
 42
50.0
 43
0.0
 44
0.0
 50
0.0
 71
     0
281
     0
 72
     0
  0
VIEW
  5
5AF
330
18CFC
100
AcDbSymbolTableRecord
100
AcDbViewTableRecord
  2
LASTVUÒÒ\U+d2d2p\U+c300\U+c3c3 U+c3c3
 70
     0
 40
435.826153
 10
1060.057893
 20
-413.602132
 41
743.287283
 11
0.0
 21
0.0
 31
1.0
 12
0.0
 22
0.0
 32
0.0
 42
50.0
 43
0.0
 44
0.0
 50
0.0
 71
     0
281
     0
 72
     0
  0
ENDTAB
  0
TABLE
  2
UCS
  5
18CFD
330
0
100
AcDbSymbolTable
 70
     0
  0
ENDTAB
  0
TABLE
  2
APPID
  5
18CFF
330
0
100
AcDbSymbolTable
 70
     1
  0
APPID
  5
18D07
330
18CFF
100
AcDbSymbolTableRecord
100
AcDbRegAppTableRecord
  2
ACAD
 70
     0
  0
ENDTAB
  0
TABLE
  2
DIMSTYLE
  5
18D00
330
0
100
AcDbSymbolTable
 70
     5
100
AcDbDimStyleTable
  0
DIMSTYLE
105
18CED
330
18D00
100
AcDbSymbolTableRecord
100
AcDbDimStyleTableRecord
  2
Standard
 70
     0
340
18CEB
  0
DIMSTYLE
105
132
330
18D00
100
AcDbSymbolTableRecord
100
AcDbDimStyleTableRecord
  2
Style 1
 70
     0
 41
1.125
 42
0.5625
 43
0.0
 44
0.84375
 73
     0
 74
     0
 77
     1
 78
    11
 79
     3
140
1.125
143
0.0254
147
0.5625
171
     4
176
     1
177
     1
178
     1
179
     4
274
     4
277
     4
283
     0
284
    11
285
    15
286
    15
288
     1
340
16350
371
    13
372
    13
  0
DIMSTYLE
105
4722
330
18D00
100
AcDbSymbolTableRecord
100
AcDbDimStyleTableRecord
  2
Style 1a
 70
     0
 41
0.9
 42
0.3
 43
0.0
 44
0.3
 73
     0
 74
     0
 77
     1
 78
    11
 79
     3
140
0.6
143
0.0254
147
0.3
171
     4
176
     1
177
     1
178
     1
179
     4
274
     4
276
     2
279
     1
283
     0
284
    11
285
    15
286
    15
340
18D0B
342
18D0C
371
    13
372
    13
  0
DIMSTYLE
105
4B38
330
18D00
100
AcDbSymbolTableRecord
100
AcDbDimStyleTableRecord
  2
Style 1b
 70
     0
 41
0.6
 42
0.3
 43
0.0
 44
0.45
 73
     0
 74
     0
 77
     1
 78
    11
 79
     3
140
0.6
143
0.0254
147
0.3
171
     4
176
     1
177
     1
178
     1
179
     4
274
     4
276
     2
283
     0
284
    11
285
    15
286
    15
340
18D0B
371
    13
372
    13
  0
DIMSTYLE
105
501C
330
18D00
100
AcDbSymbolTableRecord
100
AcDbDimStyleTableRecord
  2
Style 2
 70
     0
 41
0.06
 42
0.03
 43
0.0
 44
0.045
 73
     0
 74
     0
 77
     1
 78
    11
 79
     3
140
0.06
143
0.0254
147
0.03
171
     4
176
     1
177
     1
178
     5
179
     4
274
     4
276
     2
283
     0
284
    11
285
    15
286
    15
288
     1
340
18D0B
371
    13
372
    13
  0
ENDTAB
  0
TABLE
  2
BLOCK_RECORD
  5
18CEF
330
0
100
AcDbSymbolTable
 70
     2
  0
BLOCK_RECORD
  5
18CF0
330
18CEF
100
AcDbSymbolTableRecord
100
AcDbBlockTableRecord
  2
*Model_Space
340
18CF3
  0
BLOCK_RECORD
  5
18CF4
330
18CEF
100
AcDbSymbolTableRecord
100
AcDbBlockTableRecord
  2
*Paper_Space
340
18CF7
  0
BLOCK_RECORD
  5
18D0C
330
18CEF
100
AcDbSymbolTableRecord
100
AcDbBlockTableRecord
  2
TerminatorDot
340
0
  0
BLOCK_RECORD
  5
18D15
330
18CEF
100
AcDbSymbolTableRecord
100
AcDbBlockTableRecord
  2
Greg's Signature
340
0
102
{BLKREFS
331
18CDF
102
}
  0
ENDTAB
  0
ENDSEC
  0
SECTION
  2
BLOCKS
  0
BLOCK
  5
18CF1
330
18CF0
100
AcDbEntity
  8
0
100
AcDbBlockBegin
  2
*Model_Space
 70
     0
 71
     0
 10
0.0
 20
0.0
 30
0.0
  3
*Model_Space
  1

  0
ENDBLK
  5
18CF2
330
18CF0
100
AcDbEntity
  8
0
100
AcDbBlockEnd
  0
BLOCK
  5
18CF5
330
18CF4
100
AcDbEntity
 67
     1
  8
0
100
AcDbBlockBegin
  2
*Paper_Space
 70
     0
 71
     0
 10
0.0
 20
0.0
 30
0.0
  3
*Paper_Space
  1

  0
ENDBLK
  5
18CF6
330
18CF4
100
AcDbEntity
 67
     1
  8
0
100
AcDbBlockEnd
  0
BLOCK
  5
18D0F
330
18D0C
100
AcDbEntity
  8
0
100
AcDbBlockBegin
  2
TerminatorDot
 70
     0
 71
     0
 10
0.0
 20
0.0
 30
0.0
  3
TerminatorDot
  1

  0
LWPOLYLINE
  5
18D0D
330
18D0C
100
AcDbEntity
  8
0
  6
ByBlock
 62
     0
370
    -2
100
AcDbPolyline
 90
        2
 70
     1
 43
0.5
 10
-0.0625
 20
0.0
 42
1.0
 10
0.0625
 20
0.0
 42
1.0
  0
LINE
  5
18D0E
330
18D0C
100
AcDbEntity
  8
0
  6
ByBlock
 62
     0
370
    -2
100
AcDbLine
 10
0.0
 20
0.0
 30
0.0
 11
-1.0
 21
0.0
 31
0.0
  0
ENDBLK
  5
18D10
330
18D0C
100
AcDbEntity
  8
0
100
AcDbBlockEnd
  0
BLOCK
  5
18D16
330
18D15
100
AcDbEntity
  8
0
100
AcDbBlockBegin
  2
Greg's Signature
 70
     0
 71
     0
 10
0.0
 20
0.0
 30
0.0
  3
Greg's Signature
  1

  0
LWPOLYLINE
  5
18CE0
330
18D15
100
AcDbEntity
  8
Level 1
370
    30
100
AcDbPolyline
 90
       49
 70
   128
 43
0.0
 10
-742.284353
 20
-59.508477
 10
-724.481442
 20
-62.475629
 10
-713.028978
 20
-56.885515
 10
-697.777076
 20
-47.63987
 10
-685.908469
 20
-35.771263
 10
-671.07271
 20
-26.869807
 10
-657.720526
 20
-13.517624
 10
-650.302647
 20
4.285287
 10
-639.917615
 20
17.63747
 10
-626.565432
 20
29.506077
 10
-616.180401
 20
44.341836
 10
-608.762521
 20
60.661171
 10
-605.79537
 20
79.947658
 10
-602.828218
 20
97.750569
 10
-601.344642
 20
115.55348
 10
-611.729673
 20
133.356391
 10
-628.049008
 20
133.356391
 10
-636.950464
 20
120.004208
 10
-639.917615
 20
103.684873
 10
-639.917615
 20
85.881962
 10
-628.049008
 20
74.013355
 10
-617.663977
 20
59.177596
 10
-602.828218
 20
50.27614
 10
-583.541731
 20
48.792564
 10
-567.222396
 20
51.759716
 10
-556.837365
 20
65.111899
 10
-546.452333
 20
81.431234
 10
-537.550878
 20
75.496931
 10
-540.51803
 20
59.177596
 10
-536.067302
 20
42.858261
 10
-530.132998
 20
28.022501
 10
-524.198695
 20
13.186742
 10
-521.231543
 20
-4.616169
 10
-518.264391
 20
-22.419079
 10
-518.264391
 20
-40.22199
 10
-528.649422
 20
-59.508477
 10
-540.51803
 20
-71.377084
 10
-559.804516
 20
-71.377084
 10
-574.640276
 20
-67.297251
 10
-592.443186
 20
-62.475629
 10
-607.278945
 20
-53.574174
 10
-622.114705
 20
-49.786604
 10
-638.43404
 20
-41.705566
 10
-654.753375
 20
-35.771263
 10
-668.105558
 20
-26.869807
 10
-682.941317
 20
-20.935504
 10
-697.777076
 20
-15.0012
 10
-711.129259
 20
-6.099744
 10
-725.965018
 20
-3.132593
  0
LWPOLYLINE
  5
18CE1
330
18D15
100
AcDbEntity
  8
Level 1
370
    30
100
AcDbPolyline
 90
       96
 70
   128
 43
0.0
 10
-494.156282
 20
-99.565027
 10
-489.705555
 20
-82.503904
 10
-487.480191
 20
-66.184569
 10
-485.254827
 20
-49.865234
 10
-482.287675
 20
-33.545899
 10
-476.353372
 20
-17.226564
 10
-466.710128
 20
-3.874381
 10
-454.099733
 20
-13.517624
 10
-446.681853
 20
-35.771263
 10
-443.714702
 20
-52.090598
 10
-433.32967
 20
-63.959205
 10
-411.81782
 20
-72.118872
 10
-399.949212
 20
-60.992053
 10
-389.564181
 20
-47.63987
 10
-379.920938
 20
-35.029475
 10
-374.728422
 20
-19.451928
 10
-368.794118
 20
-3.874381
 10
-371.019482
 20
12.444954
 10
-392.531333
 20
15.412106
 10
-392.531333
 20
-0.907229
 10
-392.531333
 20
-17.226564
 10
-390.305969
 20
-33.545899
 10
-384.371665
 20
-49.123446
 10
-365.826966
 20
-50.607022
 10
-355.441935
 20
-38.738414
 10
-350.249419
 20
-22.419079
 10
-335.41366
 20
-15.742988
 10
-319.094325
 20
-15.742988
 10
-300.549626
 20
-29.836959
 10
-305.742142
 20
-50.607022
 10
-322.061477
 20
-52.090598
 10
-330.962933
 20
-38.738414
 10
-330.221145
 20
-21.677291
 10
-325.028629
 20
-5.357956
 10
-310.934658
 20
2.059923
 10
-294.615323
 20
5.027075
 10
-281.26314
 20
-14.259412
 10
-276.812412
 20
-30.578747
 10
-272.361684
 20
-46.156294
 10
-267.169169
 20
-61.733841
 10
-264.943805
 20
-78.053176
 10
-264.943805
 20
-95.114299
 10
-276.812412
 20
-115.142574
 10
-289.422807
 20
-125.527605
 10
-303.516778
 20
-134.429061
 10
-319.836113
 20
-135.170848
 10
-326.512205
 20
-112.91721
 10
-322.061477
 20
-97.339663
 10
-311.676446
 20
-85.471056
 10
-300.22732
 20
-76.999095
 10
-287.939231
 20
-66.926357
 10
-267.910956
 20
-55.057749
 10
-251.591621
 20
-37.996626
 10
-245.920653
 20
-24.644443
 10
-234.530499
 20
-9.808684
 10
-224.887255
 20
2.801711
 10
-203.375404
 20
-1.649017
 10
-199.666465
 20
-17.968352
 10
-199.666465
 20
-34.287687
 10
-205.600768
 20
-49.865234
 10
-218.211164
 20
-59.508477
 10
-233.788711
 20
-64.700993
 10
-247.882682
 20
-57.283113
 10
-250.849834
 20
-41.705566
 10
-247.140894
 20
-26.128019
 10
-237.49765
 20
-12.775836
 10
-222.661891
 20
-6.841532
 10
-201.150041
 20
-16.484776
 10
-179.63819
 20
-23.902655
 10
-161.093491
 20
-12.034048
 10
-151.450248
 20
0.576347
 10
-143.29058
 20
15.412106
 10
-137.356277
 20
31.731441
 10
-137.356277
 20
23.571774
 10
-138.839852
 20
7.252439
 10
-132.163761
 20
-7.58332
 10
-112.877274
 20
-2.390805
 10
-102.492243
 20
10.219591
 10
-101.008667
 20
9.477803
 10
-103.234031
 20
-6.841532
 10
-94.332575
 20
-21.677291
 10
-82.463968
 20
-32.804111
 10
-81.72218
 20
-49.123446
 10
-81.72218
 20
-65.442781
 10
-90.623635
 20
-78.794964
 10
-102.492243
 20
-89.921783
 10
-118.06979
 20
-96.597875
 10
-133.647337
 20
-100.306815
 10
-143.29058
 20
-87.696419
 10
-132.905549
 20
-73.602448
 10
-118.811578
 20
-63.959205
 10
-102.492243
 20
-60.992053
 10
-89.14006
 20
-52.090598
 10
-66.144633
 20
-47.63987
 10
-54.276026
 20
-66.184569
 10
-52.79245
 20
-65.442781
  0
LWPOLYLINE
  5
18CE2
330
18D15
100
AcDbEntity
  8
Level 1
370
    30
100
AcDbPolyline
 90
      123
 70
   128
 43
0.0
 10
30.287801
 20
74.013355
 10
31.029589
 20
65.853687
 10
31.029589
 20
57.69402
 10
31.029589
 20
49.534352
 10
31.029589
 20
40.632897
 10
29.546013
 20
32.473229
 10
28.062437
 20
24.313562
 10
28.062437
 20
16.153894
 10
28.062437
 20
7.994227
 10
28.062437
 20
-0.165441
 10
28.804225
 20
-8.325108
 10
29.546013
 20
-16.484776
 10
29.546013
 20
-24.644443
 10
30.287801
 20
-32.804111
 10
31.771377
 20
-40.963778
 10
32.513165
 20
-49.865234
 10
33.254953
 20
-58.024901
 10
35.480317
 20
-66.184569
 10
40.672832
 20
-72.118872
 10
45.12356
 20
-78.794964
 10
47.348924
 20
-70.635296
 10
50.316076
 20
-63.217417
 10
52.54144
 20
-55.057749
 10
53.283228
 20
-46.898082
 10
53.283228
 20
-38.738414
 10
53.283228
 20
-30.578747
 10
54.025016
 20
-22.419079
 10
54.025016
 20
-14.259412
 10
54.766804
 20
-6.099744
 10
55.508592
 20
2.059923
 10
56.250379
 20
10.219591
 10
56.250379
 20
18.379258
 10
56.250379
 20
26.538926
 10
56.250379
 20
34.698593
 10
56.250379
 20
42.858261
 10
56.250379
 20
51.017928
 10
56.250379
 20
59.177596
 10
56.992167
 20
67.337263
 10
58.475743
 20
75.496931
 10
59.959319
 20
84.398386
 10
62.184683
 20
92.558053
 10
64.410047
 20
100.717721
 10
65.151835
 20
108.877388
 10
68.118987
 20
116.295268
 10
71.086139
 20
123.713148
 10
74.05329
 20
131.131027
 10
78.504018
 20
138.548907
 10
85.921898
 20
141.516058
 10
94.081565
 20
140.77427
 10
102.241233
 20
138.548907
 10
107.433748
 20
132.614603
 10
111.142688
 20
125.196723
 10
115.593416
 20
118.520632
 10
119.302356
 20
111.102752
 10
120.785931
 20
102.943085
 10
121.527719
 20
94.783417
 10
121.527719
 20
86.62375
 10
121.527719
 20
78.464082
 10
121.527719
 20
70.304415
 10
121.527719
 20
62.144747
 10
120.044144
 20
53.98508
 10
115.593416
 20
47.308988
 10
109.659112
 20
42.116473
 10
104.466596
 20
36.182169
 10
101.499445
 20
28.764289
 10
97.048717
 20
22.088198
 10
92.597989
 20
15.412106
 10
89.630837
 20
7.994227
 10
82.954746
 20
3.543499
 10
75.536866
 20
-0.165441
 10
68.860775
 20
-5.357956
 10
61.442895
 20
-9.808684
 10
55.508592
 20
-15.0012
 10
49.574288
 20
-20.935504
 10
45.12356
 20
-27.611595
 10
39.189257
 20
-32.804111
 10
34.738529
 20
-39.480202
 10
30.287801
 20
-46.156294
 10
24.353497
 20
-52.832386
 10
19.90277
 20
-59.508477
 10
16.935618
 20
-66.926357
 10
12.48489
 20
-73.602448
 10
9.517738
 20
-81.020328
 10
8.034162
 20
-89.179995
 10
11.001314
 20
-96.597875
 10
18.419194
 20
-99.565027
 10
26.578861
 20
-100.306815
 10
34.738529
 20
-102.532178
 10
42.898196
 20
-104.015754
 10
51.057864
 20
-104.757542
 10
59.217531
 20
-104.757542
 10
68.118987
 20
-104.757542
 10
76.278654
 20
-104.757542
 10
84.438322
 20
-104.757542
 10
92.597989
 20
-104.757542
 10
100.757657
 20
-104.757542
 10
108.917324
 20
-104.757542
 10
117.076992
 20
-104.757542
 10
123.011295
 20
-98.823239
 10
130.429175
 20
-95.856087
 10
137.105266
 20
-91.405359
 10
143.781358
 20
-85.471056
 10
146.74851
 20
-78.053176
 10
149.715662
 20
-70.635296
 10
154.166389
 20
-63.959205
 10
157.133541
 20
-56.541325
 10
159.358905
 20
-48.381658
 10
160.842481
 20
-40.22199
 10
160.842481
 20
-32.062323
 10
155.649965
 20
-26.128019
 10
149.715662
 20
-20.935504
 10
143.781358
 20
-15.0012
 10
138.588842
 20
-8.325108
 10
131.170963
 20
-3.874381
 10
123.753083
 20
0.576347
 10
115.593416
 20
2.059923
 10
107.433748
 20
3.543499
 10
99.274081
 20
5.027075
 10
90.372625
 20
5.027075
 10
81.47117
 20
5.027075
 10
73.311502
 20
5.027075
 10
65.151835
 20
6.510651
 10
65.151835
 20
6.510651
  0
LWPOLYLINE
  5
18CE3
330
18D15
100
AcDbEntity
  8
Level 1
370
    30
100
AcDbPolyline
 90
       61
 70
   128
 43
0.0
 10
261.725643
 20
-58.766689
 10
263.209219
 20
-50.607022
 10
263.209219
 20
-42.447354
 10
263.209219
 20
-34.287687
 10
256.533127
 20
-28.353383
 10
250.598823
 20
-22.419079
 10
246.148096
 20
-15.742988
 10
239.472004
 20
-11.29226
 10
232.795913
 20
-6.841532
 10
225.378033
 20
-3.874381
 10
217.218366
 20
-3.874381
 10
209.058698
 20
-6.841532
 10
203.124394
 20
-12.034048
 10
196.448303
 20
-17.226564
 10
190.513999
 20
-22.419079
 10
186.063271
 20
-29.095171
 10
183.09612
 20
-36.513051
 10
178.645392
 20
-43.189142
 10
175.67824
 20
-50.607022
 10
180.870756
 20
-56.541325
 10
186.063271
 20
-62.475629
 10
194.964727
 20
-64.700993
 10
203.124394
 20
-64.700993
 10
211.284062
 20
-64.700993
 10
218.701941
 20
-61.733841
 10
223.894457
 20
-55.057749
 10
229.086973
 20
-49.123446
 10
234.279488
 20
-42.447354
 10
241.697368
 20
-37.996626
 10
250.598823
 20
-37.996626
 10
259.500279
 20
-38.738414
 10
266.918158
 20
-41.705566
 10
274.336038
 20
-44.672718
 10
281.01213
 20
-49.123446
 10
289.171797
 20
-49.123446
 10
291.397161
 20
-40.963778
 10
293.622525
 20
-32.804111
 10
294.364313
 20
-23.902655
 10
294.364313
 20
-15.742988
 10
291.397161
 20
-23.160867
 10
289.913585
 20
-31.320535
 10
289.913585
 20
-39.480202
 10
289.913585
 20
-47.63987
 10
290.655373
 20
-55.799537
 10
298.073253
 20
-59.508477
 10
305.491132
 20
-63.959205
 10
313.6508
 20
-66.184569
 10
321.810467
 20
-66.926357
 10
329.970135
 20
-66.926357
 10
338.129802
 20
-65.442781
 10
344.805894
 20
-60.992053
 10
349.256621
 20
-53.574174
 10
355.190925
 20
-48.381658
 10
359.641653
 20
-40.963778
 10
365.575956
 20
-35.771263
 10
372.252048
 20
-31.320535
 10
378.186352
 20
-25.386231
 10
384.120655
 20
-19.451928
 10
390.796747
 20
-15.0012
 10
397.472838
 20
-10.550472
 10
401.923566
 20
-4.616169
  0
LWPOLYLINE
  5
18CE4
330
18D15
100
AcDbEntity
  8
Level 1
370
    30
100
AcDbPolyline
 90
       11
 70
   128
 43
0.0
 10
284.721069
 20
117.037056
 10
284.721069
 20
108.877388
 10
290.655373
 20
103.684873
 10
298.81504
 20
101.459509
 10
306.974708
 20
102.201297
 10
308.458284
 20
110.360964
 10
302.52398
 20
115.55348
 10
296.589677
 20
121.487784
 10
288.430009
 20
121.487784
 10
281.01213
 20
118.520632
 10
281.01213
 20
113.328116
  0
LWPOLYLINE
  5
18CE5
330
18D15
100
AcDbEntity
  8
Level 1
370
    30
100
AcDbPolyline
 90
      123
 70
   128
 43
0.0
 10
403.407142
 20
-4.616169
 10
407.85787
 20
2.059923
 10
412.308597
 20
8.736015
 10
416.759325
 20
15.412106
 10
421.951841
 20
21.34641
 10
428.627932
 20
25.797138
 10
433.820448
 20
31.731441
 10
438.271176
 20
39.149321
 10
441.980116
 20
46.5672
 10
447.172631
 20
53.98508
 10
451.623359
 20
61.402959
 10
454.590511
 20
68.820839
 10
459.041239
 20
76.980506
 10
462.750178
 20
85.140174
 10
466.459118
 20
93.299841
 10
469.42627
 20
100.717721
 10
472.393422
 20
108.1356
 10
475.360574
 20
115.55348
 10
477.585937
 20
123.713148
 10
480.553089
 20
131.131027
 10
482.036665
 20
139.290695
 10
483.520241
 20
147.450362
 10
482.036665
 20
155.61003
 10
476.844149
 20
161.544333
 10
469.42627
 20
164.511485
 10
461.266602
 20
165.995061
 10
453.848723
 20
161.544333
 10
447.172631
 20
157.093605
 10
439.754752
 20
154.126454
 10
433.820448
 20
148.933938
 10
429.36972
 20
142.257846
 10
424.918993
 20
135.581755
 10
418.984689
 20
129.647451
 10
417.501113
 20
121.487784
 10
414.533961
 20
114.069904
 10
411.566809
 20
106.652025
 10
407.116082
 20
99.975933
 10
404.14893
 20
92.558053
 10
399.698202
 20
85.881962
 10
398.214626
 20
77.722294
 10
393.763899
 20
71.046203
 10
392.280323
 20
62.886535
 10
389.313171
 20
54.726868
 10
386.346019
 20
46.5672
 10
383.378867
 20
39.149321
 10
383.378867
 20
30.989653
 10
383.378867
 20
22.829986
 10
384.862443
 20
14.670318
 10
388.571383
 20
7.252439
 10
391.538535
 20
-0.907229
 10
395.247475
 20
-8.325108
 10
401.181778
 20
-13.517624
 10
408.599658
 20
-16.484776
 10
415.275749
 20
-21.677291
 10
423.435417
 20
-23.160867
 10
430.853296
 20
-27.611595
 10
438.271176
 20
-30.578747
 10
447.172631
 20
-31.320535
 10
455.332299
 20
-31.320535
 10
459.783027
 20
-24.644443
 10
464.233754
 20
-17.968352
 10
467.942694
 20
-9.808684
 10
470.909846
 20
-1.649017
 10
471.651634
 20
6.510651
 10
473.876998
 20
15.412106
 10
467.942694
 20
20.604622
 10
464.975542
 20
12.444954
 10
462.00839
 20
5.027075
 10
462.00839
 20
-3.132593
 10
462.00839
 20
-11.29226
 10
462.00839
 20
-19.451928
 10
464.975542
 20
-27.611595
 10
472.393422
 20
-32.062323
 10
479.811301
 20
-35.029475
 10
487.970969
 20
-35.771263
 10
496.130636
 20
-35.771263
 10
503.548516
 20
-32.804111
 10
507.999244
 20
-25.386231
 10
513.191759
 20
-19.451928
 10
516.900699
 20
-11.29226
 10
519.126063
 20
-3.132593
 10
515.417123
 20
-11.29226
 10
512.449971
 20
-18.71014
 10
509.482819
 20
-26.128019
 10
512.449971
 20
-33.545899
 10
519.867851
 20
-37.254839
 10
527.28573
 20
-40.963778
 10
532.478246
 20
-46.898082
 10
540.637914
 20
-49.123446
 10
548.797581
 20
-52.090598
 10
553.990097
 20
-58.024901
 10
556.957249
 20
-65.442781
 10
559.9244
 20
-72.86066
 10
559.9244
 20
-81.020328
 10
558.440824
 20
-89.179995
 10
552.506521
 20
-94.372511
 10
548.055793
 20
-101.048603
 10
542.121489
 20
-107.724694
 10
537.670762
 20
-114.400786
 10
530.252882
 20
-119.593301
 10
524.318579
 20
-124.785817
 10
516.900699
 20
-129.236545
 10
509.482819
 20
-133.687273
 10
502.806728
 20
-138.138
 10
493.905272
 20
-138.879788
 10
485.745605
 20
-139.621576
 10
477.585937
 20
-139.621576
 10
470.168058
 20
-135.170848
 10
465.71733
 20
-128.494757
 10
464.233754
 20
-120.335089
 10
464.975542
 20
-112.175422
 10
467.200906
 20
-104.015754
 10
471.651634
 20
-96.597875
 10
476.844149
 20
-90.663571
 10
484.262029
 20
-87.696419
 10
491.679909
 20
-84.729268
 10
499.839576
 20
-83.245692
 10
507.999244
 20
-83.245692
 10
516.158911
 20
-81.762116
 10
524.318579
 20
-81.762116
 10
532.478246
 20
-80.27854
 10
540.637914
 20
-78.794964
 10
545.088641
 20
-77.311388
  0
ENDBLK
  5
18D17
330
18D15
100
AcDbEntity
  8
0
100
AcDbBlockEnd
  0
ENDSEC
  0
SECTION
  2
ENTITIES
  0
POINT
  5
17E1C
330
18CF0
100
AcDbEntity
  8
0
  6
Continuous
 62
   250
370
   211
100
AcDbPoint
 10
9147.800901
 20
-14306.364817
 30
0.0
  0
POINT
  5
17E1E
330
18CF0
100
AcDbEntity
  8
0
  6
Continuous
 62
   250
370
   211
100
AcDbPoint
 10
9484.400901
 20
-14524.164817
 30
0.0
  0
LINE
  5
17E20
330
18CF0
100
AcDbEntity
  8
0
  6
Continuous
 62
    30
370
   106
100
AcDbLine
 10
9162.650901
 20
-14519.214817
 30
0.0
 11
9162.650901
 21
-14311.314817
 31
0.0
  0
LINE
  5
17E21
330
18CF0
100
AcDbEntity
  8
0
  6
Continuous
 62
    30
370
   106
100
AcDbLine
 10
9479.450901
 20
-14519.214817
 30
0.0
 11
9162.650901
 21
-14519.214817
 31
0.0
  0
LINE
  5
17E22
330
18CF0
100
AcDbEntity
  8
0
  6
Continuous
 62
    30
370
   106
100
AcDbLine
 10
9162.650901
 20
-14311.314817
 30
0.0
 11
9479.450901
 21
-14311.314817
 31
0.0
  0
LINE
  5
17E23
330
18CF0
100
AcDbEntity
  8
0
  6
Continuous
 62
    30
370
   106
100
AcDbLine
 10
9479.450901
 20
-14311.314817
 30
0.0
 11
9479.450901
 21
-14519.214817
 31
0.0
  0
POINT
  5
17E24
330
18CF0
100
AcDbEntity
  8
0
  6
Continuous
 62
     1
370
    40
100
AcDbPoint
 10
9479.450901
 20
-14519.214817
 30
0.0
  0
POINT
  5
17E25
330
18CF0
100
AcDbEntity
  8
0
  6
Continuous
 62
     1
370
    40
100
AcDbPoint
 10
9479.450901
 20
-14518.937687
 30
0.0
  0
POINT
  5
17E26
330
18CF0
100
AcDbEntity
  8
0
  6
Continuous
 62
     1
370
    40
100
AcDbPoint
 10
9479.450901
 20
-14483.297687
 30
0.0
  0
POINT
  5
17E27
330
18CF0
100
AcDbEntity
  8
0
  6
Continuous
 62
     1
370
    40
100
AcDbPoint
 10
9415.100901
 20
-14483.297687
 30
0.0
  0
LINE
  5
17E28
330
18CF0
100
AcDbEntity
  8
0
  6
Continuous
 62
    30
370
    70
100
AcDbLine
 10
9479.450901
 20
-14482.505687
 30
0.0
 11
9415.100901
 21
-14482.505687
 31
0.0
  0
LINE
  5
17E29
330
18CF0
100
AcDbEntity
  8
0
  6
Continuous
 62
    30
370
   106
100
AcDbLine
 10
9415.100901
 20
-14482.505687
 30
0.0
 11
9415.100901
 21
-14519.214817
 31
0.0
  0
LINE
  5
17E2A
330
18CF0
100
AcDbEntity
  8
0
  6
Continuous
 62
    30
370
    70
100
AcDbLine
 10
9462.818901
 20
-14490.227687
 30
0.0
 11
9462.818901
 21
-14519.214817
 31
0.0
  0
LINE
  5
17E2B
330
18CF0
100
AcDbEntity
  8
0
  6
Continuous
 62
    30
370
    70
100
AcDbLine
 10
9462.818901
 20
-14510.027687
 30
0.0
 11
9415.100901
 21
-14510.027687
 31
0.0
  0
LINE
  5
17E2C
330
18CF0
100
AcDbEntity
  8
0
  6
Continuous
 62
    30
370
    70
100
AcDbLine
 10
9479.450901
 20
-14490.227687
 30
0.0
 11
9462.818901
 21
-14490.227687
 31
0.0
  0
LINE
  5
17E2D
330
18CF0
100
AcDbEntity
  8
0
  6
Continuous
 62
    30
370
    70
100
AcDbLine
 10
9462.818901
 20
-14490.227687
 30
0.0
 11
9415.100901
 21
-14490.227687
 31
0.0
  0
LINE
  5
17E2E
330
18CF0
100
AcDbEntity
  8
0
  6
Continuous
 62
    30
370
    53
100
AcDbLine
 10
9479.450901
 20
-14493.197687
 30
0.0
 11
9462.818901
 21
-14493.197687
 31
0.0
  0
LINE
  5
17E2F
330
18CF0
100
AcDbEntity
  8
0
  6
Continuous
 62
    30
370
    53
100
AcDbLine
 10
9479.450901
 20
-14496.167687
 30
0.0
 11
9462.818901
 21
-14496.167687
 31
0.0
  0
LINE
  5
17E30
330
18CF0
100
AcDbEntity
  8
0
  6
Continuous
 62
    30
370
    53
100
AcDbLine
 10
9479.450901
 20
-14499.137687
 30
0.0
 11
9462.818901
 21
-14499.137687
 31
0.0
  0
LINE
  5
17E31
330
18CF0
100
AcDbEntity
  8
0
  6
Continuous
 62
    30
370
    53
100
AcDbLine
 10
9479.450901
 20
-14502.107687
 30
0.0
 11
9462.818901
 21
-14502.107687
 31
0.0
  0
LINE
  5
17E32
330
18CF0
100
AcDbEntity
  8
0
  6
Continuous
 62
    30
370
    53
100
AcDbLine
 10
9479.450901
 20
-14505.077687
 30
0.0
 11
9462.818901
 21
-14505.077687
 31
0.0
  0
LINE
  5
17E33
330
18CF0
100
AcDbEntity
  8
0
  6
Continuous
 62
    30
370
    53
100
AcDbLine
 10
9479.450901
 20
-14508.047687
 30
0.0
 11
9462.818901
 21
-14508.047687
 31
0.0
  0
LINE
  5
17E34
330
18CF0
100
AcDbEntity
  8
0
  6
Continuous
 62
    30
370
    53
100
AcDbLine
 10
9479.450901
 20
-14511.017687
 30
0.0
 11
9462.818901
 21
-14511.017687
 31
0.0
  0
POINT
  5
17E35
330
18CF0
100
AcDbEntity
  8
0
  6
Continuous
 62
     1
370
    53
100
AcDbPoint
 10
9415.100901
 20
-14519.214817
 30
0.0
  0
POINT
  5
17E36
330
18CF0
100
AcDbEntity
  8
0
  6
Continuous
 62
     1
370
    53
100
AcDbPoint
 10
9415.100901
 20
-14519.214817
 30
0.0
  0
POINT
  5
17E37
330
18CF0
100
AcDbEntity
  8
0
  6
Continuous
 62
     1
370
    53
100
AcDbPoint
 10
9415.100901
 20
-14495.454817
 30
0.0
  0
LINE
  5
17E39
330
18CF0
100
AcDbEntity
  8
0
  6
Continuous
 62
    30
370
    70
100
AcDbLine
 10
9415.100901
 20
-14495.454817
 30
0.0
 11
9367.085901
 21
-14495.454817
 31
0.0
  0
LINE
  5
17E3A
330
18CF0
100
AcDbEntity
  8
0
  6
Continuous
 62
    30
370
    70
100
AcDbLine
 10
9367.085901
 20
-14495.454817
 30
0.0
 11
9367.085901
 21
-14519.214817
 31
0.0
  0
LINE
  5
17E3B
330
18CF0
100
AcDbEntity
  8
0
  6
Continuous
 62
    30
370
    70
100
AcDbLine
 10
9403.220901
 20
-14500.899817
 30
0.0
 11
9403.220901
 21
-14519.214817
 31
0.0
  0
LINE
  5
17E3C
330
18CF0
100
AcDbEntity
  8
0
  6
Continuous
 62
    30
370
    70
100
AcDbLine
 10
9415.100901
 20
-14500.899817
 30
0.0
 11
9403.220901
 21
-14500.899817
 31
0.0
  0
LINE
  5
17E3D
330
18CF0
100
AcDbEntity
  8
0
  6
Continuous
 62
    30
370
    70
100
AcDbLine
 10
9403.220901
 20
-14500.899817
 30
0.0
 11
9367.085901
 21
-14500.899817
 31
0.0
  0
LINE
  5
17E3E
330
18CF0
100
AcDbEntity
  8
0
  6
Continuous
 62
    30
370
    53
100
AcDbLine
 10
9415.100901
 20
-14516.937817
 30
0.0
 11
9403.220901
 21
-14516.937817
 31
0.0
  0
LINE
  5
17E3F
330
18CF0
100
AcDbEntity
  8
0
  6
Continuous
 62
    30
370
    53
100
AcDbLine
 10
9415.100901
 20
-14514.660817
 30
0.0
 11
9403.220901
 21
-14514.660817
 31
0.0
  0
LINE
  5
17E40
330
18CF0
100
AcDbEntity
  8
0
  6
Continuous
 62
    30
370
    53
100
AcDbLine
 10
9415.100901
 20
-14512.383817
 30
0.0
 11
9403.220901
 21
-14512.383817
 31
0.0
  0
LINE
  5
17E41
330
18CF0
100
AcDbEntity
  8
0
  6
Continuous
 62
    30
370
    53
100
AcDbLine
 10
9415.100901
 20
-14510.106817
 30
0.0
 11
9403.220901
 21
-14510.106817
 31
0.0
  0
LINE
  5
17E42
330
18CF0
100
AcDbEntity
  8
0
  6
Continuous
 62
    30
370
    53
100
AcDbLine
 10
9415.100901
 20
-14507.829817
 30
0.0
 11
9403.220901
 21
-14507.829817
 31
0.0
  0
LINE
  5
17E43
330
18CF0
100
AcDbEntity
  8
0
  6
Continuous
 62
    30
370
    53
100
AcDbLine
 10
9415.100901
 20
-14505.552817
 30
0.0
 11
9403.220901
 21
-14505.552817
 31
0.0
  0
LINE
  5
17E44
330
18CF0
100
AcDbEntity
  8
0
  6
Continuous
 62
    30
370
    53
100
AcDbLine
 10
9409.160901
 20
-14505.552817
 30
0.0
 11
9409.160901
 21
-14519.214817
 31
0.0
  0
MTEXT
  5
17E45
330
18CF0
100
AcDbEntity
  8
0
  6
Continuous
 62
     5
370
    40
100
AcDbMText
 10
9447.346447
 20
-14489.560071
 30
0.0
 40
1.485
 41
0.0
 71
     8
 72
     1
  1
WEST VIRGINIA DEPARTMENT OF TRANSPORTATION\PDIVISION OF HIGHWAYS\PENGINEERING DIVISION
  7
Style 1
 73
     2
 44
1.0
  0
TEXT
  5
17E4D
330
18CF0
100
AcDbEntity
  8
0
  6
Continuous
 62
     5
370
    30
100
AcDbText
 10
9463.935738
 20
-14503.881672
 30
0.0
 40
0.7425
  1
DATE:
  7
Style 2 - FS Sheet
 11
9463.935738
 21
-14503.510422
 31
0.0
100
AcDbText
 73
     2
  0
TEXT
  5
17E4E
330
18CF0
100
AcDbEntity
  8
0
  6
Continuous
 62
     5
370
    30
100
AcDbText
 10
9463.935738
 20
-14506.867745
 30
0.0
 40
0.7425
  1
SCALE:
  7
Style 2 - FS Sheet
 11
9463.935738
 21
-14506.496495
 31
0.0
100
AcDbText
 73
     2
  0
MTEXT
  5
17E4F
330
18CF0
100
AcDbEntity
  8
0
  6
Continuous
 62
     5
370
    30
100
AcDbMText
 10
9463.935738
 20
-14509.482567
 30
0.0
 40
0.7425
 41
0.0
 71
     4
 72
     1
  1
SHEET NO    OF
  7
Style 2 - FS Sheet
 73
     2
 44
1.4
  0
TEXT
  5
17E51
330
18CF0
100
AcDbEntity
  8
0
  6
Continuous
 62
     5
370
    30
100
AcDbText
 10
9466.977108
 20
-14512.342211
 30
0.0
 40
0.7425
  1
BRIDGE NUMBER
  7
Style 2 - FS Sheet
 11
9466.977108
 21
-14511.970961
 31
0.0
100
AcDbText
 73
     2
  0
TEXT
  5
17E52
330
18CF0
100
AcDbEntity
  8
0
  6
Continuous
 62
     5
370
    30
100
AcDbText
 10
9403.827205
 20
-14502.112148
 30
0.0
 40
0.7425
  1
PREPARED:
  7
Style 2 - FS Sheet
 11
9403.827205
 21
-14501.740898
 31
0.0
100
AcDbText
 73
     2
  0
TEXT
  5
17E53
330
18CF0
100
AcDbEntity
  8
0
  6
Continuous
 62
     5
370
    30
100
AcDbText
 10
9403.827205
 20
-14506.435351
 30
0.0
 40
0.495
  1
REVISED:
  7
Style 2 - FS Sheet
 11
9403.827205
 21
-14506.187851
 31
0.0
100
AcDbText
 73
     2
  0
TEXT
  5
17E54
330
18CF0
100
AcDbEntity
  8
0
  6
DGN Style 1
 62
     5
370
    30
100
AcDbText
 10
9380.781282
 20
-14499.568619
 30
0.0
 40
0.556875
  1
DIRECTOR, ENGINEERING DIVISION
  7
Style 1
100
AcDbText
  0
MTEXT
  5
17E55
330
18CF0
100
AcDbEntity
  8
0
  6
Continuous
 62
     5
370
    40
100
AcDbMText
 10
9385.18984
 20
-14506.309837
 30
0.0
 40
0.86625
 41
0.0
 71
     8
 72
     1
  1
WEST VIRGINIA DEPARTMENT OF TRANSPORTATION\PDIVISION OF HIGHWAYS\PENGINEERING DIVISION
  7
Style 1
 73
     2
 44
1.285714
  0
LINE
  5
17E5C
330
18CF0
100
AcDbEntity
  8
0
  6
Continuous
 62
    30
370
    70
100
AcDbLine
 10
9413.665401
 20
-14321.214817
 30
0.0
 11
9479.450901
 21
-14321.214817
 31
0.0
  0
LINE
  5
17E5D
330
18CF0
100
AcDbEntity
  8
0
  6
Continuous
 62
    30
370
    70
100
AcDbLine
 10
9413.665401
 20
-14316.264817
 30
0.0
 11
9479.450901
 21
-14316.264817
 31
0.0
  0
LINE
  5
17E5E
330
18CF0
100
AcDbEntity
  8
0
  6
Continuous
 62
    30
370
    70
100
AcDbLine
 10
9467.273901
 20
-14311.314817
 30
0.0
 11
9467.273901
 21
-14321.214817
 31
0.0
  0
LINE
  5
17E5F
330
18CF0
100
AcDbEntity
  8
0
  6
Continuous
 62
    30
370
    70
100
AcDbLine
 10
9473.362401
 20
-14311.314817
 30
0.0
 11
9473.362401
 21
-14321.214817
 31
0.0
  0
LINE
  5
17E60
330
18CF0
100
AcDbEntity
  8
0
  6
Continuous
 62
    30
370
    70
100
AcDbLine
 10
9451.433901
 20
-14311.314817
 30
0.0
 11
9451.433901
 21
-14321.214817
 31
0.0
  0
LINE
  5
17E61
330
18CF0
100
AcDbEntity
  8
0
  6
Continuous
 62
    30
370
    70
100
AcDbLine
 10
9445.345401
 20
-14311.314817
 30
0.0
 11
9445.345401
 21
-14321.214817
 31
0.0
  0
LINE
  5
17E62
330
18CF0
100
AcDbEntity
  8
0
  6
Continuous
 62
    30
370
    70
100
AcDbLine
 10
9429.505401
 20
-14311.314817
 30
0.0
 11
9429.505401
 21
-14321.214817
 31
0.0
  0
LINE
  5
17E63
330
18CF0
100
AcDbEntity
  8
0
  6
Continuous
 62
    30
370
    70
100
AcDbLine
 10
9413.665401
 20
-14311.314817
 30
0.0
 11
9413.665401
 21
-14321.214817
 31
0.0
  0
MTEXT
  5
17E64
330
18CF0
100
AcDbEntity
  8
0
  6
Continuous
 62
     5
370
    30
100
AcDbMText
 10
9421.356557
 20
-14313.563035
 30
0.0
 40
0.792
 41
0.0
 71
     5
 72
     1
  1
STATE\PPROJECT NUMBER
  7
Style 2 - FS Sheet
 73
     2
 44
1.5
  0
MTEXT
  5
17E67
330
18CF0
100
AcDbEntity
  8
0
  6
Continuous
 62
     5
370
    30
100
AcDbMText
 10
9437.392872
 20
-14313.563035
 30
0.0
 40
0.792
 41
0.0
 71
     5
 72
     1
  1
FEDERAL \PPROJECT NUMBER
  7
Style 2 - FS Sheet
 73
     2
 44
1.5
  0
MTEXT
  5
17E6A
330
18CF0
100
AcDbEntity
  8
0
  6
Continuous
 62
     5
370
    30
100
AcDbMText
 10
9448.452399
 20
-14313.777989
 30
0.0
 40
0.792
 41
0.0
 71
     5
 72
     1
  1
STATE\PDIST. \PNO.
  7
Style 2 - FS Sheet
 73
     2
 44
1.275
  0
TEXT
  5
17E6E
330
18CF0
100
AcDbEntity
  8
0
  6
Continuous
 62
     5
370
    30
100
AcDbText
 10
9456.996049
 20
-14314.235523
 30
0.0
 40
0.792
  1
COUNTY
  7
Style 2 - FS Sheet
 72
     1
 11
9459.290934
 21
-14313.839523
 31
0.0
100
AcDbText
 73
     2
  0
MTEXT
  5
17E6F
330
18CF0
100
AcDbEntity
  8
0
  6
Continuous
 62
     5
370
    30
100
AcDbMText
 10
9470.571455
 20
-14313.839523
 30
0.0
 40
0.792
 41
0.0
 71
     5
 72
     1
  1
SHEET \PNO.
  7
Style 2 - FS Sheet
 73
     2
 44
1.5
  0
MTEXT
  5
17E72
330
18CF0
100
AcDbEntity
  8
0
  6
Continuous
 62
     5
370
    30
100
AcDbMText
 10
9476.377707
 20
-14313.839523
 30
0.0
 40
0.792
 41
0.0
 71
     5
 72
     1
  1
TOTAL \PSHEETS
  7
Style 2 - FS Sheet
 73
     2
 44
1.5
  0
LINE
  5
17E75
330
18CF0
100
AcDbEntity
  8
0
  6
DGN Style 1
 62
     6
370
    30
100
AcDbLine
 10
9373.82406
 20
-14498.588933
 30
0.0
 11
9400.826486
 21
-14498.588933
 31
0.0
  0
TEXT
  5
17E76
330
18CF0
100
AcDbEntity
  8
0
  6
Continuous
 62
     5
370
    30
100
AcDbText
 10
9368.19073
 20
-14498.55462
 30
0.0
 40
0.556875
  1
APPROVED:                                                  
  7
Style 1
100
AcDbText
  0
LINE
  5
17E77
330
18CF0
100
AcDbEntity
  8
0
  6
DGN Style 1
 62
     6
370
    30
100
AcDbLine
 10
9404.525706
 20
-14498.588933
 30
0.0
 11
9413.670185
 21
-14498.588933
 31
0.0
  0
TEXT
  5
17E78
330
18CF0
100
AcDbEntity
  8
0
  6
Continuous
 62
     5
370
    30
100
AcDbText
 10
9401.915596
 20
-14498.588933
 30
0.0
 40
0.556875
  1
DATE:
  7
Style 1
100
AcDbText
  0
TEXT
  5
17E80
330
18CF0
100
AcDbEntity
  8
0
  6
Continuous
 62
     5
370
    40
100
AcDbText
 10
9370.572206
 20
-14517.390519
 30
0.0
 40
1.36125
  1
STANDARD SHEET BR-B42B
 51
10.000004
  7
Style 1
 72
     1
 11
9385.100791
 21
-14517.390519
 31
0.0
100
AcDbText
  0
LINE
  5
18086
330
18CF0
100
AcDbEntity
  8
0
  6
Continuous
 62
     6
370
    40
100
AcDbLine
 10
9174.09023
 20
-14324.027307
 30
0.0
 11
9409.09023
 21
-14324.027307
 31
0.0
  0
TEXT
  5
18088
330
18CF0
100
AcDbEntity
  8
0
  6
Continuous
 62
     5
370
    30
100
AcDbText
 10
9174.975346
 20
-14326.589807
 30
0.0
 40
1.125
  1
SPAN LENGTH { TO { BEARING
  7
STD SHEET
 72
     1
 11
9189.090512
 21
-14326.027307
 31
0.0
100
AcDbText
 73
     2
  0
LINE
  5
18089
330
18CF0
100
AcDbEntity
  8
0
  6
Continuous
 62
     6
370
    40
100
AcDbLine
 10
9174.09023
 20
-14328.027307
 30
0.0
 11
9409.09023
 21
-14328.027307
 31
0.0
  0
LINE
  5
1808A
330
18CF0
100
AcDbEntity
  8
0
  6
Continuous
 62
     6
370
    40
100
AcDbLine
 10
9174.09023
 20
-14332.027307
 30
0.0
 11
9409.09023
 21
-14332.027307
 31
0.0
  0
TEXT
  5
1808B
330
18CF0
100
AcDbEntity
  8
0
  6
Continuous
 62
     5
370
    30
100
AcDbText
 10
9175.09023
 20
-14330.589807
 30
0.0
 40
1.125
  1
OVERALL LENGTH OF BEAM
  7
STD SHEET
 11
9175.09023
 21
-14330.027307
 31
0.0
100
AcDbText
 73
     2
  0
LINE
  5
18090
330
18CF0
100
AcDbEntity
  8
0
  6
Continuous
 62
     6
370
    40
100
AcDbLine
 10
9174.09023
 20
-14338.027307
 30
0.0
 11
9409.09023
 21
-14338.027307
 31
0.0
  0
LINE
  5
18092
330
18CF0
100
AcDbEntity
  8
0
  6
Continuous
 62
     6
370
    40
100
AcDbLine
 10
9174.09023
 20
-14374.027307
 30
0.0
 11
9409.09023
 21
-14374.027307
 31
0.0
  0
LINE
  5
1809F
330
18CF0
100
AcDbEntity
  8
0
  6
Continuous
 62
     6
370
    40
100
AcDbLine
 10
9174.09023
 20
-14380.027307
 30
0.0
 11
9409.09023
 21
-14380.027307
 31
0.0
  0
LINE
  5
180A0
330
18CF0
100
AcDbEntity
  8
0
  6
Continuous
 62
     6
370
    40
100
AcDbLine
 10
9174.09023
 20
-14386.027307
 30
0.0
 11
9409.09023
 21
-14386.027307
 31
0.0
  0
LINE
  5
180A1
330
18CF0
100
AcDbEntity
  8
0
  6
Continuous
 62
     6
370
    40
100
AcDbLine
 10
9174.09023
 20
-14392.027307
 30
0.0
 11
9409.09023
 21
-14392.027307
 31
0.0
  0
TEXT
  5
180A7
330
18CF0
100
AcDbEntity
  8
0
  6
Continuous
 62
     5
370
    30
100
AcDbText
 10
9175.09023
 20
-14394.589807
 30
0.0
 40
1.125
  1
TOTAL NO. DEBONDED STRANDS
  7
STD SHEET
 11
9175.09023
 21
-14394.027307
 31
0.0
100
AcDbText
 73
     2
  0
LINE
  5
180A8
330
18CF0
100
AcDbEntity
  8
0
  6
Continuous
 62
     6
370
    40
100
AcDbLine
 10
9174.09023
 20
-14396.027307
 30
0.0
 11
9409.09023
 21
-14396.027307
 31
0.0
  0
LINE
  5
180B7
330
18CF0
100
AcDbEntity
  8
0
  6
Continuous
 62
     6
370
    40
100
AcDbLine
 10
9174.09023
 20
-14438.027307
 30
0.0
 11
9409.09023
 21
-14438.027307
 31
0.0
  0
TEXT
  5
180B8
330
18CF0
100
AcDbEntity
  8
0
  6
Continuous
 62
     5
370
    30
100
AcDbText
 10
9196.09023
 20
-14428.589807
 30
0.0
 40
1.125
  1
@ RELEASE
  7
STD SHEET
 11
9196.09023
 21
-14428.027307
 31
0.0
100
AcDbText
 73
     2
  0
TEXT
  5
180B9
330
18CF0
100
AcDbEntity
  8
0
  6
Continuous
 62
     5
370
    30
100
AcDbText
 10
9196.09023
 20
-14432.589807
 30
0.0
 40
1.125
  1
@ ERECTION
  7
STD SHEET
 11
9196.09023
 21
-14432.027307
 31
0.0
100
AcDbText
 73
     2
  0
TEXT
  5
180BA
330
18CF0
100
AcDbEntity
  8
0
  6
Continuous
 62
     5
370
    30
100
AcDbText
 10
9196.09023
 20
-14436.589807
 30
0.0
 40
1.125
  1
@ FINAL
  7
STD SHEET
 11
9196.09023
 21
-14436.027307
 31
0.0
100
AcDbText
 73
     2
  0
MTEXT
  5
180C8
330
18CF0
100
AcDbEntity
  8
0
  6
Continuous
 62
     5
370
    30
100
AcDbMText
 10
9196.09023
 20
-14446.027307
 30
0.0
 40
1.125
 41
0.0
 71
     4
 72
     1
  1
END OF BEAM TO\P\{ OF FIRST INSERT\PEA. END
  7
STD SHEET
 73
     2
 44
1.133333
  0
LINE
  5
180CD
330
18CF0
100
AcDbEntity
  8
0
  6
Continuous
 62
     6
370
    40
100
AcDbLine
 10
9174.09023
 20
-14458.027307
 30
0.0
 11
9409.09023
 21
-14458.027307
 31
0.0
  0
MTEXT
  5
180CE
330
18CF0
100
AcDbEntity
  8
0
  6
Continuous
 62
     5
370
    30
100
AcDbMText
 10
9196.09023
 20
-14454.027307
 30
0.0
 40
1.125
 41
0.0
 71
     4
 72
     1
  1
\{ OF 1st INSERT \PTO \{ 2nd INSERT\PEA. END
  7
STD SHEET
 73
     2
 44
1.133333
  0
TEXT
  5
180D2
330
18CF0
100
AcDbEntity
  8
0
  6
Continuous
 62
     5
370
    30
100
AcDbText
 10
9196.09023
 20
-14440.589807
 30
0.0
 40
1.125
  1
NO OF INSERTS REQD.
  7
STD SHEET
 11
9196.09023
 21
-14440.027307
 31
0.0
100
AcDbText
 73
     2
  0
LINE
  5
180D3
330
18CF0
100
AcDbEntity
  8
0
  6
Continuous
 62
     6
370
    40
100
AcDbLine
 10
9195.09023
 20
-14438.027307
 30
0.0
 11
9195.09023
 21
-14458.027307
 31
0.0
  0
LINE
  5
180D8
330
18CF0
100
AcDbEntity
  8
0
  6
Continuous
 62
     6
370
    40
100
AcDbLine
 10
9195.09023
 20
-14426.027307
 30
0.0
 11
9195.09023
 21
-14438.027307
 31
0.0
  0
LINE
  5
180BD
330
18CF0
100
AcDbEntity
  8
0
  6
Continuous
 62
     6
370
    40
100
AcDbLine
 10
9195.09023
 20
-14430.027307
 30
0.0
 11
9409.09023
 21
-14430.027307
 31
0.0
  0
LINE
  5
180D9
330
18CF0
100
AcDbEntity
  8
0
  6
Continuous
 62
     6
370
    40
100
AcDbLine
 10
9195.09023
 20
-14434.027307
 30
0.0
 11
9409.09023
 21
-14434.027307
 31
0.0
  0
LINE
  5
180C5
330
18CF0
100
AcDbEntity
  8
0
  6
Continuous
 62
     6
370
    40
100
AcDbLine
 10
9195.09023
 20
-14442.027307
 30
0.0
 11
9409.09023
 21
-14442.027307
 31
0.0
  0
LINE
  5
180CC
330
18CF0
100
AcDbEntity
  8
0
  6
Continuous
 62
     6
370
    40
100
AcDbLine
 10
9195.09023
 20
-14450.027307
 30
0.0
 11
9409.09023
 21
-14450.027307
 31
0.0
  0
LINE
  5
180DB
330
18CF0
100
AcDbEntity
  8
0
  6
Continuous
 62
     6
370
    70
100
AcDbLine
 10
9174.09023
 20
-14464.027307
 30
0.0
 11
9409.09023
 21
-14464.027307
 31
0.0
  0
MTEXT
  5
180DC
330
18CF0
100
AcDbEntity
  8
0
  6
Continuous
 62
     5
370
    30
100
AcDbMText
 10
9175.09023
 20
-14461.027307
 30
0.0
 40
1.125
 41
0.0
 71
     4
 72
     1
  1
WEIGHT OF TYPICAL BEAM INCLUDING\PDIAPHRAGM (TONS)
  7
STD SHEET
 73
     2
 44
1.133333
  0
LINE
  5
180DF
330
18CF0
100
AcDbEntity
  8
0
  6
Continuous
 62
     6
370
    70
100
AcDbLine
 10
9174.09023
 20
-14318.027307
 30
0.0
 11
9409.09023
 21
-14318.027307
 31
0.0
  0
TEXT
  5
181A6
330
18CF0
100
AcDbEntity
  8
0
  6
Continuous
 62
     5
370
    30
100
AcDbText
 10
9269.539423
 20
-14471.657496
 30
0.0
 40
1.125
  1
4.
  7
STD SHEET
 11
9269.539423
 21
-14470.532496
 31
0.0
100
AcDbText
 73
     3
  0
TEXT
  5
181A8
330
18CF0
100
AcDbEntity
  8
0
  6
Continuous
 62
     5
370
    30
100
AcDbText
 10
9269.539423
 20
-14483.657496
 30
0.0
 40
1.125
  1
5.
  7
STD SHEET
 11
9269.539423
 21
-14482.532496
 31
0.0
100
AcDbText
 73
     3
  0
MTEXT
  5
17E7C
330
18CF0
100
AcDbEntity
  8
0
  6
Continuous
 62
     5
370
    40
100
AcDbMText
 10
9386.104054
 20
-14513.445388
 30
0.0
 40
0.86625
 41
0.0
 71
     8
 72
     1
  1
DESIGN TABLE FOR 42"\P\PPRESTRESSED BOX BEAM
  7
Style 1
 73
     2
 44
1.285714
  0
MTEXT
  5
17E79
330
18CF0
100
AcDbEntity
  8
0
  6
Continuous
 62
     5
370
    40
100
AcDbMText
 10
9438.776665
 20
-14514.733848
 30
0.0
 40
1.6767
 41
0.0
 71
     5
 72
     1
  1
DESIGN TABLE FOR 42"\P\PPRESTRESSED BOX BEAM
  7
Style 1
 73
     2
 44
0.712174
  0
TEXT
  5
181C0
330
18CF0
100
AcDbEntity
  8
0
  6
Continuous
 62
     5
370
    30
100
AcDbText
 10
9220.09023
 20
-14330.586736
 30
0.0
 40
1.125
  1
77'-6"
  7
STD SHEET
 11
9220.09023
 21
-14330.024236
 31
0.0
100
AcDbText
 73
     2
  0
TEXT
  5
181C1
330
18CF0
100
AcDbEntity
  8
0
  6
Continuous
 62
     5
370
    30
100
AcDbText
 10
9232.09023
 20
-14330.583547
 30
0.0
 40
1.125
  1
79'-6"
  7
STD SHEET
 11
9232.09023
 21
-14330.021047
 31
0.0
100
AcDbText
 73
     2
  0
TEXT
  5
181C2
330
18CF0
100
AcDbEntity
  8
0
  6
Continuous
 62
     5
370
    30
100
AcDbText
 10
9244.09023
 20
-14330.583547
 30
0.0
 40
1.125
  1
81'-6"
  7
STD SHEET
 11
9244.09023
 21
-14330.021047
 31
0.0
100
AcDbText
 73
     2
  0
TEXT
  5
181C3
330
18CF0
100
AcDbEntity
  8
0
  6
Continuous
 62
     5
370
    30
100
AcDbText
 10
9256.09023
 20
-14330.583547
 30
0.0
 40
1.125
  1
83'-6"
  7
STD SHEET
 11
9256.09023
 21
-14330.021047
 31
0.0
100
AcDbText
 73
     2
  0
TEXT
  5
181C4
330
18CF0
100
AcDbEntity
  8
0
  6
Continuous
 62
     5
370
    30
100
AcDbText
 10
9268.09023
 20
-14330.583547
 30
0.0
 40
1.125
  1
85'-6"
  7
STD SHEET
 11
9268.09023
 21
-14330.021047
 31
0.0
100
AcDbText
 73
     2
  0
TEXT
  5
181C5
330
18CF0
100
AcDbEntity
  8
0
  6
Continuous
 62
     5
370
    30
100
AcDbText
 10
9280.09023
 20
-14330.583547
 30
0.0
 40
1.125
  1
87'-6"
  7
STD SHEET
 11
9280.09023
 21
-14330.021047
 31
0.0
100
AcDbText
 73
     2
  0
TEXT
  5
181C6
330
18CF0
100
AcDbEntity
  8
0
  6
Continuous
 62
     5
370
    30
100
AcDbText
 10
9292.09023
 20
-14330.583547
 30
0.0
 40
1.125
  1
89'-6"
  7
STD SHEET
 11
9292.09023
 21
-14330.021047
 31
0.0
100
AcDbText
 73
     2
  0
TEXT
  5
181C7
330
18CF0
100
AcDbEntity
  8
0
  6
Continuous
 62
     5
370
    30
100
AcDbText
 10
9304.09023
 20
-14330.583547
 30
0.0
 40
1.125
  1
91'-6"
  7
STD SHEET
 11
9304.09023
 21
-14330.021047
 31
0.0
100
AcDbText
 73
     2
  0
TEXT
  5
181C8
330
18CF0
100
AcDbEntity
  8
0
  6
Continuous
 62
     5
370
    30
100
AcDbText
 10
9316.09023
 20
-14330.583547
 30
0.0
 40
1.125
  1
93'-6"
  7
STD SHEET
 11
9316.09023
 21
-14330.021047
 31
0.0
100
AcDbText
 73
     2
  0
TEXT
  5
181C9
330
18CF0
100
AcDbEntity
  8
0
  6
Continuous
 62
     5
370
    30
100
AcDbText
 10
9328.09023
 20
-14330.586736
 30
0.0
 40
1.125
  1
95'-6"
  7
STD SHEET
 11
9328.09023
 21
-14330.024236
 31
0.0
100
AcDbText
 73
     2
  0
LINE
  5
18087
330
18CF0
100
AcDbEntity
  8
0
  6
Continuous
 62
     6
370
    70
100
AcDbLine
 10
9174.09023
 20
-14318.027307
 30
0.0
 11
9174.09023
 21
-14368.027307
 31
0.0
  0
LINE
  5
185A4
330
18CF0
100
AcDbEntity
  8
0
  6
Continuous
 62
     6
370
    40
100
AcDbLine
 10
9217.09023
 20
-14368.027307
 30
0.0
 11
9217.09023
 21
-14324.027307
 31
0.0
  0
LINE
  5
185A5
330
18CF0
100
AcDbEntity
  8
0
  6
Continuous
 62
     6
370
    40
100
AcDbLine
 10
9229.09023
 20
-14368.027307
 30
0.0
 11
9229.09023
 21
-14324.027307
 31
0.0
  0
LINE
  5
185A6
330
18CF0
100
AcDbEntity
  8
0
  6
Continuous
 62
     6
370
    40
100
AcDbLine
 10
9241.09023
 20
-14368.027307
 30
0.0
 11
9241.09023
 21
-14324.027307
 31
0.0
  0
LINE
  5
185A7
330
18CF0
100
AcDbEntity
  8
0
  6
Continuous
 62
     6
370
    40
100
AcDbLine
 10
9253.09023
 20
-14368.027307
 30
0.0
 11
9253.09023
 21
-14324.027307
 31
0.0
  0
LINE
  5
185A8
330
18CF0
100
AcDbEntity
  8
0
  6
Continuous
 62
     6
370
    40
100
AcDbLine
 10
9265.09023
 20
-14368.027307
 30
0.0
 11
9265.09023
 21
-14324.027307
 31
0.0
  0
LINE
  5
185A9
330
18CF0
100
AcDbEntity
  8
0
  6
Continuous
 62
     6
370
    40
100
AcDbLine
 10
9277.09023
 20
-14368.027307
 30
0.0
 11
9277.09023
 21
-14324.027307
 31
0.0
  0
LINE
  5
185AA
330
18CF0
100
AcDbEntity
  8
0
  6
Continuous
 62
     6
370
    40
100
AcDbLine
 10
9289.09023
 20
-14368.027307
 30
0.0
 11
9289.09023
 21
-14324.027307
 31
0.0
  0
LINE
  5
185AB
330
18CF0
100
AcDbEntity
  8
0
  6
Continuous
 62
     6
370
    40
100
AcDbLine
 10
9301.09023
 20
-14368.027307
 30
0.0
 11
9301.09023
 21
-14324.027307
 31
0.0
  0
LINE
  5
185AC
330
18CF0
100
AcDbEntity
  8
0
  6
Continuous
 62
     6
370
    40
100
AcDbLine
 10
9313.09023
 20
-14368.027307
 30
0.0
 11
9313.09023
 21
-14324.027307
 31
0.0
  0
LINE
  5
185AD
330
18CF0
100
AcDbEntity
  8
0
  6
Continuous
 62
     6
370
    40
100
AcDbLine
 10
9325.09023
 20
-14368.027307
 30
0.0
 11
9325.09023
 21
-14324.027307
 31
0.0
  0
LINE
  5
185AE
330
18CF0
100
AcDbEntity
  8
0
  6
Continuous
 62
     6
370
    40
100
AcDbLine
 10
9337.09023
 20
-14368.027307
 30
0.0
 11
9337.09023
 21
-14324.027307
 31
0.0
  0
LINE
  5
185AF
330
18CF0
100
AcDbEntity
  8
0
  6
Continuous
 62
     6
370
    40
100
AcDbLine
 10
9349.09023
 20
-14368.027307
 30
0.0
 11
9349.09023
 21
-14324.027307
 31
0.0
  0
LINE
  5
185B0
330
18CF0
100
AcDbEntity
  8
0
  6
Continuous
 62
     6
370
    40
100
AcDbLine
 10
9361.09023
 20
-14368.027307
 30
0.0
 11
9361.09023
 21
-14324.027307
 31
0.0
  0
LINE
  5
185B1
330
18CF0
100
AcDbEntity
  8
0
  6
Continuous
 62
     6
370
    40
100
AcDbLine
 10
9373.09023
 20
-14368.027307
 30
0.0
 11
9373.09023
 21
-14324.027307
 31
0.0
  0
LINE
  5
185B2
330
18CF0
100
AcDbEntity
  8
0
  6
Continuous
 62
     6
370
    40
100
AcDbLine
 10
9385.09023
 20
-14368.027307
 30
0.0
 11
9385.09023
 21
-14324.027307
 31
0.0
  0
LINE
  5
185B3
330
18CF0
100
AcDbEntity
  8
0
  6
Continuous
 62
     6
370
    40
100
AcDbLine
 10
9397.09023
 20
-14368.027307
 30
0.0
 11
9397.09023
 21
-14324.027307
 31
0.0
  0
LINE
  5
185B4
330
18CF0
100
AcDbEntity
  8
0
  6
Continuous
 62
     6
370
    70
100
AcDbLine
 10
9409.09023
 20
-14368.027307
 30
0.0
 11
9409.09023
 21
-14318.027307
 31
0.0
  0
LINE
  5
185B9
330
18CF0
100
AcDbEntity
  8
0
  6
Continuous
 62
     6
370
    40
100
AcDbLine
 10
9174.09023
 20
-14368.027307
 30
0.0
 11
9409.09023
 21
-14368.027307
 31
0.0
  0
LINE
  5
185B5
330
18CF0
100
AcDbEntity
  8
0
  6
Continuous
 62
     6
370
    40
100
AcDbLine
 10
9206.374695
 20
-14344.027307
 30
0.0
 11
9409.09023
 21
-14344.027307
 31
0.0
  0
LINE
  5
185B6
330
18CF0
100
AcDbEntity
  8
0
  6
Continuous
 62
     6
370
    40
100
AcDbLine
 10
9206.374695
 20
-14350.027307
 30
0.0
 11
9409.09023
 21
-14350.027307
 31
0.0
  0
LINE
  5
185B7
330
18CF0
100
AcDbEntity
  8
0
  6
Continuous
 62
     6
370
    40
100
AcDbLine
 10
9206.374695
 20
-14356.027307
 30
0.0
 11
9409.09023
 21
-14356.027307
 31
0.0
  0
LINE
  5
185B8
330
18CF0
100
AcDbEntity
  8
0
  6
Continuous
 62
     6
370
    40
100
AcDbLine
 10
9206.374695
 20
-14362.027307
 30
0.0
 11
9409.09023
 21
-14362.027307
 31
0.0
  0
LINE
  5
185BB
330
18CF0
100
AcDbEntity
  8
0
  6
Continuous
 62
     6
370
    40
100
AcDbLine
 10
9206.374695
 20
-14368.027307
 30
0.0
 11
9206.374695
 21
-14338.027307
 31
0.0
  0
LINE
  5
185BD
330
18CF0
100
AcDbEntity
  8
0
  6
Continuous
 62
     6
370
    70
100
AcDbLine
 10
9174.09023
 20
-14426.027307
 30
0.0
 11
9174.09023
 21
-14464.027307
 31
0.0
  0
LINE
  5
180DA
330
18CF0
100
AcDbEntity
  8
0
  6
Continuous
 62
     6
370
    40
100
AcDbLine
 10
9217.09023
 20
-14464.027307
 30
0.0
 11
9217.09023
 21
-14426.027307
 31
0.0
  0
LINE
  5
180E0
330
18CF0
100
AcDbEntity
  8
0
  6
Continuous
 62
     6
370
    40
100
AcDbLine
 10
9229.09023
 20
-14464.027307
 30
0.0
 11
9229.09023
 21
-14426.027307
 31
0.0
  0
LINE
  5
180E1
330
18CF0
100
AcDbEntity
  8
0
  6
Continuous
 62
     6
370
    40
100
AcDbLine
 10
9241.09023
 20
-14464.027307
 30
0.0
 11
9241.09023
 21
-14426.027307
 31
0.0
  0
LINE
  5
180E2
330
18CF0
100
AcDbEntity
  8
0
  6
Continuous
 62
     6
370
    40
100
AcDbLine
 10
9253.09023
 20
-14464.027307
 30
0.0
 11
9253.09023
 21
-14426.027307
 31
0.0
  0
LINE
  5
180E3
330
18CF0
100
AcDbEntity
  8
0
  6
Continuous
 62
     6
370
    40
100
AcDbLine
 10
9265.09023
 20
-14464.027307
 30
0.0
 11
9265.09023
 21
-14426.027307
 31
0.0
  0
LINE
  5
180E4
330
18CF0
100
AcDbEntity
  8
0
  6
Continuous
 62
     6
370
    40
100
AcDbLine
 10
9277.09023
 20
-14464.027307
 30
0.0
 11
9277.09023
 21
-14426.027307
 31
0.0
  0
LINE
  5
180E5
330
18CF0
100
AcDbEntity
  8
0
  6
Continuous
 62
     6
370
    40
100
AcDbLine
 10
9289.09023
 20
-14464.027307
 30
0.0
 11
9289.09023
 21
-14426.027307
 31
0.0
  0
LINE
  5
180E6
330
18CF0
100
AcDbEntity
  8
0
  6
Continuous
 62
     6
370
    40
100
AcDbLine
 10
9301.09023
 20
-14464.027307
 30
0.0
 11
9301.09023
 21
-14426.027307
 31
0.0
  0
LINE
  5
180E7
330
18CF0
100
AcDbEntity
  8
0
  6
Continuous
 62
     6
370
    40
100
AcDbLine
 10
9313.09023
 20
-14464.027307
 30
0.0
 11
9313.09023
 21
-14426.027307
 31
0.0
  0
LINE
  5
180E8
330
18CF0
100
AcDbEntity
  8
0
  6
Continuous
 62
     6
370
    40
100
AcDbLine
 10
9325.09023
 20
-14464.027307
 30
0.0
 11
9325.09023
 21
-14426.027307
 31
0.0
  0
LINE
  5
180E9
330
18CF0
100
AcDbEntity
  8
0
  6
Continuous
 62
     6
370
    40
100
AcDbLine
 10
9337.09023
 20
-14464.027307
 30
0.0
 11
9337.09023
 21
-14426.027307
 31
0.0
  0
LINE
  5
180EA
330
18CF0
100
AcDbEntity
  8
0
  6
Continuous
 62
     6
370
    40
100
AcDbLine
 10
9349.09023
 20
-14464.027307
 30
0.0
 11
9349.09023
 21
-14426.027307
 31
0.0
  0
LINE
  5
180EB
330
18CF0
100
AcDbEntity
  8
0
  6
Continuous
 62
     6
370
    40
100
AcDbLine
 10
9361.09023
 20
-14464.027307
 30
0.0
 11
9361.09023
 21
-14426.027307
 31
0.0
  0
LINE
  5
180EC
330
18CF0
100
AcDbEntity
  8
0
  6
Continuous
 62
     6
370
    40
100
AcDbLine
 10
9373.09023
 20
-14464.027307
 30
0.0
 11
9373.09023
 21
-14426.027307
 31
0.0
  0
LINE
  5
180ED
330
18CF0
100
AcDbEntity
  8
0
  6
Continuous
 62
     6
370
    40
100
AcDbLine
 10
9385.09023
 20
-14464.027307
 30
0.0
 11
9385.09023
 21
-14426.027307
 31
0.0
  0
LINE
  5
180EE
330
18CF0
100
AcDbEntity
  8
0
  6
Continuous
 62
     6
370
    40
100
AcDbLine
 10
9397.09023
 20
-14464.027307
 30
0.0
 11
9397.09023
 21
-14426.027307
 31
0.0
  0
LINE
  5
180F1
330
18CF0
100
AcDbEntity
  8
0
  6
Continuous
 62
     6
370
    70
100
AcDbLine
 10
9409.09023
 20
-14464.027307
 30
0.0
 11
9409.09023
 21
-14426.027307
 31
0.0
  0
LINE
  5
185CF
330
18CF0
100
AcDbEntity
  8
0
  6
Continuous
 62
     6
370
    40
100
AcDbLine
 10
9174.09023
 20
-14420.027307
 30
0.0
 11
9409.09023
 21
-14420.027307
 31
0.0
  0
LINE
  5
185D0
330
18CF0
100
AcDbEntity
  8
0
  6
Continuous
 62
     6
370
    40
100
AcDbLine
 10
9174.09023
 20
-14426.027307
 30
0.0
 11
9409.09023
 21
-14426.027307
 31
0.0
  0
TEXT
  5
185D2
330
18CF0
100
AcDbEntity
  8
0
 62
     5
370
    30
100
AcDbText
 10
9175.09023
 20
-14353.965132
 30
0.0
 40
1.125
  1
STRAND POSITION NUMBER
  7
STD SHEET
 11
9175.09023
 21
-14352.840132
 31
0.0
100
AcDbText
 73
     3
  0
TEXT
  5
185D4
330
18CF0
100
AcDbEntity
  8
0
 62
     5
370
    30
100
AcDbText
 10
9208.050152
 20
-14341.700787
 30
0.0
 40
1.125
  1
ROW 1
  7
STD SHEET
 11
9208.050152
 21
-14340.575787
 31
0.0
100
AcDbText
 73
     3
  0
TEXT
  5
185D5
330
18CF0
100
AcDbEntity
  8
0
 62
     5
370
    30
100
AcDbText
 10
9208.050152
 20
-14347.665414
 30
0.0
 40
1.125
  1
ROW 2
  7
STD SHEET
 11
9208.050152
 21
-14346.540414
 31
0.0
100
AcDbText
 73
     3
  0
TEXT
  5
185D6
330
18CF0
100
AcDbEntity
  8
0
 62
     5
370
    30
100
AcDbText
 10
9208.050152
 20
-14353.496004
 30
0.0
 40
1.125
  1
ROW 3
  7
STD SHEET
 11
9208.050152
 21
-14352.371004
 31
0.0
100
AcDbText
 73
     3
  0
TEXT
  5
185D8
330
18CF0
100
AcDbEntity
  8
0
 62
     5
370
    30
100
AcDbText
 10
9208.050152
 20
-14365.525785
 30
0.0
 40
1.125
  1
ROW 4
  7
STD SHEET
 11
9208.050152
 21
-14364.400785
 31
0.0
100
AcDbText
 73
     3
  0
MTEXT
  5
185DB
330
18CF0
100
AcDbEntity
  8
0
370
    30
100
AcDbMText
 10
9175.110668
 20
-14423.006406
 30
0.0
 40
1.125
 41
0.0
 71
     4
 72
     1
  1
\C5;NUMBER & LENGTH #5 BT BOTTOM \PTENSION BARS @ EACH END
  7
STD SHEET
 73
     2
 44
1.133333
  0
MTEXT
  5
180B2
330
18CF0
100
AcDbEntity
  8
0
  6
Continuous
 62
     5
370
    30
100
AcDbMText
 10
9175.09023
 20
-14417.027307
 30
0.0
 40
1.125
 41
0.0
 71
     4
 72
     1
  1
NUMBER & LENGTH #4 ET TOP \PTENSION BARS @ EACH END
  7
STD SHEET
 73
     2
 44
1.133333
  0
MTEXT
  5
1808C
330
18CF0
100
AcDbEntity
  8
0
  6
Continuous
 62
     5
370
    30
100
AcDbMText
 10
9175.09023
 20
-14335.027307
 30
0.0
 40
1.125
 41
0.0
 71
     4
 72
     1
  1
NO. OF 270 KSI,  {\T1.0;\W0.7x;\H0.7x;\S1#2;}" ~ LOW-RELAXATION\PSTRANDS, AREA/STRAND = 0.167 SQ. IN.
  7
STD SHEET
 73
     2
 44
1.133333
  0
MTEXT
  5
18093
330
18CF0
100
AcDbEntity
  8
0
  6
Continuous
 62
     5
370
    30
100
AcDbMText
 10
9175.09023
 20
-14371.027307
 30
0.0
 40
1.125
 41
0.0
 71
     4
 72
     1
  1
PRESTRESSING FORCE IMMEDIATELY AFTER \PSTRAND RELEASE, Ppt, (KIPS/BEAM)
  7
STD SHEET
 73
     2
 44
1.133333
  0
MTEXT
  5
18096
330
18CF0
100
AcDbEntity
  8
0
  6
Continuous
 62
     5
370
    30
100
AcDbMText
 10
9175.09023
 20
-14377.027307
 30
0.0
 40
1.125
 41
0.0
 71
     4
 72
     1
  1
EFFECTIVE PRESTRESSING FORCE AFTER\PALL LOSSES, Ppe, (KIPS/BEAM)
  7
STD SHEET
 73
     2
 44
1.133333
  0
MTEXT
  5
180A2
330
18CF0
100
AcDbEntity
  8
0
  6
Continuous
 62
     5
370
    30
100
AcDbMText
 10
9175.09023
 20
-14383.156603
 30
0.0
 40
1.125
 41
0.0
 71
     4
 72
     1
  1
REQUIRED FACTORED MOMENT \P@ STRENGTH I, Mu (FT-KIPS/BEAM)
  7
STD SHEET
 73
     2
 44
1.133333
  0
MTEXT
  5
1809C
330
18CF0
100
AcDbEntity
  8
0
  6
Continuous
 62
     5
370
    30
100
AcDbMText
 10
9175.177687
 20
-14389.188248
 30
0.0
 40
1.125
 41
0.0
 71
     4
 72
     1
  1
FACTORED FLEXURAL\PRESISTANCE, Mr (FT-KIPS/BEAM)
  7
STD SHEET
 73
     2
 44
1.133333
  0
LINE
  5
185F6
330
18CF0
100
AcDbEntity
  8
0
  6
Continuous
 62
     6
370
    70
100
AcDbLine
 10
9174.09023
 20
-14414.027307
 30
0.0
 11
9174.09023
 21
-14426.027307
 31
0.0
  0
LINE
  5
185BE
330
18CF0
100
AcDbEntity
  8
0
  6
Continuous
 62
     6
370
    40
100
AcDbLine
 10
9217.09023
 20
-14426.027307
 30
0.0
 11
9217.09023
 21
-14414.027307
 31
0.0
  0
LINE
  5
185BF
330
18CF0
100
AcDbEntity
  8
0
  6
Continuous
 62
     6
370
    40
100
AcDbLine
 10
9229.09023
 20
-14426.027307
 30
0.0
 11
9229.09023
 21
-14414.027307
 31
0.0
  0
LINE
  5
185C0
330
18CF0
100
AcDbEntity
  8
0
  6
Continuous
 62
     6
370
    40
100
AcDbLine
 10
9241.09023
 20
-14426.027307
 30
0.0
 11
9241.09023
 21
-14414.027307
 31
0.0
  0
LINE
  5
185C1
330
18CF0
100
AcDbEntity
  8
0
  6
Continuous
 62
     6
370
    40
100
AcDbLine
 10
9253.09023
 20
-14426.027307
 30
0.0
 11
9253.09023
 21
-14414.027307
 31
0.0
  0
LINE
  5
185C2
330
18CF0
100
AcDbEntity
  8
0
  6
Continuous
 62
     6
370
    40
100
AcDbLine
 10
9265.09023
 20
-14426.027307
 30
0.0
 11
9265.09023
 21
-14414.027307
 31
0.0
  0
LINE
  5
185A3
330
18CF0
100
AcDbEntity
  8
0
  6
Continuous
 62
     6
370
    70
100
AcDbLine
 10
9174.09023
 20
-14368.027307
 30
0.0
 11
9174.09023
 21
-14414.027307
 31
0.0
  0
LINE
  5
185F7
330
18CF0
100
AcDbEntity
  8
0
  6
Continuous
 62
     6
370
    40
100
AcDbLine
 10
9217.09023
 20
-14414.027307
 30
0.0
 11
9217.09023
 21
-14368.027307
 31
0.0
  0
LINE
  5
185F8
330
18CF0
100
AcDbEntity
  8
0
  6
Continuous
 62
     6
370
    40
100
AcDbLine
 10
9229.09023
 20
-14414.027307
 30
0.0
 11
9229.09023
 21
-14368.027307
 31
0.0
  0
LINE
  5
185F9
330
18CF0
100
AcDbEntity
  8
0
  6
Continuous
 62
     6
370
    40
100
AcDbLine
 10
9241.09023
 20
-14414.027307
 30
0.0
 11
9241.09023
 21
-14368.027307
 31
0.0
  0
LINE
  5
185FA
330
18CF0
100
AcDbEntity
  8
0
  6
Continuous
 62
     6
370
    40
100
AcDbLine
 10
9253.09023
 20
-14414.027307
 30
0.0
 11
9253.09023
 21
-14368.027307
 31
0.0
  0
LINE
  5
185FB
330
18CF0
100
AcDbEntity
  8
0
  6
Continuous
 62
     6
370
    40
100
AcDbLine
 10
9265.09023
 20
-14414.027307
 30
0.0
 11
9265.09023
 21
-14368.027307
 31
0.0
  0
LINE
  5
185FC
330
18CF0
100
AcDbEntity
  8
0
  6
Continuous
 62
     6
370
    40
100
AcDbLine
 10
9277.09023
 20
-14414.027307
 30
0.0
 11
9277.09023
 21
-14368.027307
 31
0.0
  0
LINE
  5
185C3
330
18CF0
100
AcDbEntity
  8
0
  6
Continuous
 62
     6
370
    40
100
AcDbLine
 10
9277.09023
 20
-14426.027307
 30
0.0
 11
9277.09023
 21
-14414.027307
 31
0.0
  0
LINE
  5
185FD
330
18CF0
100
AcDbEntity
  8
0
  6
Continuous
 62
     6
370
    40
100
AcDbLine
 10
9289.09023
 20
-14414.027307
 30
0.0
 11
9289.09023
 21
-14368.027307
 31
0.0
  0
LINE
  5
185C4
330
18CF0
100
AcDbEntity
  8
0
  6
Continuous
 62
     6
370
    40
100
AcDbLine
 10
9289.09023
 20
-14426.027307
 30
0.0
 11
9289.09023
 21
-14414.027307
 31
0.0
  0
LINE
  5
185C5
330
18CF0
100
AcDbEntity
  8
0
  6
Continuous
 62
     6
370
    40
100
AcDbLine
 10
9301.09023
 20
-14426.027307
 30
0.0
 11
9301.09023
 21
-14414.027307
 31
0.0
  0
LINE
  5
185FE
330
18CF0
100
AcDbEntity
  8
0
  6
Continuous
 62
     6
370
    40
100
AcDbLine
 10
9301.09023
 20
-14414.027307
 30
0.0
 11
9301.09023
 21
-14368.027307
 31
0.0
  0
LINE
  5
185C6
330
18CF0
100
AcDbEntity
  8
0
  6
Continuous
 62
     6
370
    40
100
AcDbLine
 10
9313.09023
 20
-14426.027307
 30
0.0
 11
9313.09023
 21
-14414.027307
 31
0.0
  0
LINE
  5
185FF
330
18CF0
100
AcDbEntity
  8
0
  6
Continuous
 62
     6
370
    40
100
AcDbLine
 10
9313.09023
 20
-14414.027307
 30
0.0
 11
9313.09023
 21
-14368.027307
 31
0.0
  0
LINE
  5
185C7
330
18CF0
100
AcDbEntity
  8
0
  6
Continuous
 62
     6
370
    40
100
AcDbLine
 10
9325.09023
 20
-14426.027307
 30
0.0
 11
9325.09023
 21
-14414.027307
 31
0.0
  0
LINE
  5
18600
330
18CF0
100
AcDbEntity
  8
0
  6
Continuous
 62
     6
370
    40
100
AcDbLine
 10
9325.09023
 20
-14414.027307
 30
0.0
 11
9325.09023
 21
-14368.027307
 31
0.0
  0
LINE
  5
185C8
330
18CF0
100
AcDbEntity
  8
0
  6
Continuous
 62
     6
370
    40
100
AcDbLine
 10
9337.09023
 20
-14426.027307
 30
0.0
 11
9337.09023
 21
-14414.027307
 31
0.0
  0
LINE
  5
18601
330
18CF0
100
AcDbEntity
  8
0
  6
Continuous
 62
     6
370
    40
100
AcDbLine
 10
9337.09023
 20
-14414.027307
 30
0.0
 11
9337.09023
 21
-14368.027307
 31
0.0
  0
LINE
  5
185C9
330
18CF0
100
AcDbEntity
  8
0
  6
Continuous
 62
     6
370
    40
100
AcDbLine
 10
9349.09023
 20
-14426.027307
 30
0.0
 11
9349.09023
 21
-14414.027307
 31
0.0
  0
LINE
  5
18602
330
18CF0
100
AcDbEntity
  8
0
  6
Continuous
 62
     6
370
    40
100
AcDbLine
 10
9349.09023
 20
-14414.027307
 30
0.0
 11
9349.09023
 21
-14368.027307
 31
0.0
  0
LINE
  5
185CA
330
18CF0
100
AcDbEntity
  8
0
  6
Continuous
 62
     6
370
    40
100
AcDbLine
 10
9361.09023
 20
-14426.027307
 30
0.0
 11
9361.09023
 21
-14414.027307
 31
0.0
  0
LINE
  5
18603
330
18CF0
100
AcDbEntity
  8
0
  6
Continuous
 62
     6
370
    40
100
AcDbLine
 10
9361.09023
 20
-14414.027307
 30
0.0
 11
9361.09023
 21
-14368.027307
 31
0.0
  0
LINE
  5
185CB
330
18CF0
100
AcDbEntity
  8
0
  6
Continuous
 62
     6
370
    40
100
AcDbLine
 10
9373.09023
 20
-14426.027307
 30
0.0
 11
9373.09023
 21
-14414.027307
 31
0.0
  0
LINE
  5
18604
330
18CF0
100
AcDbEntity
  8
0
  6
Continuous
 62
     6
370
    40
100
AcDbLine
 10
9373.09023
 20
-14414.027307
 30
0.0
 11
9373.09023
 21
-14368.027307
 31
0.0
  0
LINE
  5
185CC
330
18CF0
100
AcDbEntity
  8
0
  6
Continuous
 62
     6
370
    40
100
AcDbLine
 10
9385.09023
 20
-14426.027307
 30
0.0
 11
9385.09023
 21
-14414.027307
 31
0.0
  0
LINE
  5
18605
330
18CF0
100
AcDbEntity
  8
0
  6
Continuous
 62
     6
370
    40
100
AcDbLine
 10
9385.09023
 20
-14414.027307
 30
0.0
 11
9385.09023
 21
-14368.027307
 31
0.0
  0
LINE
  5
185CD
330
18CF0
100
AcDbEntity
  8
0
  6
Continuous
 62
     6
370
    40
100
AcDbLine
 10
9397.09023
 20
-14426.027307
 30
0.0
 11
9397.09023
 21
-14414.027307
 31
0.0
  0
LINE
  5
18606
330
18CF0
100
AcDbEntity
  8
0
  6
Continuous
 62
     6
370
    40
100
AcDbLine
 10
9397.09023
 20
-14414.027307
 30
0.0
 11
9397.09023
 21
-14368.027307
 31
0.0
  0
LINE
  5
185CE
330
18CF0
100
AcDbEntity
  8
0
  6
Continuous
 62
     6
370
    70
100
AcDbLine
 10
9409.09023
 20
-14426.027307
 30
0.0
 11
9409.09023
 21
-14414.027307
 31
0.0
  0
LINE
  5
18607
330
18CF0
100
AcDbEntity
  8
0
  6
Continuous
 62
     6
370
    70
100
AcDbLine
 10
9409.09023
 20
-14414.027307
 30
0.0
 11
9409.09023
 21
-14368.027307
 31
0.0
  0
LINE
  5
18608
330
18CF0
100
AcDbEntity
  8
0
  6
Continuous
 62
     6
370
    40
100
AcDbLine
 10
9174.09023
 20
-14414.027307
 30
0.0
 11
9409.09023
 21
-14414.027307
 31
0.0
  0
LINE
  5
18609
330
18CF0
100
AcDbEntity
  8
0
  6
Continuous
 62
     6
370
    40
100
AcDbLine
 10
9206.374695
 20
-14396.027307
 30
0.0
 11
9206.374695
 21
-14414.027307
 31
0.0
  0
LINE
  5
180AC
330
18CF0
100
AcDbEntity
  8
0
  6
Continuous
 62
     6
370
    40
100
AcDbLine
 10
9206.374695
 20
-14405.027307
 30
0.0
 11
9409.09023
 21
-14405.027307
 31
0.0
  0
TEXT
  5
1860F
330
18CF0
100
AcDbEntity
  8
0
 62
     5
370
    30
100
AcDbText
 10
9208.117171
 20
-14401.370965
 30
0.0
 40
1.125
  1
ROW 1
  7
STD SHEET
 11
9208.117171
 21
-14400.808465
 31
0.0
100
AcDbText
 73
     2
  0
TEXT
  5
18610
330
18CF0
100
AcDbEntity
  8
0
 62
     5
370
    30
100
AcDbText
 10
9208.117171
 20
-14409.614213
 30
0.0
 40
1.125
  1
ROW 2
  7
STD SHEET
 11
9208.117171
 21
-14409.051713
 31
0.0
100
AcDbText
 73
     2
  0
MTEXT
  5
1860C
330
18CF0
100
AcDbEntity
  8
0
370
    30
100
AcDbMText
 10
9175.211196
 20
-14404.427452
 30
0.0
 40
1.125
 41
0.0
 71
     4
 72
     1
  1
\C5;DEBONDED STRAND POSITION\PNUMBER & SHIELDING LENGTH \PFROM EACH END
  7
STD SHEET
 73
     2
 44
1.133333
  0
TEXT
  5
1862E
330
18CF0
100
AcDbEntity
  8
0
 62
     5
370
    30
100
AcDbText
 10
9175.278214
 20
-14432.707251
 30
0.0
 40
2.0
  1
+=
  7
STD SHEET
 11
9175.278214
 21
-14431.707251
 31
0.0
100
AcDbText
 73
     2
  0
TEXT
  5
1862F
330
18CF0
100
AcDbEntity
  8
0
 62
     5
370
    30
100
AcDbText
 10
9179.098256
 20
-14432.269751
 30
0.0
 40
1.125
  1
POSITIVE (UP)
  7
STD SHEET
 11
9179.098256
 21
-14431.707251
 31
0.0
100
AcDbText
 73
     2
  0
TEXT
  5
18630
330
18CF0
100
AcDbEntity
  8
0
 62
     5
370
    30
100
AcDbText
 10
9175.010141
 20
-14434.280299
 30
0.0
 40
1.125
  1
(INCHES)
  7
STD SHEET
 11
9175.010141
 21
-14433.717799
 31
0.0
100
AcDbText
 73
     2
  0
TEXT
  5
180BF
330
18CF0
100
AcDbEntity
  8
0
  6
Continuous
 62
     5
370
    30
100
AcDbText
 10
9175.09023
 20
-14430.189317
 30
0.0
 40
1.125
  1
DESIGN CAMBER
  7
STD SHEET
 11
9175.09023
 21
-14429.626817
 31
0.0
100
AcDbText
 73
     2
  0
MTEXT
  5
1864B
330
18CF0
100
AcDbEntity
  8
0
370
    30
100
AcDbMText
 10
9413.025557
 20
-14331.478056
 30
0.0
 40
1.5
 41
0.0
 71
     4
 72
     1
  1
\C5;MIN. CONCRETE STRENGTH @ RELEASE\PMIN. CONCRETE STRENGTH @ 28 DAYS\PINITIAL PULL/STRAND\PCROSS-SECTION AREA/STRAND
  7
STD SHEET
 73
     2
 44
1.4
  0
MTEXT
  5
18650
330
18CF0
100
AcDbEntity
  8
0
 62
     5
370
    30
100
AcDbMText
 10
9460.072389
 20
-14331.478056
 30
0.0
 40
1.5
 41
0.0
 71
     4
 72
     1
  1
= 5500 PSI\P= 8000 PSI\P= 33,820 LBS\P= 0.167 SQ. IN.
  7
STD SHEET
 73
     2
 44
1.4
  0
LWPOLYLINE
  5
18655
330
18CF0
100
AcDbEntity
  8
0
 62
     6
370
    40
100
AcDbPolyline
 90
        4
 70
   129
 43
0.0
 10
9412.087301
 20
-14324.508155
 10
9478.234342
 20
-14324.508155
 10
9478.234342
 20
-14338.649012
 10
9412.087301
 20
-14338.649012
  0
TEXT
  5
1867E
330
18CF0
100
AcDbEntity
  8
0
 62
     5
370
    30
100
AcDbText
 10
9340.712835
 20
-14330.525489
 30
0.0
 40
1.125
  1
97'-6"
  7
STD SHEET
 11
9340.712835
 21
-14329.400489
 31
0.0
100
AcDbText
 73
     3
  0
TEXT
  5
181B5
330
18CF0
100
AcDbEntity
  8
0
  6
Continuous
 62
     5
370
    30
100
AcDbText
 10
9220.084956
 20
-14326.617293
 30
0.0
 40
1.125
  1
76'-0"
  7
STD SHEET
 11
9220.084956
 21
-14326.054793
 31
0.0
100
AcDbText
 73
     2
  0
TEXT
  5
181B6
330
18CF0
100
AcDbEntity
  8
0
  6
Continuous
 62
     5
370
    30
100
AcDbText
 10
9232.079682
 20
-14326.581579
 30
0.0
 40
1.125
  1
78'-0"
  7
STD SHEET
 11
9232.079682
 21
-14326.019079
 31
0.0
100
AcDbText
 73
     2
  0
TEXT
  5
181B7
330
18CF0
100
AcDbEntity
  8
0
  6
Continuous
 62
     5
370
    30
100
AcDbText
 10
9244.010482
 20
-14326.585752
 30
0.0
 40
1.125
  1
80'-0"
  7
STD SHEET
 11
9244.010482
 21
-14326.023252
 31
0.0
100
AcDbText
 73
     2
  0
TEXT
  5
181B8
330
18CF0
100
AcDbEntity
  8
0
  6
Continuous
 62
     5
370
    30
100
AcDbText
 10
9256.006754
 20
-14326.585752
 30
0.0
 40
1.125
  1
82'-0"
  7
STD SHEET
 11
9256.006754
 21
-14326.023252
 31
0.0
100
AcDbText
 73
     2
  0
TEXT
  5
181B9
330
18CF0
100
AcDbEntity
  8
0
  6
Continuous
 62
     5
370
    30
100
AcDbText
 10
9268.036535
 20
-14326.585752
 30
0.0
 40
1.125
  1
84'-0"
  7
STD SHEET
 11
9268.036535
 21
-14326.023252
 31
0.0
100
AcDbText
 73
     2
  0
TEXT
  5
181BA
330
18CF0
100
AcDbEntity
  8
0
  6
Continuous
 62
     5
370
    30
100
AcDbText
 10
9280.066316
 20
-14326.582071
 30
0.0
 40
1.125
  1
86'-0"
  7
STD SHEET
 11
9280.066316
 21
-14326.019571
 31
0.0
100
AcDbText
 73
     2
  0
TEXT
  5
181BB
330
18CF0
100
AcDbEntity
  8
0
  6
Continuous
 62
     5
370
    30
100
AcDbText
 10
9292.029078
 20
-14326.582563
 30
0.0
 40
1.125
  1
88'-0"
  7
STD SHEET
 11
9292.029078
 21
-14326.020063
 31
0.0
100
AcDbText
 73
     2
  0
TEXT
  5
181BC
330
18CF0
100
AcDbEntity
  8
0
  6
Continuous
 62
     5
370
    30
100
AcDbText
 10
9304.02535
 20
-14326.582563
 30
0.0
 40
1.125
  1
90'-0"
  7
STD SHEET
 11
9304.02535
 21
-14326.020063
 31
0.0
100
AcDbText
 73
     2
  0
TEXT
  5
181BD
330
18CF0
100
AcDbEntity
  8
0
  6
Continuous
 62
     5
370
    30
100
AcDbText
 10
9315.988113
 20
-14326.582563
 30
0.0
 40
1.125
  1
92'-0"
  7
STD SHEET
 11
9315.988113
 21
-14326.020063
 31
0.0
100
AcDbText
 73
     2
  0
TEXT
  5
181BE
330
18CF0
100
AcDbEntity
  8
0
  6
Continuous
 62
     5
370
    30
100
AcDbText
 10
9327.984385
 20
-14326.584158
 30
0.0
 40
1.125
  1
94'-0"
  7
STD SHEET
 11
9327.984385
 21
-14326.021658
 31
0.0
100
AcDbText
 73
     2
  0
TEXT
  5
1867D
330
18CF0
100
AcDbEntity
  8
0
 62
     5
370
    30
100
AcDbText
 10
9340.684348
 20
-14326.571411
 30
0.0
 40
1.125
  1
96'-0"
  7
STD SHEET
 11
9340.684348
 21
-14325.446411
 31
0.0
100
AcDbText
 73
     3
  0
TEXT
  5
1867F
330
18CF0
100
AcDbEntity
  8
0
 62
     5
370
    30
100
AcDbText
 10
9352.412547
 20
-14326.560858
 30
0.0
 40
1.125
  1
98'-0"
  7
STD SHEET
 11
9352.412547
 21
-14325.435858
 31
0.0
100
AcDbText
 73
     3
  0
TEXT
  5
18680
330
18CF0
100
AcDbEntity
  8
0
 62
     5
370
    30
100
AcDbText
 10
9352.412547
 20
-14330.447918
 30
0.0
 40
1.125
  1
99'-6"
  7
STD SHEET
 11
9352.412547
 21
-14329.322918
 31
0.0
100
AcDbText
 73
     3
  0
TEXT
  5
18681
330
18CF0
100
AcDbEntity
  8
0
 62
     5
370
    30
100
AcDbText
 10
9364.073728
 20
-14326.560858
 30
0.0
 40
1.125
  1
100'-0"
  7
STD SHEET
 11
9364.073728
 21
-14325.435858
 31
0.0
100
AcDbText
 73
     3
  0
TEXT
  5
18682
330
18CF0
100
AcDbEntity
  8
0
 62
     5
370
    30
100
AcDbText
 10
9364.073728
 20
-14330.648973
 30
0.0
 40
1.125
  1
101'-6"
  7
STD SHEET
 11
9364.073728
 21
-14329.523973
 31
0.0
100
AcDbText
 73
     3
  0
TEXT
  5
188F2
330
18CF0
100
AcDbEntity
  8
0
 62
     5
370
    30
100
AcDbText
 10
9222.260627
 20
-14335.5625
 30
0.0
 40
1.125
  1
18
  7
STD SHEET
 72
     1
 11
9223.000281
 21
-14335.0
 31
0.0
100
AcDbText
 73
     2
  0
MTEXT
  5
188F3
330
18CF0
100
AcDbEntity
  8
0
370
    30
100
AcDbMText
 10
9223.0
 20
-14341.0
 30
0.0
 40
1.125
 41
0.0
 71
     5
 72
     1
  1
\C5;1,2,5,6,9,10,\P13,14
  7
STD SHEET
 73
     2
 44
1.133333
  0
MTEXT
  5
188F6
330
18CF0
100
AcDbEntity
  8
0
370
    30
100
AcDbMText
 10
9223.0
 20
-14347.0
 30
0.0
 40
1.125
 41
0.0
 71
     5
 72
     1
  1
\C5;15,16,21,22,\P27,28
  7
STD SHEET
 73
     2
 44
1.133333
  0
TEXT
  5
188F9
330
18CF0
100
AcDbEntity
  8
0
 62
     5
370
    30
100
AcDbText
 10
9220.626273
 20
-14365.5625
 30
0.0
 40
1.125
  1
33,34
  7
STD SHEET
 72
     1
 11
9223.000281
 21
-14365.0
 31
0.0
100
AcDbText
 73
     2
  0
TEXT
  5
188FA
330
18CF0
100
AcDbEntity
  8
0
 62
     5
370
    30
100
AcDbText
 10
9221.494399
 20
-14371.5625
 30
0.0
 40
1.125
  1
587
  7
STD SHEET
 72
     1
 11
9223.000281
 21
-14371.0
 31
0.0
100
AcDbText
 73
     2
  0
TEXT
  5
188FB
330
18CF0
100
AcDbEntity
  8
0
 62
     5
370
    30
100
AcDbText
 10
9221.698127
 20
-14377.5625
 30
0.0
 40
1.125
  1
531
  7
STD SHEET
 72
     1
 11
9223.000281
 21
-14377.0
 31
0.0
100
AcDbText
 73
     2
  0
TEXT
  5
188FC
330
18CF0
100
AcDbEntity
  8
0
 62
     5
370
    30
100
AcDbText
 10
9221.361602
 20
-14383.5625
 30
0.0
 40
1.125
  1
1861
  7
STD SHEET
 72
     1
 11
9223.000281
 21
-14383.0
 31
0.0
100
AcDbText
 73
     2
  0
TEXT
  5
188FD
330
18CF0
100
AcDbEntity
  8
0
 62
     5
370
    30
100
AcDbText
 10
9221.157805
 20
-14389.5625
 30
0.0
 40
1.125
  1
2179
  7
STD SHEET
 72
     1
 11
9223.000281
 21
-14389.0
 31
0.0
100
AcDbText
 73
     2
  0
MTEXT
  5
188FE
330
18CF0
100
AcDbEntity
  8
0
 62
     5
370
    30
100
AcDbMText
 10
9223.0
 20
-14417.0
 30
0.0
 40
1.125
 41
0.0
 71
     5
 72
     1
  1
3 - #4\Px 9'-0"
  7
STD SHEET
 73
     2
 44
1.133333
  0
MTEXT
  5
18901
330
18CF0
100
AcDbEntity
  8
0
 62
     5
370
    30
100
AcDbMText
 10
9223.0
 20
-14423.0
 30
0.0
 40
1.125
 41
0.0
 71
     5
 72
     1
  1
4 - #5\Px 9'-6"
  7
STD SHEET
 73
     2
 44
1.133333
  0
TEXT
  5
18904
330
18CF0
100
AcDbEntity
  8
0
 62
     5
370
    30
100
AcDbText
 10
9221.246383
 20
-14428.5625
 30
0.0
 40
1.125
  1
0.39
  7
STD SHEET
 72
     1
 11
9223.000281
 21
-14428.0
 31
0.0
100
AcDbText
 73
     2
  0
TEXT
  5
18905
330
18CF0
100
AcDbEntity
  8
0
 62
     5
370
    30
100
AcDbText
 10
9221.193236
 20
-14432.5625
 30
0.0
 40
1.125
  1
0.42
  7
STD SHEET
 72
     1
 11
9223.000281
 21
-14432.0
 31
0.0
100
AcDbText
 73
     2
  0
TEXT
  5
18906
330
18CF0
100
AcDbEntity
  8
0
 62
     5
370
    30
100
AcDbText
 10
9221.197699
 20
-14436.5625
 30
0.0
 40
1.125
  1
0.04
  7
STD SHEET
 72
     1
 11
9223.000281
 21
-14436.0
 31
0.0
100
AcDbText
 73
     2
  0
TEXT
  5
18908
330
18CF0
100
AcDbEntity
  8
0
 62
     5
370
    30
100
AcDbText
 10
9220.852179
 20
-14353.5625
 30
0.0
 40
1.125
  1
31,32
  7
STD SHEET
 72
     1
 11
9223.000281
 21
-14353.0
 31
0.0
100
AcDbText
 73
     2
  0
TEXT
  5
18909
330
18CF0
100
AcDbEntity
  8
0
 62
     5
370
    30
100
AcDbText
 10
9234.065757
 20
-14335.5625
 30
0.0
 40
1.125
  1
20
  7
STD SHEET
 72
     1
 11
9235.000281
 21
-14335.0
 31
0.0
100
AcDbText
 73
     2
  0
MTEXT
  5
1890A
330
18CF0
100
AcDbEntity
  8
0
370
    30
100
AcDbMText
 10
9235.0
 20
-14341.0
 30
0.0
 40
1.125
 41
0.0
 71
     5
 72
     1
  1
\C5;1,2,5,6,9,10,\P13,14
  7
STD SHEET
 73
     2
 44
1.133333
  0
MTEXT
  5
1890D
330
18CF0
100
AcDbEntity
  8
0
370
    30
100
AcDbMText
 10
9235.0
 20
-14347.0
 30
0.0
 40
1.125
 41
0.0
 71
     5
 72
     1
  1
\C5;15,16,19,20,\P23,24,27,28
  7
STD SHEET
 73
     2
 44
1.133333
  0
TEXT
  5
18910
330
18CF0
100
AcDbEntity
  8
0
 62
     5
370
    30
100
AcDbText
 10
9232.852179
 20
-14353.5625
 30
0.0
 40
1.125
  1
31,32
  7
STD SHEET
 72
     1
 11
9235.000281
 21
-14353.0
 31
0.0
100
AcDbText
 73
     2
  0
TEXT
  5
18911
330
18CF0
100
AcDbEntity
  8
0
 62
     5
370
    30
100
AcDbText
 10
9232.626273
 20
-14365.5625
 30
0.0
 40
1.125
  1
33,34
  7
STD SHEET
 72
     1
 11
9235.000281
 21
-14365.0
 31
0.0
100
AcDbText
 73
     2
  0
TEXT
  5
18912
330
18CF0
100
AcDbEntity
  8
0
 62
     5
370
    30
100
AcDbText
 10
9233.525435
 20
-14371.5625
 30
0.0
 40
1.125
  1
649
  7
STD SHEET
 72
     1
 11
9235.000281
 21
-14371.0
 31
0.0
100
AcDbText
 73
     2
  0
TEXT
  5
18913
330
18CF0
100
AcDbEntity
  8
0
 62
     5
370
    30
100
AcDbText
 10
9233.498794
 20
-14377.5625
 30
0.0
 40
1.125
  1
582
  7
STD SHEET
 72
     1
 11
9235.000281
 21
-14377.0
 31
0.0
100
AcDbText
 73
     2
  0
TEXT
  5
18914
330
18CF0
100
AcDbEntity
  8
0
 62
     5
370
    30
100
AcDbText
 10
9233.135695
 20
-14383.5625
 30
0.0
 40
1.125
  1
1945
  7
STD SHEET
 72
     1
 11
9235.000281
 21
-14383.0
 31
0.0
100
AcDbText
 73
     2
  0
TEXT
  5
18915
330
18CF0
100
AcDbEntity
  8
0
 62
     5
370
    30
100
AcDbText
 10
9232.914184
 20
-14389.5625
 30
0.0
 40
1.125
  1
2420
  7
STD SHEET
 72
     1
 11
9235.000281
 21
-14389.0
 31
0.0
100
AcDbText
 73
     2
  0
TEXT
  5
18916
330
18CF0
100
AcDbEntity
  8
0
 62
     5
370
    30
100
AcDbText
 10
9234.623794
 20
-14394.5625
 30
0.0
 40
1.125
  1
2
  7
STD SHEET
 72
     1
 11
9235.000281
 21
-14394.0
 31
0.0
100
AcDbText
 73
     2
  0
MTEXT
  5
1891A
330
18CF0
100
AcDbEntity
  8
0
370
    30
100
AcDbMText
 10
9235.0
 20
-14417.0
 30
0.0
 40
1.125
 41
0.0
 71
     5
 72
     1
  1
\C5;3 - #4\Px 9'-0"
  7
STD SHEET
 73
     2
 44
1.133333
  0
MTEXT
  5
1891D
330
18CF0
100
AcDbEntity
  8
0
 62
     5
370
    30
100
AcDbMText
 10
9235.0
 20
-14423.0
 30
0.0
 40
1.125
 41
0.0
 71
     5
 72
     1
  1
6 - #5\Px 9'-6"
  7
STD SHEET
 73
     2
 44
1.133333
  0
TEXT
  5
18920
330
18CF0
100
AcDbEntity
  8
0
 62
     5
370
    30
100
AcDbText
 10
9233.219809
 20
-14428.5625
 30
0.0
 40
1.125
  1
0.52
  7
STD SHEET
 72
     1
 11
9235.000281
 21
-14428.0
 31
0.0
100
AcDbText
 73
     2
  0
TEXT
  5
18921
330
18CF0
100
AcDbEntity
  8
0
 62
     5
370
    30
100
AcDbText
 10
9233.219878
 20
-14432.5625
 30
0.0
 40
1.125
  1
0.64
  7
STD SHEET
 72
     1
 11
9235.000281
 21
-14432.0
 31
0.0
100
AcDbText
 73
     2
  0
TEXT
  5
18922
330
18CF0
100
AcDbEntity
  8
0
 62
     5
370
    30
100
AcDbText
 10
9233.219809
 20
-14436.5625
 30
0.0
 40
1.125
  1
0.28
  7
STD SHEET
 72
     1
 11
9235.000281
 21
-14436.0
 31
0.0
100
AcDbText
 73
     2
  0
TEXT
  5
18925
330
18CF0
100
AcDbEntity
  8
0
 62
     5
370
    30
100
AcDbText
 10
9246.065757
 20
-14335.5625
 30
0.0
 40
1.125
  1
20
  7
STD SHEET
 72
     1
 11
9247.000281
 21
-14335.0
 31
0.0
100
AcDbText
 73
     2
  0
MTEXT
  5
18926
330
18CF0
100
AcDbEntity
  8
0
370
    30
100
AcDbMText
 10
9247.0
 20
-14341.0
 30
0.0
 40
1.125
 41
0.0
 71
     5
 72
     1
  1
\C5;1,2,5,6,9,10,\P13,14
  7
STD SHEET
 73
     2
 44
1.133333
  0
MTEXT
  5
18929
330
18CF0
100
AcDbEntity
  8
0
370
    30
100
AcDbMText
 10
9247.0
 20
-14347.0
 30
0.0
 40
1.125
 41
0.0
 71
     5
 72
     1
  1
\C5;15,16,19,20,\P23,24,27,28
  7
STD SHEET
 73
     2
 44
1.133333
  0
TEXT
  5
1892C
330
18CF0
100
AcDbEntity
  8
0
 62
     5
370
    30
100
AcDbText
 10
9244.852179
 20
-14353.5625
 30
0.0
 40
1.125
  1
31,32
  7
STD SHEET
 72
     1
 11
9247.000281
 21
-14353.0
 31
0.0
100
AcDbText
 73
     2
  0
TEXT
  5
1892D
330
18CF0
100
AcDbEntity
  8
0
 62
     5
370
    30
100
AcDbText
 10
9244.626273
 20
-14365.5625
 30
0.0
 40
1.125
  1
33,34
  7
STD SHEET
 72
     1
 11
9247.000281
 21
-14365.0
 31
0.0
100
AcDbText
 73
     2
  0
TEXT
  5
1892E
330
18CF0
100
AcDbEntity
  8
0
 62
     5
370
    30
100
AcDbText
 10
9245.529899
 20
-14371.5625
 30
0.0
 40
1.125
  1
650
  7
STD SHEET
 72
     1
 11
9247.000281
 21
-14371.0
 31
0.0
100
AcDbText
 73
     2
  0
TEXT
  5
1892F
330
18CF0
100
AcDbEntity
  8
0
 62
     5
370
    30
100
AcDbText
 10
9245.47222
 20
-14377.5625
 30
0.0
 40
1.125
  1
584
  7
STD SHEET
 72
     1
 11
9247.000281
 21
-14377.0
 31
0.0
100
AcDbText
 73
     2
  0
TEXT
  5
18930
330
18CF0
100
AcDbEntity
  8
0
 62
     5
370
    30
100
AcDbText
 10
9245.14009
 20
-14383.5625
 30
0.0
 40
1.125
  1
2031
  7
STD SHEET
 72
     1
 11
9247.000281
 21
-14383.0
 31
0.0
100
AcDbText
 73
     2
  0
TEXT
  5
18931
330
18CF0
100
AcDbEntity
  8
0
 62
     5
370
    30
100
AcDbText
 10
9244.914184
 20
-14389.5625
 30
0.0
 40
1.125
  1
2420
  7
STD SHEET
 72
     1
 11
9247.000281
 21
-14389.0
 31
0.0
100
AcDbText
 73
     2
  0
TEXT
  5
18932
330
18CF0
100
AcDbEntity
  8
0
 62
     5
370
    30
100
AcDbText
 10
9246.623794
 20
-14394.5625
 30
0.0
 40
1.125
  1
2
  7
STD SHEET
 72
     1
 11
9247.000281
 21
-14394.0
 31
0.0
100
AcDbText
 73
     2
  0
MTEXT
  5
18934
330
18CF0
100
AcDbEntity
  8
0
370
    30
100
AcDbMText
 10
9247.0
 20
-14417.0
 30
0.0
 40
1.125
 41
0.0
 71
     5
 72
     1
  1
\C5;3 - #4\Px 9'-6"
  7
STD SHEET
 73
     2
 44
1.133333
  0
MTEXT
  5
18937
330
18CF0
100
AcDbEntity
  8
0
 62
     5
370
    30
100
AcDbMText
 10
9247.0
 20
-14423.0
 30
0.0
 40
1.125
 41
0.0
 71
     5
 72
     1
  1
6 - #5\Px 10'-0"
  7
STD SHEET
 73
     2
 44
1.133333
  0
TEXT
  5
1893A
330
18CF0
100
AcDbEntity
  8
0
 62
     5
370
    30
100
AcDbText
 10
9245.224273
 20
-14428.5625
 30
0.0
 40
1.125
  1
0.50
  7
STD SHEET
 72
     1
 11
9247.000281
 21
-14428.0
 31
0.0
100
AcDbText
 73
     2
  0
TEXT
  5
1893B
330
18CF0
100
AcDbEntity
  8
0
 62
     5
370
    30
100
AcDbText
 10
9245.215415
 20
-14432.5625
 30
0.0
 40
1.125
  1
0.57
  7
STD SHEET
 72
     1
 11
9247.000281
 21
-14432.0
 31
0.0
100
AcDbText
 73
     2
  0
TEXT
  5
1893C
330
18CF0
100
AcDbEntity
  8
0
 62
     5
370
    30
100
AcDbText
 10
9245.419143
 20
-14436.5625
 30
0.0
 40
1.125
  1
0.12
  7
STD SHEET
 72
     1
 11
9247.000281
 21
-14436.0
 31
0.0
100
AcDbText
 73
     2
  0
TEXT
  5
1893E
330
18CF0
100
AcDbEntity
  8
0
 62
     5
370
    30
100
AcDbText
 10
9258.061294
 20
-14335.5625
 30
0.0
 40
1.125
  1
22
  7
STD SHEET
 72
     1
 11
9259.000281
 21
-14335.0
 31
0.0
100
AcDbText
 73
     2
  0
MTEXT
  5
1893F
330
18CF0
100
AcDbEntity
  8
0
370
    30
100
AcDbMText
 10
9259.0
 20
-14341.0
 30
0.0
 40
1.125
 41
0.0
 71
     5
 72
     1
  1
\C5;1,2,3,4,7,8,\P11,12,13,14
  7
STD SHEET
 73
     2
 44
1.133333
  0
MTEXT
  5
18942
330
18CF0
100
AcDbEntity
  8
0
370
    30
100
AcDbMText
 10
9259.0
 20
-14347.0
 30
0.0
 40
1.125
 41
0.0
 71
     5
 72
     1
  1
\C5;15,16,19,20,\P23,24,27,28
  7
STD SHEET
 73
     2
 44
1.133333
  0
TEXT
  5
18945
330
18CF0
100
AcDbEntity
  8
0
 62
     5
370
    30
100
AcDbText
 10
9256.852179
 20
-14353.5625
 30
0.0
 40
1.125
  1
31,32
  7
STD SHEET
 72
     1
 11
9259.000281
 21
-14353.0
 31
0.0
100
AcDbText
 73
     2
  0
TEXT
  5
18946
330
18CF0
100
AcDbEntity
  8
0
 62
     5
370
    30
100
AcDbText
 10
9256.626273
 20
-14365.5625
 30
0.0
 40
1.125
  1
33,34
  7
STD SHEET
 72
     1
 11
9259.000281
 21
-14365.0
 31
0.0
100
AcDbText
 73
     2
  0
TEXT
  5
18947
330
18CF0
100
AcDbEntity
  8
0
 62
     5
370
    30
100
AcDbText
 10
9257.893065
 20
-14371.5625
 30
0.0
 40
1.125
  1
711
  7
STD SHEET
 72
     1
 11
9259.000281
 21
-14371.0
 31
0.0
100
AcDbText
 73
     2
  0
TEXT
  5
18948
330
18CF0
100
AcDbEntity
  8
0
 62
     5
370
    30
100
AcDbText
 10
9257.525435
 20
-14377.5625
 30
0.0
 40
1.125
  1
632
  7
STD SHEET
 72
     1
 11
9259.000281
 21
-14377.0
 31
0.0
100
AcDbText
 73
     2
  0
TEXT
  5
18949
330
18CF0
100
AcDbEntity
  8
0
 62
     5
370
    30
100
AcDbText
 10
9257.33496
 20
-14383.5625
 30
0.0
 40
1.125
  1
2118
  7
STD SHEET
 72
     1
 11
9259.000281
 21
-14383.0
 31
0.0
100
AcDbText
 73
     2
  0
TEXT
  5
1894A
330
18CF0
100
AcDbEntity
  8
0
 62
     5
370
    30
100
AcDbText
 10
9256.967399
 20
-14389.5625
 30
0.0
 40
1.125
  1
2603
  7
STD SHEET
 72
     1
 11
9259.000281
 21
-14389.0
 31
0.0
100
AcDbText
 73
     2
  0
TEXT
  5
1894B
330
18CF0
100
AcDbEntity
  8
0
 62
     5
370
    30
100
AcDbText
 10
9258.59722
 20
-14394.5625
 30
0.0
 40
1.125
  1
4
  7
STD SHEET
 72
     1
 11
9259.000281
 21
-14394.0
 31
0.0
100
AcDbText
 73
     2
  0
MTEXT
  5
1894D
330
18CF0
100
AcDbEntity
  8
0
370
    30
100
AcDbMText
 10
9259.0
 20
-14409.0
 30
0.0
 40
1.125
 41
0.0
 71
     5
 72
     1
  1
\C5;23,24\P@ 3'-0"
  7
STD SHEET
 73
     2
 44
1.133333
  0
MTEXT
  5
18950
330
18CF0
100
AcDbEntity
  8
0
370
    30
100
AcDbMText
 10
9259.0
 20
-14417.0
 30
0.0
 40
1.125
 41
0.0
 71
     5
 72
     1
  1
\C5;3 - #4\Px 9'-6"
  7
STD SHEET
 73
     2
 44
1.133333
  0
MTEXT
  5
18953
330
18CF0
100
AcDbEntity
  8
0
 62
     5
370
    30
100
AcDbMText
 10
9259.0
 20
-14423.0
 30
0.0
 40
1.125
 41
0.0
 71
     5
 72
     1
  1
6 - #5\Px 10'-0"
  7
STD SHEET
 73
     2
 44
1.133333
  0
TEXT
  5
18956
330
18CF0
100
AcDbEntity
  8
0
 62
     5
370
    30
100
AcDbText
 10
9257.242057
 20
-14428.5625
 30
0.0
 40
1.125
  1
0.67
  7
STD SHEET
 72
     1
 11
9259.000281
 21
-14428.0
 31
0.0
100
AcDbText
 73
     2
  0
TEXT
  5
18957
330
18CF0
100
AcDbEntity
  8
0
 62
     5
370
    30
100
AcDbText
 10
9257.193236
 20
-14432.5625
 30
0.0
 40
1.125
  1
0.84
  7
STD SHEET
 72
     1
 11
9259.000281
 21
-14432.0
 31
0.0
100
AcDbText
 73
     2
  0
TEXT
  5
18958
330
18CF0
100
AcDbEntity
  8
0
 62
     5
370
    30
100
AcDbText
 10
9257.193236
 20
-14436.5625
 30
0.0
 40
1.125
  1
0.43
  7
STD SHEET
 72
     1
 11
9259.000281
 21
-14436.0
 31
0.0
100
AcDbText
 73
     2
  0
TEXT
  5
1895A
330
18CF0
100
AcDbEntity
  8
0
 62
     5
370
    30
100
AcDbText
 10
9270.061294
 20
-14335.5625
 30
0.0
 40
1.125
  1
22
  7
STD SHEET
 72
     1
 11
9271.000281
 21
-14335.0
 31
0.0
100
AcDbText
 73
     2
  0
MTEXT
  5
1895B
330
18CF0
100
AcDbEntity
  8
0
370
    30
100
AcDbMText
 10
9271.0
 20
-14341.0
 30
0.0
 40
1.125
 41
0.0
 71
     5
 72
     1
  1
\C5;1,2,3,4,7,8,\P11,12,13,14
  7
STD SHEET
 73
     2
 44
1.133333
  0
MTEXT
  5
1895E
330
18CF0
100
AcDbEntity
  8
0
370
    30
100
AcDbMText
 10
9271.0
 20
-14347.0
 30
0.0
 40
1.125
 41
0.0
 71
     5
 72
     1
  1
\C5;15,16,19,20,\P23,24,27,28
  7
STD SHEET
 73
     2
 44
1.133333
  0
TEXT
  5
18961
330
18CF0
100
AcDbEntity
  8
0
 62
     5
370
    30
100
AcDbText
 10
9268.852179
 20
-14353.5625
 30
0.0
 40
1.125
  1
31,32
  7
STD SHEET
 72
     1
 11
9271.000281
 21
-14353.0
 31
0.0
100
AcDbText
 73
     2
  0
TEXT
  5
18962
330
18CF0
100
AcDbEntity
  8
0
 62
     5
370
    30
100
AcDbText
 10
9268.626273
 20
-14365.5625
 30
0.0
 40
1.125
  1
33,34
  7
STD SHEET
 72
     1
 11
9271.000281
 21
-14365.0
 31
0.0
100
AcDbText
 73
     2
  0
TEXT
  5
18963
330
18CF0
100
AcDbEntity
  8
0
 62
     5
370
    30
100
AcDbText
 10
9269.693732
 20
-14371.5625
 30
0.0
 40
1.125
  1
712
  7
STD SHEET
 72
     1
 11
9271.000281
 21
-14371.0
 31
0.0
100
AcDbText
 73
     2
  0
TEXT
  5
18964
330
18CF0
100
AcDbEntity
  8
0
 62
     5
370
    30
100
AcDbText
 10
9269.525435
 20
-14377.5625
 30
0.0
 40
1.125
  1
635
  7
STD SHEET
 72
     1
 11
9271.000281
 21
-14377.0
 31
0.0
100
AcDbText
 73
     2
  0
TEXT
  5
18965
330
18CF0
100
AcDbEntity
  8
0
 62
     5
370
    30
100
AcDbText
 10
9268.936362
 20
-14383.5625
 30
0.0
 40
1.125
  1
2207
  7
STD SHEET
 72
     1
 11
9271.000281
 21
-14383.0
 31
0.0
100
AcDbText
 73
     2
  0
TEXT
  5
18966
330
18CF0
100
AcDbEntity
  8
0
 62
     5
370
    30
100
AcDbText
 10
9268.967399
 20
-14389.5625
 30
0.0
 40
1.125
  1
2603
  7
STD SHEET
 72
     1
 11
9271.000281
 21
-14389.0
 31
0.0
100
AcDbText
 73
     2
  0
TEXT
  5
18967
330
18CF0
100
AcDbEntity
  8
0
 62
     5
370
    30
100
AcDbText
 10
9270.59722
 20
-14394.5625
 30
0.0
 40
1.125
  1
4
  7
STD SHEET
 72
     1
 11
9271.000281
 21
-14394.0
 31
0.0
100
AcDbText
 73
     2
  0
MTEXT
  5
18968
330
18CF0
100
AcDbEntity
  8
0
370
    30
100
AcDbMText
 10
9271.0
 20
-14400.0
 30
0.0
 40
1.125
 41
0.0
 71
     5
 72
     1
  1
\C5;3,4\P@ 5'-0"
  7
STD SHEET
 73
     2
 44
1.133333
  0
MTEXT
  5
1896E
330
18CF0
100
AcDbEntity
  8
0
370
    30
100
AcDbMText
 10
9271.0
 20
-14409.0
 30
0.0
 40
1.125
 41
0.0
 71
     5
 72
     1
  1
\C5;23,24\P@ 3'-0"
  7
STD SHEET
 73
     2
 44
1.133333
  0
MTEXT
  5
18971
330
18CF0
100
AcDbEntity
  8
0
370
    30
100
AcDbMText
 10
9271.0
 20
-14417.0
 30
0.0
 40
1.125
 41
0.0
 71
     5
 72
     1
  1
\C5;3 - #4\Px 10'-0"
  7
STD SHEET
 73
     2
 44
1.133333
  0
MTEXT
  5
18974
330
18CF0
100
AcDbEntity
  8
0
 62
     5
370
    30
100
AcDbMText
 10
9271.0
 20
-14423.0
 30
0.0
 40
1.125
 41
0.0
 71
     5
 72
     1
  1
6 - #5\Px 10'-6"
  7
STD SHEET
 73
     2
 44
1.133333
  0
TEXT
  5
18977
330
18CF0
100
AcDbEntity
  8
0
 62
     5
370
    30
100
AcDbText
 10
9269.246451
 20
-14428.5625
 30
0.0
 40
1.125
  1
0.65
  7
STD SHEET
 72
     1
 11
9271.000281
 21
-14428.0
 31
0.0
100
AcDbText
 73
     2
  0
TEXT
  5
18978
330
18CF0
100
AcDbEntity
  8
0
 62
     5
370
    30
100
AcDbText
 10
9269.21102
 20
-14432.5625
 30
0.0
 40
1.125
  1
0.77
  7
STD SHEET
 72
     1
 11
9271.000281
 21
-14432.0
 31
0.0
100
AcDbText
 73
     2
  0
TEXT
  5
18979
330
18CF0
100
AcDbEntity
  8
0
 62
     5
370
    30
100
AcDbText
 10
9269.246383
 20
-14436.5625
 30
0.0
 40
1.125
  1
0.26
  7
STD SHEET
 72
     1
 11
9271.000281
 21
-14436.0
 31
0.0
100
AcDbText
 73
     2
  0
TEXT
  5
1897B
330
18CF0
100
AcDbEntity
  8
0
 62
     5
370
    30
100
AcDbText
 10
9282.061294
 20
-14335.5625
 30
0.0
 40
1.125
  1
22
  7
STD SHEET
 72
     1
 11
9283.000281
 21
-14335.0
 31
0.0
100
AcDbText
 73
     2
  0
MTEXT
  5
1897C
330
18CF0
100
AcDbEntity
  8
0
370
    30
100
AcDbMText
 10
9283.0
 20
-14341.0
 30
0.0
 40
1.125
 41
0.0
 71
     5
 72
     1
  1
\C5;1,2,3,4,7,8,\P11,12,13,14
  7
STD SHEET
 73
     2
 44
1.133333
  0
MTEXT
  5
1897F
330
18CF0
100
AcDbEntity
  8
0
370
    30
100
AcDbMText
 10
9283.0
 20
-14347.0
 30
0.0
 40
1.125
 41
0.0
 71
     5
 72
     1
  1
\C5;15,16,19,20,\P23,24,27,28
  7
STD SHEET
 73
     2
 44
1.133333
  0
TEXT
  5
18982
330
18CF0
100
AcDbEntity
  8
0
 62
     5
370
    30
100
AcDbText
 10
9280.852179
 20
-14353.5625
 30
0.0
 40
1.125
  1
31,32
  7
STD SHEET
 72
     1
 11
9283.000281
 21
-14353.0
 31
0.0
100
AcDbText
 73
     2
  0
TEXT
  5
18983
330
18CF0
100
AcDbEntity
  8
0
 62
     5
370
    30
100
AcDbText
 10
9280.626273
 20
-14365.5625
 30
0.0
 40
1.125
  1
33,34
  7
STD SHEET
 72
     1
 11
9283.000281
 21
-14365.0
 31
0.0
100
AcDbText
 73
     2
  0
TEXT
  5
18984
330
18CF0
100
AcDbEntity
  8
0
 62
     5
370
    30
100
AcDbText
 10
9281.693732
 20
-14371.5625
 30
0.0
 40
1.125
  1
713
  7
STD SHEET
 72
     1
 11
9283.000281
 21
-14371.0
 31
0.0
100
AcDbText
 73
     2
  0
TEXT
  5
18985
330
18CF0
100
AcDbEntity
  8
0
 62
     5
370
    30
100
AcDbText
 10
9281.521041
 20
-14377.5625
 30
0.0
 40
1.125
  1
637
  7
STD SHEET
 72
     1
 11
9283.000281
 21
-14377.0
 31
0.0
100
AcDbText
 73
     2
  0
TEXT
  5
18986
330
18CF0
100
AcDbEntity
  8
0
 62
     5
370
    30
100
AcDbText
 10
9280.958541
 20
-14383.5625
 30
0.0
 40
1.125
  1
2297
  7
STD SHEET
 72
     1
 11
9283.000281
 21
-14383.0
 31
0.0
100
AcDbText
 73
     2
  0
TEXT
  5
18987
330
18CF0
100
AcDbEntity
  8
0
 62
     5
370
    30
100
AcDbText
 10
9280.967399
 20
-14389.5625
 30
0.0
 40
1.125
  1
2603
  7
STD SHEET
 72
     1
 11
9283.000281
 21
-14389.0
 31
0.0
100
AcDbText
 73
     2
  0
TEXT
  5
18988
330
18CF0
100
AcDbEntity
  8
0
 62
     5
370
    30
100
AcDbText
 10
9282.59722
 20
-14394.5625
 30
0.0
 40
1.125
  1
4
  7
STD SHEET
 72
     1
 11
9283.000281
 21
-14394.0
 31
0.0
100
AcDbText
 73
     2
  0
MTEXT
  5
18989
330
18CF0
100
AcDbEntity
  8
0
370
    30
100
AcDbMText
 10
9283.0
 20
-14400.0
 30
0.0
 40
1.125
 41
0.0
 71
     5
 72
     1
  1
\C5;3,4\P@ 5'-0"
  7
STD SHEET
 73
     2
 44
1.133333
  0
MTEXT
  5
1898C
330
18CF0
100
AcDbEntity
  8
0
370
    30
100
AcDbMText
 10
9283.0
 20
-14409.0
 30
0.0
 40
1.125
 41
0.0
 71
     5
 72
     1
  1
\C5;23,24\P@ 3'-0"
  7
STD SHEET
 73
     2
 44
1.133333
  0
MTEXT
  5
1898F
330
18CF0
100
AcDbEntity
  8
0
370
    30
100
AcDbMText
 10
9283.0
 20
-14417.0
 30
0.0
 40
1.125
 41
0.0
 71
     5
 72
     1
  1
\C5;3 - #4\Px 10'-0"
  7
STD SHEET
 73
     2
 44
1.133333
  0
MTEXT
  5
18992
330
18CF0
100
AcDbEntity
  8
0
 62
     5
370
    30
100
AcDbMText
 10
9283.0
 20
-14423.0
 30
0.0
 40
1.125
 41
0.0
 71
     5
 72
     1
  1
6 - #5\Px 10'-6"
  7
STD SHEET
 73
     2
 44
1.133333
  0
TEXT
  5
18995
330
18CF0
100
AcDbEntity
  8
0
 62
     5
370
    30
100
AcDbText
 10
9281.246451
 20
-14428.5625
 30
0.0
 40
1.125
  1
0.62
  7
STD SHEET
 72
     1
 11
9283.000281
 21
-14428.0
 31
0.0
100
AcDbText
 73
     2
  0
TEXT
  5
18996
330
18CF0
100
AcDbEntity
  8
0
 62
     5
370
    30
100
AcDbText
 10
9281.246451
 20
-14432.5625
 30
0.0
 40
1.125
  1
0.68
  7
STD SHEET
 72
     1
 11
9283.000281
 21
-14432.0
 31
0.0
100
AcDbText
 73
     2
  0
TEXT
  5
18997
330
18CF0
100
AcDbEntity
  8
0
 62
     5
370
    30
100
AcDbText
 10
9281.250846
 20
-14436.5625
 30
0.0
 40
1.125
  1
0.06
  7
STD SHEET
 72
     1
 11
9283.000281
 21
-14436.0
 31
0.0
100
AcDbText
 73
     2
  0
TEXT
  5
18999
330
18CF0
100
AcDbEntity
  8
0
 62
     5
370
    30
100
AcDbText
 10
9294.03472
 20
-14335.5625
 30
0.0
 40
1.125
  1
24
  7
STD SHEET
 72
     1
 11
9295.000281
 21
-14335.0
 31
0.0
100
AcDbText
 73
     2
  0
MTEXT
  5
1899A
330
18CF0
100
AcDbEntity
  8
0
370
    30
100
AcDbMText
 10
9295.0
 20
-14341.0
 30
0.0
 40
1.125
 41
0.0
 71
     5
 72
     1
  1
\C5;1,2,3,4,7,8,\P11,12,13,14
  7
STD SHEET
 73
     2
 44
1.133333
  0
MTEXT
  5
1899D
330
18CF0
100
AcDbEntity
  8
0
370
    30
100
AcDbMText
 10
9295.0
 20
-14347.0
 30
0.0
 40
1.125
 41
0.0
 71
     5
 72
     1
  1
\C5;15,16,17,18,\P21,22,25,26,\P27,28
  7
STD SHEET
 73
     2
 44
1.133333
  0
TEXT
  5
189A1
330
18CF0
100
AcDbEntity
  8
0
 62
     5
370
    30
100
AcDbText
 10
9292.852179
 20
-14353.5625
 30
0.0
 40
1.125
  1
31,32
  7
STD SHEET
 72
     1
 11
9295.000281
 21
-14353.0
 31
0.0
100
AcDbText
 73
     2
  0
TEXT
  5
189A2
330
18CF0
100
AcDbEntity
  8
0
 62
     5
370
    30
100
AcDbText
 10
9292.626273
 20
-14365.5625
 30
0.0
 40
1.125
  1
33,34
  7
STD SHEET
 72
     1
 11
9295.000281
 21
-14365.0
 31
0.0
100
AcDbText
 73
     2
  0
TEXT
  5
189A3
330
18CF0
100
AcDbEntity
  8
0
 62
     5
370
    30
100
AcDbText
 10
9293.463431
 20
-14371.5625
 30
0.0
 40
1.125
  1
774
  7
STD SHEET
 72
     1
 11
9295.000281
 21
-14371.0
 31
0.0
100
AcDbText
 73
     2
  0
TEXT
  5
189A4
330
18CF0
100
AcDbEntity
  8
0
 62
     5
370
    30
100
AcDbText
 10
9293.525435
 20
-14377.5625
 30
0.0
 40
1.125
  1
685
  7
STD SHEET
 72
     1
 11
9295.000281
 21
-14377.0
 31
0.0
100
AcDbText
 73
     2
  0
TEXT
  5
189A5
330
18CF0
100
AcDbEntity
  8
0
 62
     5
370
    30
100
AcDbText
 10
9292.936294
 20
-14383.5625
 30
0.0
 40
1.125
  1
2388
  7
STD SHEET
 72
     1
 11
9295.000281
 21
-14383.0
 31
0.0
100
AcDbText
 73
     2
  0
TEXT
  5
189A6
330
18CF0
100
AcDbEntity
  8
0
 62
     5
370
    30
100
AcDbText
 10
9292.940757
 20
-14389.5625
 30
0.0
 40
1.125
  1
2803
  7
STD SHEET
 72
     1
 11
9295.000281
 21
-14389.0
 31
0.0
100
AcDbText
 73
     2
  0
TEXT
  5
189A7
330
18CF0
100
AcDbEntity
  8
0
 62
     5
370
    30
100
AcDbText
 10
9294.59722
 20
-14394.5625
 30
0.0
 40
1.125
  1
4
  7
STD SHEET
 72
     1
 11
9295.000281
 21
-14394.0
 31
0.0
100
AcDbText
 73
     2
  0
MTEXT
  5
189A8
330
18CF0
100
AcDbEntity
  8
0
370
    30
100
AcDbMText
 10
9295.0
 20
-14400.0
 30
0.0
 40
1.125
 41
0.0
 71
     5
 72
     1
  1
\C5;3,4\P@ 5'-0"
  7
STD SHEET
 73
     2
 44
1.133333
  0
MTEXT
  5
189AB
330
18CF0
100
AcDbEntity
  8
0
370
    30
100
AcDbMText
 10
9295.0
 20
-14409.0
 30
0.0
 40
1.125
 41
0.0
 71
     5
 72
     1
  1
\C5;25,26\P@ 3'-0"
  7
STD SHEET
 73
     2
 44
1.133333
  0
MTEXT
  5
189AE
330
18CF0
100
AcDbEntity
  8
0
370
    30
100
AcDbMText
 10
9295.0
 20
-14417.0
 30
0.0
 40
1.125
 41
0.0
 71
     5
 72
     1
  1
\C5;3 - #4\Px 10'-0"
  7
STD SHEET
 73
     2
 44
1.133333
  0
MTEXT
  5
189B1
330
18CF0
100
AcDbEntity
  8
0
 62
     5
370
    30
100
AcDbMText
 10
9295.0
 20
-14423.0
 30
0.0
 40
1.125
 41
0.0
 71
     5
 72
     1
  1
4 - #5\Px 10'-6"
  7
STD SHEET
 73
     2
 44
1.133333
  0
TEXT
  5
189B4
330
18CF0
100
AcDbEntity
  8
0
 62
     5
370
    30
100
AcDbText
 10
9293.241988
 20
-14428.5625
 30
0.0
 40
1.125
  1
0.79
  7
STD SHEET
 72
     1
 11
9295.000281
 21
-14428.0
 31
0.0
100
AcDbText
 73
     2
  0
TEXT
  5
189B5
330
18CF0
100
AcDbEntity
  8
0
 62
     5
370
    30
100
AcDbText
 10
9293.219878
 20
-14432.5625
 30
0.0
 40
1.125
  1
0.94
  7
STD SHEET
 72
     1
 11
9295.000281
 21
-14432.0
 31
0.0
100
AcDbText
 73
     2
  0
TEXT
  5
189B6
330
18CF0
100
AcDbEntity
  8
0
 62
     5
370
    30
100
AcDbText
 10
9293.193236
 20
-14436.5625
 30
0.0
 40
1.125
  1
0.34
  7
STD SHEET
 72
     1
 11
9295.000281
 21
-14436.0
 31
0.0
100
AcDbText
 73
     2
  0
TEXT
  5
189B8
330
18CF0
100
AcDbEntity
  8
0
 62
     5
370
    30
100
AcDbText
 10
9306.03472
 20
-14335.5625
 30
0.0
 40
1.125
  1
24
  7
STD SHEET
 72
     1
 11
9307.000281
 21
-14335.0
 31
0.0
100
AcDbText
 73
     2
  0
MTEXT
  5
189B9
330
18CF0
100
AcDbEntity
  8
0
370
    30
100
AcDbMText
 10
9307.0
 20
-14341.0
 30
0.0
 40
1.125
 41
0.0
 71
     5
 72
     1
  1
\C5;1,2,3,4,7,8,\P11,12,13,14
  7
STD SHEET
 73
     2
 44
1.133333
  0
MTEXT
  5
189BC
330
18CF0
100
AcDbEntity
  8
0
370
    30
100
AcDbMText
 10
9307.0
 20
-14347.0
 30
0.0
 40
1.125
 41
0.0
 71
     5
 72
     1
  1
\C5;15,16,17,18,\P21,22,25,26,\P27,28
  7
STD SHEET
 73
     2
 44
1.133333
  0
TEXT
  5
189C0
330
18CF0
100
AcDbEntity
  8
0
 62
     5
370
    30
100
AcDbText
 10
9304.852179
 20
-14353.5625
 30
0.0
 40
1.125
  1
31,32
  7
STD SHEET
 72
     1
 11
9307.000281
 21
-14353.0
 31
0.0
100
AcDbText
 73
     2
  0
TEXT
  5
189C1
330
18CF0
100
AcDbEntity
  8
0
 62
     5
370
    30
100
AcDbText
 10
9304.626273
 20
-14365.5625
 30
0.0
 40
1.125
  1
33,34
  7
STD SHEET
 72
     1
 11
9307.000281
 21
-14365.0
 31
0.0
100
AcDbText
 73
     2
  0
TEXT
  5
189C2
330
18CF0
100
AcDbEntity
  8
0
 62
     5
370
    30
100
AcDbText
 10
9305.490004
 20
-14371.5625
 30
0.0
 40
1.125
  1
775
  7
STD SHEET
 72
     1
 11
9307.000281
 21
-14371.0
 31
0.0
100
AcDbText
 73
     2
  0
TEXT
  5
189C3
330
18CF0
100
AcDbEntity
  8
0
 62
     5
370
    30
100
AcDbText
 10
9305.525435
 20
-14377.5625
 30
0.0
 40
1.125
  1
688
  7
STD SHEET
 72
     1
 11
9307.000281
 21
-14377.0
 31
0.0
100
AcDbText
 73
     2
  0
TEXT
  5
189C4
330
18CF0
100
AcDbEntity
  8
0
 62
     5
370
    30
100
AcDbText
 10
9304.90972
 20
-14383.5625
 30
0.0
 40
1.125
  1
2482
  7
STD SHEET
 72
     1
 11
9307.000281
 21
-14383.0
 31
0.0
100
AcDbText
 73
     2
  0
TEXT
  5
189C5
330
18CF0
100
AcDbEntity
  8
0
 62
     5
370
    30
100
AcDbText
 10
9304.940757
 20
-14389.5625
 30
0.0
 40
1.125
  1
2803
  7
STD SHEET
 72
     1
 11
9307.000281
 21
-14389.0
 31
0.0
100
AcDbText
 73
     2
  0
TEXT
  5
189C6
330
18CF0
100
AcDbEntity
  8
0
 62
     5
370
    30
100
AcDbText
 10
9306.59722
 20
-14394.5625
 30
0.0
 40
1.125
  1
4
  7
STD SHEET
 72
     1
 11
9307.000281
 21
-14394.0
 31
0.0
100
AcDbText
 73
     2
  0
MTEXT
  5
189C7
330
18CF0
100
AcDbEntity
  8
0
370
    30
100
AcDbMText
 10
9307.0
 20
-14400.0
 30
0.0
 40
1.125
 41
0.0
 71
     5
 72
     1
  1
\C5;3,4\P@ 5'-0"
  7
STD SHEET
 73
     2
 44
1.133333
  0
MTEXT
  5
189CA
330
18CF0
100
AcDbEntity
  8
0
370
    30
100
AcDbMText
 10
9307.0
 20
-14409.0
 30
0.0
 40
1.125
 41
0.0
 71
     5
 72
     1
  1
\C5;25,26\P@ 3'-0"
  7
STD SHEET
 73
     2
 44
1.133333
  0
MTEXT
  5
189CD
330
18CF0
100
AcDbEntity
  8
0
370
    30
100
AcDbMText
 10
9307.0
 20
-14417.016336
 30
0.0
 40
1.125
 41
0.0
 71
     5
 72
     1
  1
\C5;3 - #4\Px 10'-6"
  7
STD SHEET
 73
     2
 44
1.133333
  0
MTEXT
  5
189D0
330
18CF0
100
AcDbEntity
  8
0
 62
     5
370
    30
100
AcDbMText
 10
9307.0
 20
-14422.980962
 30
0.0
 40
1.125
 41
0.0
 71
     5
 72
     1
  1
4 - #5\Px 11'-0"
  7
STD SHEET
 73
     2
 44
1.133333
  0
TEXT
  5
189D3
330
18CF0
100
AcDbEntity
  8
0
 62
     5
370
    30
100
AcDbText
 10
9305.241988
 20
-14428.569833
 30
0.0
 40
1.125
  1
0.76
  7
STD SHEET
 72
     1
 11
9307.000281
 21
-14428.007333
 31
0.0
100
AcDbText
 73
     2
  0
TEXT
  5
189D4
330
18CF0
100
AcDbEntity
  8
0
 62
     5
370
    30
100
AcDbText
 10
9305.193236
 20
-14432.59093
 30
0.0
 40
1.125
  1
0.84
  7
STD SHEET
 72
     1
 11
9307.000281
 21
-14432.02843
 31
0.0
100
AcDbText
 73
     2
  0
TEXT
  5
189D5
330
18CF0
100
AcDbEntity
  8
0
 62
     5
370
    30
100
AcDbText
 10
9305.419143
 20
-14436.545009
 30
0.0
 40
1.125
  1
0.12
  7
STD SHEET
 72
     1
 11
9307.000281
 21
-14435.982509
 31
0.0
100
AcDbText
 73
     2
  0
TEXT
  5
189D7
330
18CF0
100
AcDbEntity
  8
0
 62
     5
370
    30
100
AcDbText
 10
9318.087867
 20
-14335.5625
 30
0.0
 40
1.125
  1
26
  7
STD SHEET
 72
     1
 11
9319.000281
 21
-14335.0
 31
0.0
100
AcDbText
 73
     2
  0
MTEXT
  5
189D8
330
18CF0
100
AcDbEntity
  8
0
370
    30
100
AcDbMText
 10
9319.0
 20
-14341.0
 30
0.0
 40
1.125
 41
0.0
 71
     5
 72
     1
  1
\C5;1,2,3,4,5,6,9,\P10,11,12,13,14
  7
STD SHEET
 73
     2
 44
1.133333
  0
MTEXT
  5
189DB
330
18CF0
100
AcDbEntity
  8
0
370
    30
100
AcDbMText
 10
9319.0
 20
-14347.0
 30
0.0
 40
1.125
 41
0.0
 71
     5
 72
     1
  1
\C5;15,16,17,18,\P21,22,25,26,\P27,28
  7
STD SHEET
 73
     2
 44
1.133333
  0
TEXT
  5
189DF
330
18CF0
100
AcDbEntity
  8
0
 62
     5
370
    30
100
AcDbText
 10
9316.852179
 20
-14353.5625
 30
0.0
 40
1.125
  1
31,32
  7
STD SHEET
 72
     1
 11
9319.000281
 21
-14353.0
 31
0.0
100
AcDbText
 73
     2
  0
TEXT
  5
189E0
330
18CF0
100
AcDbEntity
  8
0
 62
     5
370
    30
100
AcDbText
 10
9316.626273
 20
-14365.5625
 30
0.0
 40
1.125
  1
33,34
  7
STD SHEET
 72
     1
 11
9319.000281
 21
-14365.0
 31
0.0
100
AcDbText
 73
     2
  0
TEXT
  5
189E1
330
18CF0
100
AcDbEntity
  8
0
 62
     5
370
    30
100
AcDbText
 10
9317.498794
 20
-14371.5625
 30
0.0
 40
1.125
  1
835
  7
STD SHEET
 72
     1
 11
9319.000281
 21
-14371.0
 31
0.0
100
AcDbText
 73
     2
  0
TEXT
  5
189E2
330
18CF0
100
AcDbEntity
  8
0
 62
     5
370
    30
100
AcDbText
 10
9317.467826
 20
-14377.5625
 30
0.0
 40
1.125
  1
734
  7
STD SHEET
 72
     1
 11
9319.000281
 21
-14377.0
 31
0.0
100
AcDbText
 73
     2
  0
TEXT
  5
189E3
330
18CF0
100
AcDbEntity
  8
0
 62
     5
370
    30
100
AcDbText
 10
9316.936294
 20
-14383.5625
 30
0.0
 40
1.125
  1
2585
  7
STD SHEET
 72
     1
 11
9319.000281
 21
-14383.0
 31
0.0
100
AcDbText
 73
     2
  0
TEXT
  5
189E4
330
18CF0
100
AcDbEntity
  8
0
 62
     5
370
    30
100
AcDbText
 10
9316.940825
 20
-14389.5625
 30
0.0
 40
1.125
  1
3007
  7
STD SHEET
 72
     1
 11
9319.000281
 21
-14389.0
 31
0.0
100
AcDbText
 73
     2
  0
TEXT
  5
189E5
330
18CF0
100
AcDbEntity
  8
0
 62
     5
370
    30
100
AcDbText
 10
9318.650367
 20
-14394.5625
 30
0.0
 40
1.125
  1
6
  7
STD SHEET
 72
     1
 11
9319.000281
 21
-14394.0
 31
0.0
100
AcDbText
 73
     2
  0
MTEXT
  5
189E6
330
18CF0
100
AcDbEntity
  8
0
370
    30
100
AcDbMText
 10
9319.0
 20
-14400.0
 30
0.0
 40
1.125
 41
0.0
 71
     5
 72
     1
  1
\C5;3,4,9,10\P@ 5'-0"
  7
STD SHEET
 73
     2
 44
1.133333
  0
MTEXT
  5
189E9
330
18CF0
100
AcDbEntity
  8
0
370
    30
100
AcDbMText
 10
9319.0
 20
-14409.0
 30
0.0
 40
1.125
 41
0.0
 71
     5
 72
     1
  1
\C5;25,26\P@ 3'-0"
  7
STD SHEET
 73
     2
 44
1.133333
  0
MTEXT
  5
189EC
330
18CF0
100
AcDbEntity
  8
0
370
    30
100
AcDbMText
 10
9319.0
 20
-14417.0
 30
0.0
 40
1.125
 41
0.0
 71
     5
 72
     1
  1
\C5;3 - #4\Px 10'-6"
  7
STD SHEET
 73
     2
 44
1.133333
  0
MTEXT
  5
189EF
330
18CF0
100
AcDbEntity
  8
0
 62
     5
370
    30
100
AcDbMText
 10
9319.0
 20
-14423.0
 30
0.0
 40
1.125
 41
0.0
 71
     5
 72
     1
  1
4 - #5\Px 11'-0"
  7
STD SHEET
 73
     2
 44
1.133333
  0
TEXT
  5
189F2
330
18CF0
100
AcDbEntity
  8
0
 62
     5
370
    30
100
AcDbText
 10
9317.273024
 20
-14428.5625
 30
0.0
 40
1.125
  1
0.96
  7
STD SHEET
 72
     1
 11
9319.000281
 21
-14428.0
 31
0.0
100
AcDbText
 73
     2
  0
TEXT
  5
189F3
330
18CF0
100
AcDbEntity
  8
0
 62
     5
370
    30
100
AcDbText
 10
9317.614013
 20
-14432.5625
 30
0.0
 40
1.125
  1
1.15
  7
STD SHEET
 72
     1
 11
9319.000281
 21
-14432.0
 31
0.0
100
AcDbText
 73
     2
  0
TEXT
  5
189F4
330
18CF0
100
AcDbEntity
  8
0
 62
     5
370
    30
100
AcDbText
 10
9317.193236
 20
-14436.5625
 30
0.0
 40
1.125
  1
0.43
  7
STD SHEET
 72
     1
 11
9319.000281
 21
-14436.0
 31
0.0
100
AcDbText
 73
     2
  0
TEXT
  5
189F6
330
18CF0
100
AcDbEntity
  8
0
 62
     5
370
    30
100
AcDbText
 10
9330.087867
 20
-14335.5625
 30
0.0
 40
1.125
  1
26
  7
STD SHEET
 72
     1
 11
9331.000281
 21
-14335.0
 31
0.0
100
AcDbText
 73
     2
  0
MTEXT
  5
189F7
330
18CF0
100
AcDbEntity
  8
0
370
    30
100
AcDbMText
 10
9331.0
 20
-14341.0
 30
0.0
 40
1.125
 41
0.0
 71
     5
 72
     1
  1
\C5;1,2,3,4,5,6,9,\P10,11,12,13,14
  7
STD SHEET
 73
     2
 44
1.133333
  0
MTEXT
  5
189FA
330
18CF0
100
AcDbEntity
  8
0
370
    30
100
AcDbMText
 10
9331.0
 20
-14347.0
 30
0.0
 40
1.125
 41
0.0
 71
     5
 72
     1
  1
\C5;15,16,17,18,\P21,22,25,26\P27,28
  7
STD SHEET
 73
     2
 44
1.133333
  0
TEXT
  5
189FE
330
18CF0
100
AcDbEntity
  8
0
 62
     5
370
    30
100
AcDbText
 10
9328.852179
 20
-14353.5625
 30
0.0
 40
1.125
  1
31,32
  7
STD SHEET
 72
     1
 11
9331.000281
 21
-14353.0
 31
0.0
100
AcDbText
 73
     2
  0
TEXT
  5
189FF
330
18CF0
100
AcDbEntity
  8
0
 62
     5
370
    30
100
AcDbText
 10
9328.626273
 20
-14365.5625
 30
0.0
 40
1.125
  1
33,34
  7
STD SHEET
 72
     1
 11
9331.000281
 21
-14365.0
 31
0.0
100
AcDbText
 73
     2
  0
TEXT
  5
18A00
330
18CF0
100
AcDbEntity
  8
0
 62
     5
370
    30
100
AcDbText
 10
9329.525367
 20
-14371.5625
 30
0.0
 40
1.125
  1
836
  7
STD SHEET
 72
     1
 11
9331.000281
 21
-14371.0
 31
0.0
100
AcDbText
 73
     2
  0
TEXT
  5
18A01
330
18CF0
100
AcDbEntity
  8
0
 62
     5
370
    30
100
AcDbText
 10
9329.494399
 20
-14377.5625
 30
0.0
 40
1.125
  1
738
  7
STD SHEET
 72
     1
 11
9331.000281
 21
-14377.0
 31
0.0
100
AcDbText
 73
     2
  0
TEXT
  5
18A02
330
18CF0
100
AcDbEntity
  8
0
 62
     5
370
    30
100
AcDbText
 10
9328.962935
 20
-14383.5625
 30
0.0
 40
1.125
  1
2682
  7
STD SHEET
 72
     1
 11
9331.000281
 21
-14383.0
 31
0.0
100
AcDbText
 73
     2
  0
TEXT
  5
18A03
330
18CF0
100
AcDbEntity
  8
0
 62
     5
370
    30
100
AcDbText
 10
9328.940825
 20
-14389.5625
 30
0.0
 40
1.125
  1
3007
  7
STD SHEET
 72
     1
 11
9331.000281
 21
-14389.0
 31
0.0
100
AcDbText
 73
     2
  0
TEXT
  5
18A04
330
18CF0
100
AcDbEntity
  8
0
 62
     5
370
    30
100
AcDbText
 10
9330.650367
 20
-14394.5625
 30
0.0
 40
1.125
  1
6
  7
STD SHEET
 72
     1
 11
9331.000281
 21
-14394.0
 31
0.0
100
AcDbText
 73
     2
  0
MTEXT
  5
18A05
330
18CF0
100
AcDbEntity
  8
0
370
    30
100
AcDbMText
 10
9331.0
 20
-14400.0
 30
0.0
 40
1.125
 41
0.0
 71
     5
 72
     1
  1
\C5;3,4,9,10\P@ 5'-0"
  7
STD SHEET
 73
     2
 44
1.133333
  0
MTEXT
  5
18A08
330
18CF0
100
AcDbEntity
  8
0
370
    30
100
AcDbMText
 10
9331.0
 20
-14409.0
 30
0.0
 40
1.125
 41
0.0
 71
     5
 72
     1
  1
\C5;25,26\P@ 3'-0"
  7
STD SHEET
 73
     2
 44
1.133333
  0
MTEXT
  5
18A0B
330
18CF0
100
AcDbEntity
  8
0
370
    30
100
AcDbMText
 10
9331.0
 20
-14417.0
 30
0.0
 40
1.125
 41
0.0
 71
     5
 72
     1
  1
\C5;3 - #4\Px 11'-0"
  7
STD SHEET
 73
     2
 44
1.133333
  0
MTEXT
  5
18A0E
330
18CF0
100
AcDbEntity
  8
0
 62
     5
370
    30
100
AcDbMText
 10
9331.0
 20
-14423.0
 30
0.0
 40
1.125
 41
0.0
 71
     5
 72
     1
  1
4 - #5\Px 11'-6"
  7
STD SHEET
 73
     2
 44
1.133333
  0
TEXT
  5
18A11
330
18CF0
100
AcDbEntity
  8
0
 62
     5
370
    30
100
AcDbText
 10
9329.246451
 20
-14428.5625
 30
0.0
 40
1.125
  1
0.93
  7
STD SHEET
 72
     1
 11
9331.000281
 21
-14428.0
 31
0.0
100
AcDbText
 73
     2
  0
TEXT
  5
18A12
330
18CF0
100
AcDbEntity
  8
0
 62
     5
370
    30
100
AcDbText
 10
9329.392569
 20
-14432.5625
 30
0.0
 40
1.125
  1
1.04
  7
STD SHEET
 72
     1
 11
9331.000281
 21
-14432.0
 31
0.0
100
AcDbText
 73
     2
  0
TEXT
  5
18A13
330
18CF0
100
AcDbEntity
  8
0
 62
     5
370
    30
100
AcDbText
 10
9329.414748
 20
-14436.5625
 30
0.0
 40
1.125
  1
0.17
  7
STD SHEET
 72
     1
 11
9331.000281
 21
-14436.0
 31
0.0
100
AcDbText
 73
     2
  0
TEXT
  5
18A15
330
18CF0
100
AcDbEntity
  8
0
 62
     5
370
    30
100
AcDbText
 10
9342.061294
 20
-14335.5625
 30
0.0
 40
1.125
  1
28
  7
STD SHEET
 72
     1
 11
9343.000281
 21
-14335.0
 31
0.0
100
AcDbText
 73
     2
  0
TEXT
  5
18A1B
330
18CF0
100
AcDbEntity
  8
0
 62
     5
370
    30
100
AcDbText
 10
9340.852179
 20
-14353.5625
 30
0.0
 40
1.125
  1
31,32
  7
STD SHEET
 72
     1
 11
9343.000281
 21
-14353.0
 31
0.0
100
AcDbText
 73
     2
  0
TEXT
  5
18A1D
330
18CF0
100
AcDbEntity
  8
0
 62
     5
370
    30
100
AcDbText
 10
9340.626273
 20
-14365.5625
 30
0.0
 40
1.125
  1
33,34
  7
STD SHEET
 72
     1
 11
9343.000281
 21
-14365.0
 31
0.0
100
AcDbText
 73
     2
  0
TEXT
  5
18A1E
330
18CF0
100
AcDbEntity
  8
0
 62
     5
370
    30
100
AcDbText
 10
9341.552009
 20
-14371.5625
 30
0.0
 40
1.125
  1
896
  7
STD SHEET
 72
     1
 11
9343.000281
 21
-14371.0
 31
0.0
100
AcDbText
 73
     2
  0
TEXT
  5
18A1F
330
18CF0
100
AcDbEntity
  8
0
 62
     5
370
    30
100
AcDbText
 10
9341.494399
 20
-14377.5625
 30
0.0
 40
1.125
  1
783
  7
STD SHEET
 72
     1
 11
9343.000281
 21
-14377.0
 31
0.0
100
AcDbText
 73
     2
  0
TEXT
  5
18A20
330
18CF0
100
AcDbEntity
  8
0
 62
     5
370
    30
100
AcDbText
 10
9340.936362
 20
-14383.5625
 30
0.0
 40
1.125
  1
2780
  7
STD SHEET
 72
     1
 11
9343.000281
 21
-14383.0
 31
0.0
100
AcDbText
 73
     2
  0
TEXT
  5
18A21
330
18CF0
100
AcDbEntity
  8
0
 62
     5
370
    30
100
AcDbText
 10
9341.1622
 20
-14389.5625
 30
0.0
 40
1.125
  1
3186
  7
STD SHEET
 72
     1
 11
9343.000281
 21
-14389.0
 31
0.0
100
AcDbText
 73
     2
  0
TEXT
  5
18A22
330
18CF0
100
AcDbEntity
  8
0
 62
     5
370
    30
100
AcDbText
 10
9342.650367
 20
-14394.5625
 30
0.0
 40
1.125
  1
6
  7
STD SHEET
 72
     1
 11
9343.000281
 21
-14394.0
 31
0.0
100
AcDbText
 73
     2
  0
TEXT
  5
18A30
330
18CF0
100
AcDbEntity
  8
0
 62
     5
370
    30
100
AcDbText
 10
9354.061294
 20
-14335.5625
 30
0.0
 40
1.125
  1
28
  7
STD SHEET
 72
     1
 11
9355.000281
 21
-14335.0
 31
0.0
100
AcDbText
 73
     2
  0
MTEXT
  5
18A32
330
18CF0
100
AcDbEntity
  8
0
 62
     5
370
    30
100
AcDbMText
 10
9355.0
 20
-14347.0
 30
0.0
 40
1.125
 41
0.0
 71
     5
 72
     1
  1
15,16,17,18,\P19,20,23,24,\P25,26,27,28
  7
STD SHEET
 73
     2
 44
1.133333
  0
TEXT
  5
18A36
330
18CF0
100
AcDbEntity
  8
0
 62
     5
370
    30
100
AcDbText
 10
9352.852179
 20
-14353.5625
 30
0.0
 40
1.125
  1
31,32
  7
STD SHEET
 72
     1
 11
9355.000281
 21
-14353.0
 31
0.0
100
AcDbText
 73
     2
  0
TEXT
  5
18A38
330
18CF0
100
AcDbEntity
  8
0
 62
     5
370
    30
100
AcDbText
 10
9352.626273
 20
-14365.5625
 30
0.0
 40
1.125
  1
33,34
  7
STD SHEET
 72
     1
 11
9355.000281
 21
-14365.0
 31
0.0
100
AcDbText
 73
     2
  0
TEXT
  5
18A39
330
18CF0
100
AcDbEntity
  8
0
 62
     5
370
    30
100
AcDbText
 10
9353.521041
 20
-14371.5625
 30
0.0
 40
1.125
  1
897
  7
STD SHEET
 72
     1
 11
9355.000281
 21
-14371.0
 31
0.0
100
AcDbText
 73
     2
  0
TEXT
  5
18A3A
330
18CF0
100
AcDbEntity
  8
0
 62
     5
370
    30
100
AcDbText
 10
9353.490004
 20
-14377.5625
 30
0.0
 40
1.125
  1
787
  7
STD SHEET
 72
     1
 11
9355.000281
 21
-14377.0
 31
0.0
100
AcDbText
 73
     2
  0
TEXT
  5
18A3B
330
18CF0
100
AcDbEntity
  8
0
 62
     5
370
    30
100
AcDbText
 10
9352.958472
 20
-14383.5625
 30
0.0
 40
1.125
  1
2879
  7
STD SHEET
 72
     1
 11
9355.000281
 21
-14383.0
 31
0.0
100
AcDbText
 73
     2
  0
TEXT
  5
18A3C
330
18CF0
100
AcDbEntity
  8
0
 62
     5
370
    30
100
AcDbText
 10
9353.1622
 20
-14389.5625
 30
0.0
 40
1.125
  1
3186
  7
STD SHEET
 72
     1
 11
9355.000281
 21
-14389.0
 31
0.0
100
AcDbText
 73
     2
  0
TEXT
  5
18A3D
330
18CF0
100
AcDbEntity
  8
0
 62
     5
370
    30
100
AcDbText
 10
9354.650367
 20
-14394.5625
 30
0.0
 40
1.125
  1
6
  7
STD SHEET
 72
     1
 11
9355.000281
 21
-14394.0
 31
0.0
100
AcDbText
 73
     2
  0
TEXT
  5
18A48
330
18CF0
100
AcDbEntity
  8
0
 62
     5
370
    30
100
AcDbText
 10
9353.388106
 20
-14432.5625
 30
0.0
 40
1.125
  1
1.34
  7
STD SHEET
 72
     1
 11
9355.000281
 21
-14432.0
 31
0.0
100
AcDbText
 73
     2
  0
TEXT
  5
18A4B
330
18CF0
100
AcDbEntity
  8
0
 62
     5
370
    30
100
AcDbText
 10
9366.065757
 20
-14335.5625
 30
0.0
 40
1.125
  1
30
  7
STD SHEET
 72
     1
 11
9367.000281
 21
-14335.0
 31
0.0
100
AcDbText
 73
     2
  0
TEXT
  5
18A4C
330
18CF0
100
AcDbEntity
  8
0
 62
     5
370
    30
100
AcDbText
 10
9362.69522
 20
-14341.5625
 30
0.0
 40
1.125
  1
1 THRU 14
  7
STD SHEET
 72
     1
 11
9367.000281
 21
-14341.0
 31
0.0
100
AcDbText
 73
     2
  0
MTEXT
  5
18A4D
330
18CF0
100
AcDbEntity
  8
0
 62
     5
370
    30
100
AcDbMText
 10
9367.0
 20
-14347.014209
 30
0.0
 40
1.125
 41
0.0
 71
     5
 72
     1
  1
15,16,17,18,\P19,20,23,24,\P25,26,27,28
  7
STD SHEET
 73
     2
 44
1.133333
  0
TEXT
  5
18A51
330
18CF0
100
AcDbEntity
  8
0
 62
     5
370
    30
100
AcDbText
 10
9364.852179
 20
-14353.5625
 30
0.0
 40
1.125
  1
31,32
  7
STD SHEET
 72
     1
 11
9367.000281
 21
-14353.0
 31
0.0
100
AcDbText
 73
     2
  0
TEXT
  5
18A53
330
18CF0
100
AcDbEntity
  8
0
 62
     5
370
    30
100
AcDbText
 10
9364.626273
 20
-14365.5625
 30
0.0
 40
1.125
  1
33,34
  7
STD SHEET
 72
     1
 11
9367.000281
 21
-14365.0
 31
0.0
100
AcDbText
 73
     2
  0
TEXT
  5
18A54
330
18CF0
100
AcDbEntity
  8
0
 62
     5
370
    30
100
AcDbText
 10
9365.552009
 20
-14371.5625
 30
0.0
 40
1.125
  1
956
  7
STD SHEET
 72
     1
 11
9367.000281
 21
-14371.0
 31
0.0
100
AcDbText
 73
     2
  0
TEXT
  5
18A55
330
18CF0
100
AcDbEntity
  8
0
 62
     5
370
    30
100
AcDbText
 10
9365.503257
 20
-14377.5625
 30
0.0
 40
1.125
  1
830
  7
STD SHEET
 72
     1
 11
9367.000281
 21
-14377.0
 31
0.0
100
AcDbText
 73
     2
  0
TEXT
  5
18A56
330
18CF0
100
AcDbEntity
  8
0
 62
     5
370
    30
100
AcDbText
 10
9365.162269
 20
-14383.5625
 30
0.0
 40
1.125
  1
2981
  7
STD SHEET
 72
     1
 11
9367.000281
 21
-14383.0
 31
0.0
100
AcDbText
 73
     2
  0
TEXT
  5
18A57
330
18CF0
100
AcDbEntity
  8
0
 62
     5
370
    30
100
AcDbText
 10
9364.936362
 20
-14389.5625
 30
0.0
 40
1.125
  1
3370
  7
STD SHEET
 72
     1
 11
9367.000281
 21
-14389.0
 31
0.0
100
AcDbText
 73
     2
  0
TEXT
  5
18A58
330
18CF0
100
AcDbEntity
  8
0
 62
     5
370
    30
100
AcDbText
 10
9366.650367
 20
-14394.5625
 30
0.0
 40
1.125
  1
6
  7
STD SHEET
 72
     1
 11
9367.000281
 21
-14394.0
 31
0.0
100
AcDbText
 73
     2
  0
LINE
  5
18A71
330
18CF0
100
AcDbEntity
  8
0
 62
     6
370
    40
100
AcDbLine
 10
9220.0
 20
-14394.0
 30
0.0
 11
9226.0
 21
-14394.0
 31
0.0
  0
LINE
  5
18A72
330
18CF0
100
AcDbEntity
  8
0
 62
     6
370
    40
100
AcDbLine
 10
9220.0
 20
-14401.0
 30
0.0
 11
9226.0
 21
-14401.0
 31
0.0
  0
LINE
  5
18A73
330
18CF0
100
AcDbEntity
  8
0
 62
     6
370
    40
100
AcDbLine
 10
9220.0
 20
-14410.0
 30
0.0
 11
9226.0
 21
-14410.0
 31
0.0
  0
LINE
  5
18A74
330
18CF0
100
AcDbEntity
  8
0
 62
     6
370
    40
100
AcDbLine
 10
9232.0
 20
-14410.0
 30
0.0
 11
9238.0
 21
-14410.0
 31
0.0
  0
LINE
  5
18A75
330
18CF0
100
AcDbEntity
  8
0
 62
     6
370
    40
100
AcDbLine
 10
9244.0
 20
-14410.0
 30
0.0
 11
9250.0
 21
-14410.0
 31
0.0
  0
TEXT
  5
18AE2
330
18CF0
100
AcDbEntity
  8
0
 62
     5
370
    30
100
AcDbText
 10
9405.121031
 20
-14504.450337
 30
0.0
 40
1.125
  1
07-02-07
  7
STD SHEET
 11
9405.121031
 21
-14503.325337
 31
0.0
100
AcDbText
 73
     3
  0
TEXT
  5
18AE8
330
18CF0
100
AcDbEntity
  8
0
  6
Continuous
 62
     5
370
    30
100
AcDbText
 10
9269.594374
 20
-14486.628501
 30
0.0
 40
1.125
  1
6.
  7
STD SHEET
 11
9269.594374
 21
-14485.503501
 31
0.0
100
AcDbText
 73
     3
  0
TEXT
  5
18AE9
330
18CF0
100
AcDbEntity
  8
0
  6
Continuous
 62
     5
370
    30
100
AcDbText
 10
9269.536832
 20
-14494.006336
 30
0.0
 40
1.125
  1
7.
  7
STD SHEET
 11
9269.536832
 21
-14492.881336
 31
0.0
100
AcDbText
 73
     3
  0
MTEXT
  5
180D4
330
18CF0
100
AcDbEntity
  8
0
  6
Continuous
 62
     5
370
    30
100
AcDbMText
 10
9175.09023
 20
-14449.027307
 30
0.0
 40
1.125
 41
0.0
 71
     4
 72
     1
  1
NUMBER & SPACING\POF TL-2 GUARDRAIL\PINSERTS\P\PSEE NOTE 6
  7
STD SHEET
 73
     2
 44
1.133333
  0
TEXT
  5
18AF5
330
18CF0
100
AcDbEntity
  8
0
 62
     5
370
    30
100
AcDbText
 10
9221.948986
 20
-14461.600606
 30
0.0
 40
1.125
  1
32.6
  7
STD SHEET
 72
     1
 11
9223.707347
 21
-14461.038106
 31
0.0
100
AcDbText
 73
     2
  0
TEXT
  5
18AF6
330
18CF0
100
AcDbEntity
  8
0
 62
     5
370
    30
100
AcDbText
 10
9233.210665
 20
-14461.600606
 30
0.0
 40
1.125
  1
33.4
  7
STD SHEET
 72
     1
 11
9235.022173
 21
-14461.038106
 31
0.0
100
AcDbText
 73
     2
  0
TEXT
  5
18AF7
330
18CF0
100
AcDbEntity
  8
0
 62
     5
370
    30
100
AcDbText
 10
9245.154501
 20
-14461.600606
 30
0.0
 40
1.125
  1
34.1
  7
STD SHEET
 72
     1
 11
9246.766676
 21
-14461.038106
 31
0.0
100
AcDbText
 73
     2
  0
TEXT
  5
18AF8
330
18CF0
100
AcDbEntity
  8
0
 62
     5
370
    30
100
AcDbText
 10
9257.585597
 20
-14461.600606
 30
0.0
 40
1.125
  1
34.9
  7
STD SHEET
 72
     1
 11
9259.370532
 21
-14461.038106
 31
0.0
100
AcDbText
 73
     2
  0
TEXT
  5
18AF9
330
18CF0
100
AcDbEntity
  8
0
 62
     5
370
    30
100
AcDbText
 10
9269.643124
 20
-14461.600606
 30
0.0
 40
1.125
  1
35.6
  7
STD SHEET
 72
     1
 11
9271.401486
 21
-14461.038106
 31
0.0
100
AcDbText
 73
     2
  0
TEXT
  5
18AFA
330
18CF0
100
AcDbEntity
  8
0
 62
     5
370
    30
100
AcDbText
 10
9281.074671
 20
-14461.600606
 30
0.0
 40
1.125
  1
36.4
  7
STD SHEET
 72
     1
 11
9282.859537
 21
-14461.038106
 31
0.0
100
AcDbText
 73
     2
  0
TEXT
  5
18AFB
330
18CF0
100
AcDbEntity
  8
0
 62
     5
370
    30
100
AcDbText
 10
9293.014043
 20
-14461.600606
 30
0.0
 40
1.125
  1
37.1
  7
STD SHEET
 72
     1
 11
9294.60404
 21
-14461.038106
 31
0.0
100
AcDbText
 73
     2
  0
TEXT
  5
18AFC
330
18CF0
100
AcDbEntity
  8
0
 62
     5
370
    30
100
AcDbText
 10
9304.585786
 20
-14461.600606
 30
0.0
 40
1.125
  1
37.9
  7
STD SHEET
 72
     1
 11
9306.348542
 21
-14461.038106
 31
0.0
100
AcDbText
 73
     2
  0
TEXT
  5
18AFD
330
18CF0
100
AcDbEntity
  8
0
 62
     5
370
    30
100
AcDbText
 10
9317.198569
 20
-14461.600606
 30
0.0
 40
1.125
  1
39.0
  7
STD SHEET
 72
     1
 11
9318.952399
 21
-14461.038106
 31
0.0
100
AcDbText
 73
     2
  0
TEXT
  5
18AFE
330
18CF0
100
AcDbEntity
  8
0
 62
     5
370
    30
100
AcDbText
 10
9329.077439
 20
-14461.600606
 30
0.0
 40
1.125
  1
39.7
  7
STD SHEET
 72
     1
 11
9330.840127
 21
-14461.038106
 31
0.0
100
AcDbText
 73
     2
  0
TEXT
  5
18AFF
330
18CF0
100
AcDbEntity
  8
0
 62
     5
370
    30
100
AcDbText
 10
9341.037463
 20
-14461.600606
 30
0.0
 40
1.125
  1
40.4
  7
STD SHEET
 72
     1
 11
9342.871081
 21
-14461.038106
 31
0.0
100
AcDbText
 73
     2
  0
TEXT
  5
18B00
330
18CF0
100
AcDbEntity
  8
0
 62
     5
370
    30
100
AcDbText
 10
9353.632419
 20
-14461.600606
 30
0.0
 40
1.125
  1
41.1
  7
STD SHEET
 72
     1
 11
9355.04526
 21
-14461.038106
 31
0.0
100
AcDbText
 73
     2
  0
TEXT
  5
18B01
330
18CF0
100
AcDbEntity
  8
0
 62
     5
370
    30
100
AcDbText
 10
9366.206741
 20
-14461.600606
 30
0.0
 40
1.125
  1
41.9
  7
STD SHEET
 72
     1
 11
9367.792342
 21
-14461.038106
 31
0.0
100
AcDbText
 73
     2
  0
MTEXT
  5
18B04
330
18CF0
100
AcDbEntity
  8
0
 62
     5
370
    30
100
AcDbMText
 10
9343.138483
 20
-14341.0
 30
0.0
 40
1.125
 41
0.0
 71
     5
 72
     1
  1
1,2,3,4,5,6,9,\P10,11,12,13,14
  7
STD SHEET
 73
     2
 44
1.133333
  0
MTEXT
  5
18B07
330
18CF0
100
AcDbEntity
  8
0
 62
     5
370
    30
100
AcDbMText
 10
9355.242622
 20
-14341.0
 30
0.0
 40
1.125
 41
0.0
 71
     5
 72
     1
  1
1,2,3,4,5,6,9,\P10,11,12,13,14
  7
STD SHEET
 73
     2
 44
1.133333
  0
MTEXT
  5
18A17
330
18CF0
100
AcDbEntity
  8
0
 62
     5
370
    30
100
AcDbMText
 10
9343.0
 20
-14347.0
 30
0.0
 40
1.125
 41
0.0
 71
     5
 72
     1
  1
15,16,17,18,19,\P20,23,24,25,\P26,27,28
  7
STD SHEET
 73
     2
 44
1.133333
  0
MTEXT
  5
18A23
330
18CF0
100
AcDbEntity
  8
0
 62
     5
370
    30
100
AcDbMText
 10
9343.0
 20
-14400.0
 30
0.0
 40
1.125
 41
0.0
 71
     5
 72
     1
  1
3,4,9,10\P@ 5'-0"
  7
STD SHEET
 73
     2
 44
1.133333
  0
MTEXT
  5
18B37
330
18CF0
100
AcDbEntity
  8
0
 62
     5
370
    30
100
AcDbMText
 10
9354.951094
 20
-14400.0
 30
0.0
 40
1.125
 41
0.0
 71
     5
 72
     1
  1
3,4,9,10\P@ 5'-0"
  7
STD SHEET
 73
     2
 44
1.133333
  0
MTEXT
  5
18B3A
330
18CF0
100
AcDbEntity
  8
0
 62
     5
370
    30
100
AcDbMText
 10
9367.411802
 20
-14400.0
 30
0.0
 40
1.125
 41
0.0
 71
     5
 72
     1
  1
3,4,9,10\P@ 5'-0"
  7
STD SHEET
 73
     2
 44
1.133333
  0
TEXT
  5
18B3F
330
18CF0
100
AcDbEntity
  8
0
  6
Continuous
 62
     5
370
    30
100
AcDbText
 10
9167.078338
 20
-14468.985547
 30
0.0
 40
1.125
  1
NOTES
  7
STD SHEET
 11
9167.078338
 21
-14468.423047
 31
0.0
100
AcDbText
 73
     2
  0
TEXT
  5
18B40
330
18CF0
100
AcDbEntity
  8
0
  6
Continuous
 62
     5
370
    30
100
AcDbText
 10
9167.528788
 20
-14471.548047
 30
0.0
 40
1.125
  1
1.
  7
STD SHEET
 11
9167.528788
 21
-14470.423047
 31
0.0
100
AcDbText
 73
     3
  0
TEXT
  5
18B41
330
18CF0
100
AcDbEntity
  8
0
  6
Continuous
 62
     5
370
    30
100
AcDbText
 10
9167.078338
 20
-14487.990357
 30
0.0
 40
1.125
  1
2.
  7
STD SHEET
 11
9167.078338
 21
-14486.865357
 31
0.0
100
AcDbText
 73
     3
  0
TEXT
  5
18B42
330
18CF0
100
AcDbEntity
  8
0
  6
Continuous
 62
     5
370
    30
100
AcDbText
 10
9167.078338
 20
-14499.990357
 30
0.0
 40
1.125
  1
3.
  7
STD SHEET
 11
9167.078338
 21
-14498.865357
 31
0.0
100
AcDbText
 73
     3
  0
TEXT
  5
18B59
330
18CF0
100
AcDbEntity
  8
0
 62
     5
370
    30
100
AcDbText
 10
9233.729828
 20
-14399.447698
 30
0.0
 40
1.125
  1
5,6 
  7
STD SHEET
 72
     1
 11
9235.468873
 21
-14398.885198
 31
0.0
100
AcDbText
 73
     2
  0
TEXT
  5
18B5A
330
18CF0
100
AcDbEntity
  8
0
 62
     5
370
    30
100
AcDbText
 10
9231.828796
 20
-14401.572698
 30
0.0
 40
1.125
  1
@ 5'-0"
  7
STD SHEET
 72
     1
 11
9235.0
 21
-14401.010198
 31
0.0
100
AcDbText
 73
     2
  0
TEXT
  5
18B5B
330
18CF0
100
AcDbEntity
  8
0
 62
     5
370
    30
100
AcDbText
 10
9245.649146
 20
-14399.416819
 30
0.0
 40
1.125
  1
5,6 
  7
STD SHEET
 72
     1
 11
9247.38819
 21
-14398.854319
 31
0.0
100
AcDbText
 73
     2
  0
TEXT
  5
18B5C
330
18CF0
100
AcDbEntity
  8
0
 62
     5
370
    30
100
AcDbText
 10
9243.829078
 20
-14401.541819
 30
0.0
 40
1.125
  1
@ 5'-0"
  7
STD SHEET
 72
     1
 11
9247.000281
 21
-14400.979319
 31
0.0
100
AcDbText
 73
     2
  0
TEXT
  5
18B5D
330
18CF0
100
AcDbEntity
  8
0
 62
     5
370
    30
100
AcDbText
 10
9257.757683
 20
-14399.38594
 30
0.0
 40
1.125
  1
3,4 
  7
STD SHEET
 72
     1
 11
9259.585419
 21
-14398.82344
 31
0.0
100
AcDbText
 73
     2
  0
TEXT
  5
18B5E
330
18CF0
100
AcDbEntity
  8
0
 62
     5
370
    30
100
AcDbText
 10
9255.829078
 20
-14401.51094
 30
0.0
 40
1.125
  1
@ 5'-0"
  7
STD SHEET
 72
     1
 11
9259.000281
 21
-14400.94844
 31
0.0
100
AcDbText
 73
     2
  0
MTEXT
  5
18B2C
330
18CF0
100
AcDbEntity
  8
0
 62
     5
370
    30
100
AcDbMText
 10
9343.0
 20
-14410.14461
 30
0.0
 40
1.125
 41
0.0
 71
     5
 72
     1
  1
25,26 \P@ 3'-0"\P 
  7
STD SHEET
 73
     2
 44
1.133333
  0
MTEXT
  5
18B2F
330
18CF0
100
AcDbEntity
  8
0
 62
     5
370
    30
100
AcDbMText
 10
9355.287643
 20
-14410.14461
 30
0.0
 40
1.125
 41
0.0
 71
     5
 72
     1
  1
25,26 \P@ 3'-0"\P 
  7
STD SHEET
 73
     2
 44
1.133333
  0
MTEXT
  5
18B32
330
18CF0
100
AcDbEntity
  8
0
 62
     5
370
    30
100
AcDbMText
 10
9367.315688
 20
-14410.14461
 30
0.0
 40
1.125
 41
0.0
 71
     5
 72
     1
  1
25,26 \P@ 3'-0"\P 
  7
STD SHEET
 73
     2
 44
1.133333
  0
MTEXT
  5
18A26
330
18CF0
100
AcDbEntity
  8
0
 62
     5
370
    30
100
AcDbMText
 10
9343.0
 20
-14417.0
 30
0.0
 40
1.125
 41
0.0
 71
     5
 72
     1
  1
3 - # 4 \Px 11'-0"
  7
STD SHEET
 73
     2
 44
1.133333
  0
MTEXT
  5
18B26
330
18CF0
100
AcDbEntity
  8
0
 62
     5
370
    30
100
AcDbMText
 10
9355.806839
 20
-14417.0
 30
0.0
 40
1.125
 41
0.0
 71
     5
 72
     1
  1
3 - # 4 \Px 11'-0"
  7
STD SHEET
 73
     2
 44
1.133333
  0
MTEXT
  5
18B29
330
18CF0
100
AcDbEntity
  8
0
 62
     5
370
    30
100
AcDbMText
 10
9368.007949
 20
-14417.0
 30
0.0
 40
1.125
 41
0.0
 71
     5
 72
     1
  1
3 -  # 4 \Px 11'-6"
  7
STD SHEET
 73
     2
 44
1.133333
  0
MTEXT
  5
18A29
330
18CF0
100
AcDbEntity
  8
0
 62
     5
370
    30
100
AcDbMText
 10
9343.0
 20
-14423.0
 30
0.0
 40
1.125
 41
0.0
 71
     5
 72
     1
  1
2 - #5 \Px 11'-6"
  7
STD SHEET
 73
     2
 44
1.133333
  0
MTEXT
  5
18B1E
330
18CF0
100
AcDbEntity
  8
0
 62
     5
370
    30
100
AcDbMText
 10
9354.864561
 20
-14423.0
 30
0.0
 40
1.125
 41
0.0
 71
     5
 72
     1
  1
2 - #5 \Px 11'-6"
  7
STD SHEET
 73
     2
 44
1.133333
  0
MTEXT
  5
18B21
330
18CF0
100
AcDbEntity
  8
0
 62
     5
370
    30
100
AcDbMText
 10
9367.238737
 20
-14423.0
 30
0.0
 40
1.125
 41
0.0
 71
     5
 72
     1
  1
2 -# 5 \Px 12'-0"
  7
STD SHEET
 73
     2
 44
1.133333
  0
TEXT
  5
18A2C
330
18CF0
100
AcDbEntity
  8
0
 62
     5
370
    30
100
AcDbText
 10
9341.242057
 20
-14428.5625
 30
0.0
 40
1.125
  1
0.97
  7
STD SHEET
 72
     1
 11
9343.000281
 21
-14428.0
 31
0.0
100
AcDbText
 73
     2
  0
TEXT
  5
18A47
330
18CF0
100
AcDbEntity
  8
0
 62
     5
370
    30
100
AcDbText
 10
9353.640586
 20
-14428.5625
 30
0.0
 40
1.125
  1
1.16
  7
STD SHEET
 72
     1
 11
9355.000281
 21
-14428.0
 31
0.0
100
AcDbText
 73
     2
  0
TEXT
  5
18A62
330
18CF0
100
AcDbEntity
  8
0
 62
     5
370
    30
100
AcDbText
 10
9365.614013
 20
-14428.5625
 30
0.0
 40
1.125
  1
1.12
  7
STD SHEET
 72
     1
 11
9367.000281
 21
-14428.0
 31
0.0
100
AcDbText
 73
     2
  0
TEXT
  5
18A2D
330
18CF0
100
AcDbEntity
  8
0
 62
     5
370
    30
100
AcDbText
 10
9341.419143
 20
-14432.5625
 30
0.0
 40
1.125
  1
1.05
  7
STD SHEET
 72
     1
 11
9343.000281
 21
-14432.0
 31
0.0
100
AcDbText
 73
     2
  0
TEXT
  5
18A63
330
18CF0
100
AcDbEntity
  8
0
 62
     5
370
    30
100
AcDbText
 10
9365.419143
 20
-14432.5625
 30
0.0
 40
1.125
  1
1.20
  7
STD SHEET
 72
     1
 11
9367.000281
 21
-14432.0
 31
0.0
100
AcDbText
 73
     2
  0
TEXT
  5
18A2E
330
18CF0
100
AcDbEntity
  8
0
 62
     5
370
    30
100
AcDbText
 10
9341.250846
 20
-14436.5625
 30
0.0
 40
1.125
  1
0.09
  7
STD SHEET
 72
     1
 11
9343.000281
 21
-14436.0
 31
0.0
100
AcDbText
 73
     2
  0
TEXT
  5
18A49
330
18CF0
100
AcDbEntity
  8
0
 62
     5
370
    30
100
AcDbText
 10
9353.219809
 20
-14436.5625
 30
0.0
 40
1.125
  1
0.38
  7
STD SHEET
 72
     1
 11
9355.000281
 21
-14436.0
 31
0.0
100
AcDbText
 73
     2
  0
TEXT
  5
18A65
330
18CF0
100
AcDbEntity
  8
0
 62
     5
370
    30
100
AcDbText
 10
9365.219878
 20
-14436.5625
 30
0.0
 40
1.125
  1
0.07
  7
STD SHEET
 72
     1
 11
9367.000281
 21
-14436.0
 31
0.0
100
AcDbText
 73
     2
  0
MTEXT
  5
18B52
330
18CF0
100
AcDbEntity
  8
0
  6
Continuous
 62
     5
370
    30
100
AcDbMText
 10
9169.078338
 20
-14470.423047
 30
0.0
 40
1.125
 41
0.0
 71
     1
 72
     1
  1
BEAM WEIGHTS LISTED IN THE DESIGN TABLE ARE BASED ON ZERO SKEW, 2 FT. LONG ENDBLOCK \PAND DIAPHRAGMS SPACED @ 15 FT C/C.  WEIGHTS FOR SKEWED BEAMS, LONGER ENDBLOCKS AND \PADDITIONAL DIAPHRAGMS SHOULD BE ADJUSTED ACCORDINGLY.
  7
Style-gen_eng
 73
     2
 44
1.133333
  0
TEXT
  5
18B58
330
18CF0
100
AcDbEntity
  8
0
  6
Continuous
 62
     5
370
    30
100
AcDbText
 10
9169.081517
 20
-14478.548047
 30
0.0
 40
1.125
  1
FOR ADDITIONAL DIAPHRAGMS, ADD 700 LBS/DIAPHRAGM.
  7
Style-gen_eng
 11
9169.081517
 21
-14477.423047
 31
0.0
100
AcDbText
 73
     3
  0
TEXT
  5
18B57
330
18CF0
100
AcDbEntity
  8
0
  6
Continuous
 62
     5
370
    30
100
AcDbText
 10
9169.063846
 20
-14481.548047
 30
0.0
 40
1.125
  1
FOR SKEW ADD 41 LBS/DEGREE OF SKEW/END.
  7
Style-gen_eng
 11
9169.063846
 21
-14480.423047
 31
0.0
100
AcDbText
 73
     3
  0
TEXT
  5
18B56
330
18CF0
100
AcDbEntity
  8
0
  6
Continuous
 62
     5
370
    30
100
AcDbText
 10
9169.081517
 20
-14484.700254
 30
0.0
 40
1.125
  1
FOR LONGER ENDBLOCK, ADD 840 LBS/LF/END.
  7
Style-gen_eng
 11
9169.081517
 21
-14483.575254
 31
0.0
100
AcDbText
 73
     3
  0
MTEXT
  5
18B43
330
18CF0
100
AcDbEntity
  8
0
  6
Continuous
 62
     5
370
    30
100
AcDbMText
 10
9169.078338
 20
-14486.865357
 30
0.0
 40
1.125
 41
0.0
 71
     1
 72
     1
  3
DESIGNERS SHOULD NOTE THAT DATA IN STANDARD TABLE IS BASED ON EVEN SPAN LENGTHS,\PA TWO LANE STRUCTURE 8 BEAMS WIDE AND ZERO SKEW.  SUPERIMPOSED DEAD LOADS INCLUDE\PTYPE F PARAPET (321 PLF) AND A FWS OF 50 PSF.  FOR NON-STANDARD BRIDGES DATA SHOULD B
  1
E \PVERIFIED AND IF REQUIRED NEW DESIGN DATA ENTERED INTO BLANK COLUMNS.  IN NO CASE SHALL \PTHE STANDARD DESIGN TABLE BE ALTERED.
  7
Style-gen_eng
 73
     2
 44
1.133333
  0
MTEXT
  5
18B4A
330
18CF0
100
AcDbEntity
  8
0
  6
Continuous
 62
     5
370
    30
100
AcDbMText
 10
9169.078338
 20
-14498.865357
 30
0.0
 40
1.125
 41
0.0
 71
     1
 72
     1
  3
PREDICTED DESIGN CAMBER VALUES LISTED IN THE TABLE ARE BASED ON EMPIRICAL FORMULAS\PAND AS SUCH ARE APPROXIMATE.  FOR MEMBERS WITH SPAN-TO-DEPTH RATIOS AT OR EXCEEDING 25, \PTHE TOLERANCE VALUES LISTED IN APPENDIX B OF PCI MANUAL FOR QUALITY CONTROL,
  3
 MNL-116, MAY \PNOT APPLY.\PMEASUREMENT OF CAMBER FOR COMPARISON TO PREDICTED DESIGN VALUES SHOULD BE COMPLETED \PWITHIN 72 HOURS OF RELEASE.  ADDITIONALLY, CAMBER SHOULD BE EVALUATED UNDER CONDITIONS \PTHAT MINIMIZE THE EFFECT OF TEMPERATURE VARIATI
  1
ON.
  7
Style-gen_eng
 73
     2
 44
1.133333
  0
MTEXT
  5
181A0
330
18CF0
100
AcDbEntity
  8
0
  6
Continuous
 62
     5
370
    30
100
AcDbMText
 10
9271.539423
 20
-14470.532496
 30
0.0
 40
1.125
 41
0.0
 71
     1
 72
     1
  3
DESIGNER, FABRICATOR, AND ERECTOR SHALL BE AWARE THAT SKEWED END BEAMS MAY TWIST OR WARP,\PCAUSING UNEVEN BEAM SEATING AT THE BEARINGS.  THE CONTRACTOR IS REQUIRED TO CORRECT AT THE\PTIME OF ERECTION., BEFORE THE BEAMS ARE SECURED IN PLACE.  METHOD O
  3
F CORRECTION SHALL PROVIDE\PAN EVEN, TOTAL BEARING AND A LEVEL TOP BEAM SURFACE.  TOLERANCE, AFTER CORRECTION, SHALL BE (+/-) {\T1.0;\W0.7x;\H0.7x;\S1#8;} INCH.\PTHE FABRICATOR SHALL NOTIFY THE CONTRACTOR AND DESIGNER IF CORRECTIONS ARE REQUIRED PRIO
  1
R TO SHIPMENT.
  7
Style-gen_eng
 73
     2
 44
1.133333
  0
TEXT
  5
181A7
330
18CF0
100
AcDbEntity
  8
0
  6
Continuous
 62
     5
370
    30
100
AcDbText
 10
9271.539423
 20
-14483.657496
 30
0.0
 40
1.125
  1
MAXIMUM BEAM SKEW SHALL BE 30 DEGREES.
  7
Style-gen_eng
 11
9271.539423
 21
-14482.532496
 31
0.0
100
AcDbText
 73
     3
  0
MTEXT
  5
18AED
102
{ACAD_XDICTIONARY
360
18D1B
102
}
330
18CF0
100
AcDbEntity
  8
0
  6
Continuous
 62
     5
370
    30
100
AcDbMText
 10
9271.551344
 20
-14483.387888
 30
0.0
 40
1.125
 41
0.0
 71
     1
 72
     1
  1
\PDESIGNER INPUT VALUES OF NUMBER OF INSERTS, DISTANCE FROM END OF BEAM TO \{ FIRST INSERT, AND \{ FIRST INSERT\PTO \{ SECOND INSERT. ABOVE VALUES SHALL BE BASED ON THE REQUIRED 6'-3" GUARDRAIL POST SPACING ACROSS\PTHE BRIDGE.
  7
Style-gen_eng
 73
     2
 44
1.133333
  0
TEXT
  5
18B97
330
18CF0
100
AcDbEntity
  8
0
 62
   250
370
   106
100
AcDbText
 10
9252.506623
 20
-14316.095083
 30
0.0
 40
1.9375
  1
DESIGN DATA FOR 42" DEPTH ADJACENT BOX BEAM
  7
Style-straight_squash
 72
     1
 11
9290.519181
 21
-14315.126333
 31
0.0
100
AcDbText
 73
     2
  0
LINE
  5
18B49
330
18CF0
100
AcDbEntity
  8
0
 62
     6
370
    40
100
AcDbLine
 10
9167.064567
 20
-14469.260283
 30
0.0
 11
9172.271051
 21
-14469.260283
 31
0.0
  0
MTEXT
  5
18AEA
330
18CF0
100
AcDbEntity
  8
0
  6
Continuous
 62
     5
370
    30
100
AcDbMText
 10
9271.557547
 20
-14492.845347
 30
0.0
 40
1.125
 41
0.0
 71
     1
 72
     1
  1
THIS SHEET SHALL BE USED IN CONJUNCTION WITH STANDARD SHEETS  BR-B42A, BR-B100, BR-B101, BR-B102A & B,  \PBR-B103, BR-B104, BR-B105A & B AND BR-106 AS APPLICABLE.
  7
Style-gen_eng
 73
     2
 44
1.133333
  0
MTEXT
  5
17E49
330
18CF0
100
AcDbEntity
  8
0
  6
Continuous
 62
     5
370
    30
100
AcDbMText
 10
9463.935738
 20
-14491.913752
 30
0.0
 40
0.7425
 41
0.0
 71
     4
 72
     1
  1
DESIGNED BY:THB/^J
  7
Style 2 - FS Sheet
 73
     2
 44
0.626828
  0
MTEXT
  5
17E4A
330
18CF0
100
AcDbEntity
  8
0
  6
Continuous
 62
     5
370
    30
100
AcDbMText
 10
9463.935738
 20
-14494.718098
 30
0.0
 40
0.7425
 41
0.0
 71
     4
 72
     1
  1
DRAWN BY:THB/^J
  7
Style 2 - FS Sheet
 73
     2
 44
0.626828
  0
MTEXT
  5
17E4B
330
18CF0
100
AcDbEntity
  8
0
  6
Continuous
 62
     5
370
    30
100
AcDbMText
 10
9463.935738
 20
-14497.759468
 30
0.0
 40
0.7425
 41
0.0
 71
     4
 72
     1
  1
CHECKED BY:TM/^J
  7
Style 2 - FS Sheet
 73
     2
 44
0.626828
  0
TEXT
  5
17E4C
330
18CF0
100
AcDbEntity
  8
0
  6
Continuous
 62
     5
370
    30
100
AcDbText
 10
9463.935738
 20
-14500.729707
 30
0.0
 40
0.7425
  1
REVIEWED BY:TW/
  7
Style 2 - FS Sheet
 11
9463.935738
 21
-14500.358457
 31
0.0
100
AcDbText
 73
     2
  0
INSERT
  5
18CDF
330
18CF0
100
AcDbEntity
  8
Level 1
370
    30
100
AcDbBlockReference
  2
Greg's Signature
 10
9388.280163
 20
-14497.65727
 30
0.0
 41
0.01016
 42
0.01016
 43
0.01016
  0
MTEXT
  5
18CE6
330
18CF0
100
AcDbEntity
  8
0
 62
     5
370
    30
100
AcDbMText
 10
9405.678102
 20
-14496.919029
 30
0.0
 40
1.125
 41
0.0
 71
     1
 72
     1
  1
\FITALIC_WORKING.shx;10-25-07
  7
STD SHEET
 73
     2
 44
0.722892
  0
ENDSEC
  0
SECTION
  2
OBJECTS
  0
DICTIONARY
  5
18D03
330
0
100
AcDbDictionary
281
     1
  3
ACAD_GROUP
350
18D01
  3
ACAD_LAYOUT
350
18D04
  3
ACAD_MLINESTYLE
350
18D02
  3
ACAD_PLOTSETTINGS
350
18D05
  3
ACAD_PLOTSTYLENAME
350
18D06
  3
AcadDim
350
18D11
  3
DWGPROPS
350
18D1A
  0
DICTIONARY
  5
18D09
330
18CF8
100
AcDbDictionary
280
     1
281
     1
  3
ACAD_LAYERFILTERS
360
18D0A
  0
DICTIONARY
  5
18D1B
330
18AED
100
AcDbDictionary
280
     1
281
     1
  3
ACAD_MTEXT_RT
360
18D1C
  0
DICTIONARY
  5
18D01
102
{ACAD_REACTORS
330
18D03
102
}
330
18D03
100
AcDbDictionary
281
     1
  0
DICTIONARY
  5
18D04
102
{ACAD_REACTORS
330
18D03
102
}
330
18D03
100
AcDbDictionary
281
     1
  3
Layout1
350
18CF7
  3
Model
350
18CF3
  0
DICTIONARY
  5
18D02
102
{ACAD_REACTORS
330
18D03
102
}
330
18D03
100
AcDbDictionary
281
     1
  3
Standard
350
18CEE
  0
DICTIONARY
  5
18D05
102
{ACAD_REACTORS
330
18D03
102
}
330
18D03
100
AcDbDictionary
281
     1
  0
ACDBDICTIONARYWDFLT
  5
18D06
102
{ACAD_REACTORS
330
18D03
102
}
330
18D03
100
AcDbDictionary
281
     1
  3
Normal
350
18CE9
100
AcDbDictionaryWithDefault
340
18CE9
  0
XRECORD
  5
18D11
102
{ACAD_REACTORS
330
18D03
102
}
330
18D03
100
AcDbXrecord
280
     1
 90
   990106
  3
 
 60
     0
 61
     0
 62
     1
 63
     1
 64
     0
 65
     0
 66
     0
 67
     3
 68
     1
 69
     1
 70
     0
 71
     0
 72
     0
 40
0.0
170
     0
  0
XRECORD
  5
18D1A
102
{ACAD_REACTORS
330
18D03
102
}
330
18D03
100
AcDbXrecord
280
     1
  1
DWGPROPS COOKIE
  2

  3

  4
rhill
  6

  7

  8

  9

300
=
301
=
302
=
303
=
304
=
305
=
306
=
307
=
308
=
309
=
 40
0.0
 41
2451789.537469
 42
2451789.537561
  1

 90
        0
  0
DICTIONARY
  5
18D0A
102
{ACAD_REACTORS
330
18D09
102
}
330
18D09
100
AcDbDictionary
281
     1
  0
XRECORD
  5
18D1C
102
{ACAD_REACTORS
330
18D1B
102
}
330
18D1B
100
AcDbXrecord
280
     1
280
     1
 40
1744876.0
  1
\PDESIGNER INPUT VALUES OF NUMBER OF INSERTS, DISTANCE FROM END OF BEAM TO \{ FIRST INSERT, AND \{ FIRST INSERT\P\ptz;TO \{ SECOND INSERT. ABOVE VALUES SHALL BE BASED ON THE REQUIRED 6'-3" GUARDRAIL POST SPACING ACROSS\P\ptz;THE BRIDGE.
  0
LAYOUT
  5
18CF7
102
{ACAD_REACTORS
330
18D04
330
18D04
102
}
330
18D04
100
AcDbPlotSettings
  1

  2

  4

  6

 40
0.0
 41
0.0
 42
0.0
 43
0.0
 44
0.0
 45
0.0
 46
0.0
 47
0.0
 48
0.0
 49
0.0
140
0.0
141
0.0
142
1.0
143
1.0
 70
   688
 72
     0
 73
     0
 74
     5
  7

 75
    16
147
1.0
148
0.0
149
0.0
100
AcDbLayout
  1
Layout1
 70
     1
 71
     1
 10
0.0
 20
0.0
 11
12.0
 21
9.0
 12
0.0
 22
0.0
 32
0.0
 14
1.000000E+20
 24
1.000000E+20
 34
1.000000E+20
 15
-1.000000E+20
 25
-1.000000E+20
 35
-1.000000E+20
146
0.0
 13
0.0
 23
0.0
 33
0.0
 16
1.0
 26
0.0
 36
0.0
 17
0.0
 27
1.0
 37
0.0
 76
     0
330
18CF4
  0
LAYOUT
  5
18CF3
102
{ACAD_REACTORS
330
18D04
330
18D04
102
}
330
18D04
100
AcDbPlotSettings
  1

  2

  4

  6

 40
0.0
 41
0.0
 42
0.0
 43
0.0
 44
0.0
 45
0.0
 46
0.0
 47
0.0
 48
0.0
 49
0.0
140
0.0
141
0.0
142
1.0
143
1.0
 70
  1712
 72
     0
 73
     0
 74
     0
  7

 75
     0
147
1.0
148
0.0
149
0.0
100
AcDbLayout
  1
Model
 70
     1
 71
     0
 10
0.0
 20
0.0
 11
12.0
 21
9.0
 12
0.0
 22
0.0
 32
0.0
 14
0.0
 24
0.0
 34
0.0
 15
0.0
 25
0.0
 35
0.0
146
0.0
 13
0.0
 23
0.0
 33
0.0
 16
1.0
 26
0.0
 36
0.0
 17
0.0
 27
1.0
 37
0.0
 76
     0
330
18CF0
  0
MLINESTYLE
  5
18CEE
102
{ACAD_REACTORS
330
18D02
102
}
330
18D02
100
AcDbMlineStyle
  2
STANDARD
 70
     0
  3

 62
   256
 51
90.0
 52
90.0
 71
     2
 49
0.5
 62
   256
  6
BYLAYER
 49
-0.5
 62
   256
  6
BYLAYER
  0
ACDBPLACEHOLDER
  5
18CE9
102
{ACAD_REACTORS
330
18D06
102
}
330
18D06
  0
ENDSEC
  0
SECTION
  2
THUMBNAILIMAGE
 90
    21044
310
28000000B40000006F00000001000800000000000C4E000000040000000400000001000009000000FFFFFF000078F800D87828000000F800F800F8004040400010000000F8000000F8F8F800FFFFFF00FFFFFF00FFFFFF00FFFFFF00FFFFFF00FFFFFF00FFFFFF00FFFFFF00FFFFFF00FFFFFF00FFFFFF00FFFFFF00FFFFFF
310
00FFFFFF00FFFFFF00FFFFFF00FFFFFF00FFFFFF00FFFFFF00FFFFFF00FFFFFF00FFFFFF00FFFFFF00FFFFFF00FFFFFF00FFFFFF00FFFFFF00FFFFFF00FFFFFF00FFFFFF00FFFFFF00FFFFFF00FFFFFF00FFFFFF00FFFFFF00FFFFFF00FFFFFF00FFFFFF00FFFFFF00FFFFFF00FFFFFF00FFFFFF00FFFFFF00FFFFFF00FFFF
310
FF00FFFFFF00FFFFFF00FFFFFF00FFFFFF00FFFFFF00FFFFFF00FFFFFF00FFFFFF00FFFFFF00FFFFFF00FFFFFF00FFFFFF00FFFFFF00FFFFFF00FFFFFF00FFFFFF00FFFFFF00FFFFFF00FFFFFF00FFFFFF00FFFFFF00FFFFFF00FFFFFF00FFFFFF00FFFFFF00FFFFFF00FFFFFF00FFFFFF00FFFFFF00FFFFFF00FFFFFF00FF
310
FFFF00FFFFFF00FFFFFF00FFFFFF00FFFFFF00FFFFFF00FFFFFF00FFFFFF00FFFFFF00FFFFFF00FFFFFF00FFFFFF00FFFFFF00FFFFFF00FFFFFF00FFFFFF00FFFFFF00FFFFFF00FFFFFF00FFFFFF00FFFFFF00FFFFFF00FFFFFF00FFFFFF00FFFFFF00FFFFFF00FFFFFF00FFFFFF00FFFFFF00FFFFFF00FFFFFF00FFFFFF00
310
FFFFFF00FFFFFF00FFFFFF00FFFFFF00FFFFFF00FFFFFF00FFFFFF00FFFFFF00FFFFFF00FFFFFF00FFFFFF00FFFFFF00FFFFFF00FFFFFF00FFFFFF00FFFFFF00FFFFFF00FFFFFF00FFFFFF00FFFFFF00FFFFFF00FFFFFF00FFFFFF00FFFFFF00FFFFFF00FFFFFF00FFFFFF00FFFFFF00FFFFFF00FFFFFF00FFFFFF00FFFFFF
310
00FFFFFF00FFFFFF00FFFFFF00FFFFFF00FFFFFF00FFFFFF00FFFFFF00FFFFFF00FFFFFF00FFFFFF00FFFFFF00FFFFFF00FFFFFF00FFFFFF00FFFFFF00FFFFFF00FFFFFF00FFFFFF00FFFFFF00FFFFFF00FFFFFF00FFFFFF00FFFFFF00FFFFFF00FFFFFF00FFFFFF00FFFFFF00FFFFFF00FFFFFF00FFFFFF00FFFFFF00FFFF
310
FF00FFFFFF00FFFFFF00FFFFFF00FFFFFF00FFFFFF00FFFFFF00FFFFFF00FFFFFF00FFFFFF00FFFFFF00FFFFFF00FFFFFF00FFFFFF00FFFFFF00FFFFFF00FFFFFF00FFFFFF00FFFFFF00FFFFFF00FFFFFF00FFFFFF00FFFFFF00FFFFFF00FFFFFF00FFFFFF00FFFFFF00FFFFFF00FFFFFF00FFFFFF00FFFFFF00FFFFFF00FF
310
FFFF00FFFFFF00FFFFFF00FFFFFF00FFFFFF00FFFFFF00FFFFFF00FFFFFF00FFFFFF00FFFFFF00FFFFFF00FFFFFF00FFFFFF00FFFFFF00FFFFFF00FFFFFF00FFFFFF00FFFFFF00FFFFFF00FFFFFF00FFFFFF00FFFFFF00FFFFFF00FFFFFF00FFFFFF00FFFFFF00FFFFFF00FFFFFF00FFFFFF00FFFFFF00FFFFFF00FFFFFF00
310
FFFFFF00FFFFFF00FFFFFF00FFFFFF00FFFFFF00FFFFFF00FFFFFF00FFFFFF00FFFFFF00FFFFFF00FFFFFF00FFFFFF0000000000000000000000000000010101010101010101010101010101010101010101010101010101010101010101010101010101010101010101010101010101010101010101010101010101010101
310
01010101010101010101010101010101010101010101010101010101010101010101010101010101010101010101010101010101010101010101010101010101010101010101010101010101010101010101010101010101010101010105050505050505050000000000000000000000000001010101010101010101010101
310
01010101010101010101010101010101010101010101010101010101010101010101010101010101010101010101010101010101010101010101010101010101010101010101010101010101010101010101010101010101010101010101010101010101010101010101010101010101010101010101010101010101010101
310
01010101010101010101010101010101010101050505050505050500000000000000000000000000010101010101010101010101010101010101010101010101010101010101010101010101010101010101010101010101010101010101010101010101010101010101010101010101010101010101010101010101010101
310
01010101010101010101010101010101010101010101010101010101010101010101010103030303030101010101010101010101010101010101010101010101010101010101010105050505050505050000000000000000000000000001010101010101010101010101010101010101010101010101010101010101010101
310
01010101010101010101010101010101010101010101010101010101010101010101010101010101010101010101010101010101010101010101010101010101010101010101070707070707070707070707070707010101010101010103010101010101010101010101010101010101010101010101010101010103030303
310
05050505050500000000000000000001010101010101010101010101010101010101010101010101010101010101010101010101010101010101010101010101010101010101010101010101010101010101010101010101010101010101010101010101010101010101010101010101010101010101010101010107070707
310
07070707070707070707070101010101010101030101070707070707070707070707070707070701010101010101010101030303030101050505050000000000000000000101010101010101010101010101010101010101010101010101010101010101010101010101010101010101010101010101010101010101010101
310
01010101010101010101010101010101010101010101010101010101010101010101010101010101010101010101010101070707070707070707070707070707010101010101010103010107070707070707070707070707070707070101010101010101010103030303010105050505000000000000000000010101010101
310
01070707070707070707070707070707070707070707070707070707070101010101010101010101010101010101010101010101010101010101010101010101010101010101010101010101010101010101010101010101010101010101010101010101010107070707070707070707070707070701010101010101010301
310
01070707070707070707070707070707070701010101010707070707070103030101050505050000000000000000000101010101010107070707070707070707070707070707070707070707070707070707070707070707070707070707070707070707010101010101010101010101010101010101010101010101010101
310
01010101010101010101010101010101010101010101010101010101010101070707070707070707070101010101010101010101010107070707070707070707070707070707070101010707070707070707010101010105050505000000000000000000010101010101010707070707070707070707070707070707070707
310
07070707070707070707070707070707070707070707070707070701010101010101010101010101010101010101010101010101010101010101010101010101010101010101010101010101010101010101010107070707070707070707010101010101010101010101010707070707070707070707070707070707010101
310
07070707070707070101010101050505050000000000000000000101010101010107070707070707070707070707070707070707070707070707070707070707070707070707070707070707070707070000000000000000000000000000000000000000000000000000000000000000000000000000000000000000000000
310
00000101010101010000070707070707070707070101010707070101010101010101010101010101010101010101010101010101010707070707070701010101010105050505000000000000000000010101010101010707070707070707070707070707070707070707070707070707070707070707070707070707070707
310
07070707070707000000000000000000000000000000000000000000000000000000000000000000000000000000000000000000000000010101010101000007070707070707070707010101070707070707010101010101010101010101010101010101010101010101070707010101010101010101010505050500000000
310
00000000000101010101010107070707070707070707070707070707070707070707070707070707070707070707070707070707070707070707070700000000000000000000000000000000000000000000000000000000000000000000000000000000000000000000000001010107070707070707070707070707070707
310
07070707070707070101010101010101010101010101010101010101010101010707070101010101010101010105050505000000000000000000010101010101070707070707070707070707070707070707070707070707070707070707070707070707070707070707070707070707070000000000000000000000000000
310
00000000000000000000000000000000000000000000000000000000000000000000010101070707070707070707070707070707070707070707070707010101010100000000000000000000000000000000010101070707070707070101010101010505050500000000000000000001010101010107070707070707070707
310
07070707070707070707070707070707070707070707070707070707070707070707070707070700000000000000000000000000000000000000000000000000000000000000000000000000000000000000000000000001010107070707040707080808080808080707070707070707070101010101010000000000000000
310
00000000000000000101010707070707070701010101010100000000000000000000000000010101010101070707070707070707070707070707070707070707070707070707070707070707070707070707070707070707070000000000000707070707070707070707070707070707070707070707070707070707070000
310
00000000000000000000000000010101070707070407080808080808080808070707070707070701010301010100000000000000000000000000000000010101070707070707070101010101010000000000000000000000000001010101010101070707070707070707070707070707070707070707070707070707070707
310
07070707070707070707070707070707070000000707070707070707070707070707070707070707070707070707070707070707070707070707070707070707070707070707070707070708080808080808080801010707070707070101030101010000000000000000000000000000000001010107070707070701010101
310
01010100000000000000000000000000010101010101010707070707070707070707070707070707070707070707070707070707070707070707070707070707070707070707000000070707070707070707070707070707070707070707070707070707070707070707070707070707070707070707070707070707070707
310
07010808010108080801010101010101010101010301010101010101010101010101010101010101010101070707070707070101010101010000000000000000000000000001010101010101070707070707070707070707070707070707070707070707070707070707070707070707070707070707070707070700000007
310
07070707070707070707070707070707070707070707070707070707070707070707070707070707070707070707070707070707070701010101010101010101010101010101010101030101010101010107070707070707070707070707070707070707070707010101010101000000000000000000000000000101010101
310
01070707070707070707070707070707070707070707070707070707070707070707070707070707070707070707070707000000000707070707070707070707070707070707070707070707070707070707070707070707070707070707070707070707070707070707070101010101010101010101010101010101010103
310
01010101010101070707070707070707070707070707070707070707070101010101010000000000000000000000000001010101010107070707070707070707070707070707070707070707070707070707070707070707070707070707070707070707000000000007070707070707070707070707070707070707070707
310
07070707070707070707070707070707070707070707070707070707070707070707070707000000000000000000000101010101010101010101010107070707070707070707070707070701010101010101010101010101000000000000000000000000000101010101010707070707070707070707070707070707070707
310
07070707070707070707070707070707070707070707070707070000000000070707070707070707070707070707070707070707070707070707070707070707070707070707070707070707070707070707070707070707070700000000000000000000010101010107070707070707070707070707070707070707070707
310
07070707070707070701010101010000000000000000000000000001010101010101070707070707070707070707070707070707070707070000000000000000000000000000000000000000000000000000000007070707070707070707070707070707070707070707070707070707070707070707070707070707070707
310
07070707070707070707070707070707000000000000000000000101010101070707070707070707070707070707070707070707070707070707070707070103030101000000000000000000000000000101010101010107070707070707070707070707070707070707070707000000000000000000000000000000000000
310
00000000000000000000070707070707070707070707070707070707070707070707070707070707070707070707070707070707070707070707070707070707070707000000000000000000000000010101010107070707070707070707070707070707070707070707070707070707070707010303010100000000000000
310
00000000000001010101010101070707070707070707070707070707070707070707070707070707000000000000000000000000000000000000000000000000070707070707070707070707070707070707070707070707070707070707070707070707070707070707070707070707070707070707070700000000000000
310
00000000000000030301070707070707070707070707070707070707070707070707070707070707070103030101000000000000000000000000000101010101010107070707070707070707070707070707070707070707070707070707070000000000000000000000000000000000000000000007070707070707070707
310
07070707070707070707070707070707070707070707070707070707070707070707070707070707070707070707000000000000000000000000000003030101010101010101010101010101010101010101010101010101010101010101010303010100000000000000000000000000010101010101010707070707070707
310
07070707070707070707070707070707070707070707070707070707070707070707070707000000000000070707070707070707070707070707070707070707070707070707070707070707070707070707070707070707070707070707070707070700000000000000000000000000000000010101010101010101010101
310
01010101010101010101010101010101010101010101010101000000000000000000000000000101010101010707070707070707070707070707070707070707070707070707070707070707070707070707070707070707070707000000000707070707070707070707070707070707070707070707070707070707070707
310
07070707070707070707070707070707070707000000000000000000000000000000000000000000000000000000000000000000000000000000000000000000000000000001010101010101010100000000000000000000000000010101010101040404040707070707070707070707070707070707070707070707070707
310
07070707070707070707070707070707070000000007070707070707070707070707070707070707070707070707070707070707070707070707070707070707070707070707070700000000000000000000000000000000000000000000000000000000000000000000000000000000000000000000000000000101010101
310
01010101000000000000000000000000000101010101010404040407070707070707070707070707070707070707070707070707070707070707070707070707070707070707000000000707070707070707070707070707070707070707070707070707070707070707070707070707070707070707070707070707000000
310
00000000000000000000000000000000000000000000000000000000000000000000000000000000000000000000000001010101010101010100000000000000000000000000010101010101040404040404040404040404040404040404040404040404040404040404040404040404040404040404040404040404040404
310
04040404040404040404040404040404040404040404040404040404040404040404040404040404040404040404040404040404040404040404040404040404040404040404040000000000000000000000000000000000000000000000000000000000000101010101010101010000000000000000000000000001010101
310
01010404040404040404040404040404040404040404040404040404040404040404040404040404040404040404040404040404040404040404040404040404040404040404040404040404040404040404040404040404040404040404040404040404040404040404040404040404040404040404040404040404000000
310
00000000000000000000000000000000000000000000000000000001010101010101010100000000000000000000000000010101010101010404040404040707070707070404040404040404040404040404070707040404070707040404070707040404070707040404070707040404070707040404070707040404070707
310
04040407070704040407070704040407070704040407070704040404070704040404040404040404040404040404040404040404000000000000000000000000000000000000000000000000000000000101010101010101010000000000000000000000000001010101010101040404040404070707070707070707070707
310
07070704040404040707070404040707070404040707070404040707070404040707070404040707070404040707070404040707070404040707070404040707070404040707070404040707070404040407070404040404040404040404040404040404040404040400000000000000000000000000000000000000000000
310
00000000000001010101010101010100000000000000000000000000010101010101010404040404040707070707070707070707070707070404040404070707040404070707040404070707040404070707040404070707040404070707040404070707040404070707040404070707040404070707040404070707040404
310
07070704040404070704040404040404040404040404040404040404040404000000000000000000000000000000000000000000000000000000000101010101010101010000000000000000000000000001010101010101040404040404070707070707070707070707070707040404040404040404040404040404040404
310
04040404040404040404040404040404040404040404040404040404040404040404040404040404040404040404040404040404040404040404040404040404040404040404040404040404040404040404040400000000000000000000000000000000000000000000000000000000010101010101010101000000000000
310
00000000000000010101010101010404040707070707070704040404040707070707070704040404040404040404040404040404040404040404040404040404040404040404040404040404040404040404040404040404040404040404040404040404040404040404040404040404040404040404040404040404040404
310
04040404040404040404000000000000000000000000000000000000000000000000000000000101010101010101010000000000000000000000000001010101010101040404070707070707070404040404070707070707070404040404040404040404040404040404040404040404040404040404040404040404040404
310
04040404040404040404040404040404040404040404040404040404040404040404040404040404040404040404040404040404040404040404040404040400000000000000000000000000000000000000000000000000000000010101010101010101000000000000000000000000000101010101010104040407070707
310
07070700040404040404040404040404040404040404040404040404040404040404040404040404040404040404040404040404040404040404040404040404040404040404040404040404040404040404040404040404040404040404040404040404040404040404040404040404040404040000000000000000000000
310
00000000000000000000000000000000000101010101010101010000000000000000000000000001010101010101040404070707070707070707070404040404040404040404040404040404040404040404040404040404040404040404040404040404040404040404040404040404040404040404040404040404040404
310
04040404040404040404040404040404040404040404040404040404040404040404040404040404040400000000000000000000000000000000000000000000000000000000010101010101010101000000000000000000000000000101010101010104040407070707070707070707040404040404040404040404040404
310
04040404040404040404040404040404040404040404040404040404040404040404040404040404040404040404040404040404040404040404040404040404040404040404040404040404040404040404040404040404040404040404040000000000000000000000000000000000000000000000000000000001010101
310
01010101010000000000000000000000000001010101010101040404070707070707070707070404040404040404040404040404040404040404040404040404040404040404040404040404040404040404040404040404040404040404040404040404040404040404040404040404040404040404040404040404040404
310
04040404040404040404040404040404040404040400000000000000000000000000000000000000000000000000000000010101010101010101000000000000000000000000000101010101010104040407070707070707070707040404040404040404040404040404040404040404040404040404040404040404040404
310
04040404040404040404040404040404040404040404040404040404040404040404040404040404040404040404040404040404040404040404040404040404040404040404040404040000000000000000000000000000000000000000000000000000000001010101010101010100000000000000000000000000010101
310
01010101040404040404000000000004040404040404040404040404040404040404040404040404040404040404040404040404040404040404040404040404040404040404040404040404040404040404040404040404040404040404040404040404040404040404040404040404040404040404040404040404040404
310
00000000000000000000000000000000000000000000000000000000010101010101010101000000000000000000000000000101010101010104040404040404040404040404040404040404040404040404040707070404040707070404040707070404040707070404040707070404040707070404040707070404040707
310
07040404070707040404070707040404070707040404070707040404070707040404040404040404040404040404040404040404040000000000000000000000000000000000000000000000000000000001010101010101010100000000000000000000000000010101010101010404040404040404040404040404040404
310
04040404040404040407070704040407070704040407070704040407070704040407070704040407070704040407070704040407070704040407070704040407070704040407070704040407070704040407070704040404040404040404040404040404040404040404000000000000000000000000000000000000000000
310
00000000000000010101010101010101000000000000000000000000000101010101010104040407070707070404040404040404040404040404040404040707070404040707070404040707070404040707070404040707070404040707070404040707070404040707070404040707070404040707070404040707070404
310
04070707040404070707040404040404040404040404040404040404040404040000000000000000000000000000000000000000000000000000000001010101010101010100000000000000000000000000010101010101010404040707070707070707070704040404040404040404040404070707040404070707040404
310
07070704040407070704040407070704040407070704040407070704040407070704040407070704040407070704040407070704040407070704040407070704040404040404040404040404040404040404040404000000000000000000000000000000000000000000000000000000000101010101010101010000000000
310
00000000000000000101010101010104040407070707070707070707040404040404040404040404040707070404040707070404040707070404040707070404040707070404040707070404040707070404040707070404040707070404040707070404040707070404040707070404040707070404040404040404040404
310
04040404040404040404040000000000000000000000000000000000000000000000000000000001010101010101010100000000000000000000000000010101010101010404040707070707070707070704040404040404040404040404070707040404070707040404070707040404070707040404070707040404070707
310
04040407070704040407070704040407070704040407070704040407070704040407070704040407070704040404040404040404040404040404040404040404000000000000000000000000000000000000000000000000000000000101010101010101010000000000000000000000000001010101010101040404070707
310
07070707070707070707070404040404040404070707070704070707070704070707070704070707070704070707070704070707070704070707070704070707070704070707070704070707070704070707070704070707070704070707070704040404040404040404040404040404040404040400000000000000000000
310
00000000000000000000000000000000000001010101010101010100000000000000000000000000010101010101010404040404040707070707070707070707070707040404040407070707070407070707070407070707070407070707070407070707070407070707070407070707070407070707070407070707070407
310
07070707040707070707040707070707040707070707040404040404040404040404040404040404040404000000000000000000000000000000000000000000000000000000000101010101010101010000000000000000000000000001010101010101040404040404070707070707070707070707070704040404040707
310
07070704070707070704070707070704070707070704070707070704070707070704070707070704070707070704070707070704070707070704070707070704070707070704070707070704040404040404040404040404040404040404040400000000000000000000000000000000000000000000000000000000010101
310
01010101010100000000000000000000000000010101010101010404040404040707070707070707070707070707040404040407070707070407070707070407070707070407070707070407070707070407070707070407070707070407070707070407070707070407070707070407070707070407070707070407070707
310
07040404040404040404040404040404040404040404000000000000000000000000000000000000000000000000000000000101010101010101010000000000000000000000000001010101010101040404040404070707070707070707070707040404040404040707070707040707070707040707070707040707070707
310
04070707070704070707070704070707070704070707070704070707070704070707070707070707070704070707070704070707070707040404040404040404040404040404040404040400000000000000000000000000000000000000000000000000000000010101010101010101000000000000000000000000000101
310
01010101010404040404040707070707070707070707070404040404040407070707070407070707070407070707070407070707070407070707070407070707070407070707070407070707070407070707070407070707070707070707070407070707070407070707070704040404040404040404040404040404040404
310
04000000000000000000000000000000000000000000000000000000000101010101010101010000000000000000000000000001010101010101040404040404040404040404040404040404040404040404040707070707040707070707040707070707040707070707040707070707040707070707040707070707040707
310
07070704070707070704070707070707070707070704070707070704070707070707040404040404040404040404040404040404040400000000000000000000000000000000000000000000000000000000010101010101010101000000000000000000000000000101010101010104040404040404040404040404040404
310
04040404040404040404040404040404040404040404040404040407070707070407070707070407070707070407070707070407070707070407070707070407070707070407070707070407070707070407070707070404040404040404040404040404040404040404040000000000000000000000000000000000000000
310
00000000000000000101010101010101010000000000000000000000000001010101010101040404040404040404040404040404040404040407070707040404040404040404040404040404040404040707070707040707070707040707070707040707070707040707070707040707070707040707070707040707070707
310
04070707070704070707070704040404040404040404040404040404040404040400000000000000000000000000000000000000000000000000000000010101010101010101000000000000000000000000000101010101010104040407070707070707070404040404040404040707070704040404040404040404040404
310
04040404040407070707070407070707070407070707070407070707070407070707070407070707070407070707070407070707070407070707070407070707070404040404040404040404040404040404040404040000000000000000000000000000000000000000000000000000000001010101010101010100000000
310
00000000000000000001010101010101040404070707070707070707070707070707040407070707040404040404040404040404040404040404040407070704040407070704040407070704040407070704040407070704040407070704040407070704040707070704040407070704040407070704040404040404040404
310
04040404040404040404040400000000000000000000000000000000000000000000000000000000010101010101010101000000000000000000000000000101010101010104040407070707070707070707070707070704040404040404040404040404040404040404040404040404040404040404040404040404040404
310
04040404040404040404040404040404040404040404040404040404040404040404040404040404040404040404040404040404040404040404040404040404040000000000000000000000000000000000000000000000000000000001010101010101010100000000000000000000000000010101010101010404040707
310
07070707070707070707070707040407070707040404040404040707070707040707070707040707070707040707070707040707070707040707070707040707070707040707070707040707070707040707070707040707070707040707070707040404040404040404040404040404040404040404000000000000000000
310
00000000000000000000000000000000000000010101010101010101000000000000000000000000000101010101010104040407070707070707070707070707070404040707070704040404040404070707070704070707070704070707070704070707070704070707070704070707070704070707070704070707070704
310
07070707070407070707070407070707070407070707070404040404040404040404040404040404040404040000000000000000000000000000000000000000000000000000000001010101010101010100000000000000000000000000010101010101010404040404040404040404040404040404040404070707070404
310
04040404040707070707040707070707040707070707040707070707040707070707040707070707040707070707040707070707040707070707040707070707040707070707040707070707040404040404040404040404040404040404040404000000000000000000000000000000000000000000000000000000000101
310
01010101010101000000000000000000000000000101010101010104040404040404040404040404040404040404040404040404040404040404040707070404040707070404040707070404040707070404040707070404040707070404040707070404070707070704070707070704070707070704070707070704040707
310
07070404040404040404040404040404040404040404040000000000000000000000000000000000000000000000000000000001010101010101010100000000000000000000000000010101010101010404040404040404040404040404040404040404040404040404040404040404070707040404070707040404070707
310
04040407070704040407070704040407070704040407070704040407070704040407070704040407070704040407070704040407070704040404040404040404040404040404040404040404000000000000000000000000000000000000000000000000000000000101010101010101010000000000000000000000000001
310
01010101010104040404040407070707070707070707070707040404040404040404040404040707070404040707070404040707070404040707070404040707070404040707070404040707070404040707070404040707070404040707070404040707070404040707070404040404040404040404040404040404040404
310
04040000000000000000000000000000000000000000000000000000000001010101010101010100000000000000000000000000010101010101010404040404040707070707070707070707070704040404040404040404040404070707040404070707040404070707040404070707040404070707040404070707040404
310
07070704040407070704040407070704040407070704040407070704040407070704040404040404040404040404040404040404040404000000000000000000000000000000000000000000000000000000000101010101010101010000000000000000000000000001010101010101040404040404070707070707070707
310
07070707040404040404040707070404040707070404040707070404040707070404040707070404040707070404040707070404040707070404040707070404040707070404040707070404040707070404040707070404040404040404040404040404040404040404040400000000000000000000000000000000000000
310
00000000000000000001010101010101010100000000000000000000000000010101010101010404040404040707070707070707070707070707040404040404070707040404070707040404070707040404070707040404070707040404070707040404070707040404070707040404070707040404070707040404070707
310
04040407070704040407070704040404040404040404040404040404040404040404000000000000000000000000000000000000000000000000000000000101010101010101010000000000000000000000000001010101010101040404040404070707070707070707070707070704040404040407070704040407070704
310
04040707070404040707070404040707070404040707070404040707070404040707070404040707070404040707070404040707070404040707070404040707070404040404040404040404040404040404040404040400000000000000000000000000000000000000000000000000000000010101010101010101000000
310
00000000000000000000010101010101010404040404040707070707070707070707070707040404040404070707040404070707040404070707040404070707040404070707040404070707040404070707040404070707040404070707040404070707040404070707040404070707040404070707040404040404040404
310
04040404040404040404040404000000000000000000000000000000000000000000000000000000000101010101010101010000000000000000000000000001010101010101040404040404070707070707070707070707040404040404040407070704040407070704040407070704040407070704040407070704040407
310
07070404040707070404040707070404040707070404040707070404040707070404040707070404040707070404040404040404040404040404040404040404040400000000000000000000000000000000000000000000000000000000010101010101010101000000000000000000000000000101010101010104040404
310
04040707070707070707070707070707070704040404070707040404070707040404070707040404070707040404070707040404070707040404070707040404070707040404070707040404070707040404070707040404070707040404070707040404040404040404040404040404040404040404040000000000000000
310
00000000000000000000000000000000000000000101010101010101010000000000000000000000000001010101010101040404040404070707070707070707070707070707070404040407070704040407070704040407070704040407070704040407070704040407070704040407070704040407070704040407070704
310
04040707070404040707070404040707070404040707070404040404040404040404040404040404040404040400000000000000000000000000000000000000000000000000000000010101010101010101000000000000000000000000000101010101010104040404040407070707070707070707070707070707040404
310
04070707040404070707040404070707040404070707040404070707040404070707040404070707040404070707040404070707040404070707040404070707040404070707040404070707040404040404040404040404040404040404040404040000000000000000000000000000000000000000000000000000000001
310
01010101010101010000000000000000000000000001010101010101040404040404070707070707070707070707070707070404040407070704040407070704040407070704040407070704040407070704040407070704040407070704040407070704040407070704040407070704040407070704040407070704040407
310
07070404040404040404040404040404040404040404040400000000000000000000000000000000000000000000000000000000010101010101010101000000000000000000000000000101010101010104040404040407070707070707070707070707070707040404040707070404040707070404040707070404040707
310
07040404070707040404070707040404070707040404070707040404070707040404070707040404070707040404070707040404070707040404040404040404040404040404040404040404040000000000000000000000000000000000000000000000000000000001010101010101010100000000000000000000000000
310
01010101010101040404040404070707070707070707070707070707070404040407070704040407070704040407070704040407070704040407070704040407070704040407070704040407070704040407070704040407070704040407070704040407070704040407070704040404040404040404040404040404040404
310
04040400000000000000000000000000000000000000000000000000000000010101010101010101000000000000000000000000000101010101010104040404040404040404040404040404040404040707070704040707070404040707070404040707070404040707070404040707070404040707070404040707070404
310
04070707040404070707040404070707040404070707040404070707040404070707040404040404040404040404040404040404040404040000000000000000000000000000000000000000000000000000000001010101010101010100000000000000000000000000010101010101010404040404040404040404040404
310
04040404040407070707040407070704040407070704040407070704040407070704040407070704040407070704040407070704040407070704040407070704040407070704040407070704040407070704040407070704040404040404040404040404040404040404040404000000000000000000000000000000000000
310
00000000000000000000010101010101010101000000000000000000000000000101010101010104040404040400000000000000000000000404040707070704040707070404040707070404040707070404040707070404040707070404040707070404040707070404040707070404040707070404040707070404040707
310
07040404070707040404070707040404040404040404040404040404040404040404040000000000000000000000000000000000000000000000000000000001010101010101010100000000000000000000000000010101010101010404040404040000000000000000000000040404040404040404040404040404040404
310
04040404040404040404040404040404040404040404040404040404040404040404040404040404040404040404040404040404040404040404040404040404040404040404040404040404040404040404040404040404000000000000000000000000000000000000000000000000000000000101010101010101010000
310
00000000000000000000000101010101010104040404040400000000000000000000000404040404040404040404040404040404040404040404040404040404040404040404040404040404040404040404040404040404040404040404040404040404040404040404040404040404040404040404040404040404040404
310
04040404040404040404040404040000000000000000000000000000000000000000000000000000000001010101010101010100000000000000000000000000010101010101010404040707070707070707070707070700040404070707070404070707040404070707040404070707040404070707040404070707040404
310
07070704040407070704040407070704040407070704040407070704040407070704040407070704040407070704040404040404040404040404040404040404040404000000000000000000000000000000000000000000000000000000000101010101010101010000000000000000000000000001010101010101040404
310
07070707070707070707070707000404040707070704040707070404040707070404040707070404040707070404040707070404040707070404040707070404040707070404040707070404040707070404040707070404040707070404040707070404040404040404040404040404040404040404040400000000000000
310
00000000000000000000000000000000000000000001010101010101010100000000000000000000000000010101010101010404040707070707070707070707070700040404070707070404070707040404070707040404070707040404070707040404070707040404070707040404070707040404070707040404070707
310
04040407070704040707070707070707070707070707070707070404040404040404040404040404040404040404000000000000000000000000000000000000000000000000000000000101010101010101010000000000000000000000000001010101010101040404040404000000000000000000000004040407070707
310
04040707070407070707070707070707070707070707070707070707070707070707070707070707070707070707070707070707070707070707070707070707070707070707070707070707070707040404040404040404040404040404040404040400000000000000000000000000000000000000000000000000000000
310
01010101010101010100000000000000000000000000010101010101010404040404040000000000000000000000040404070707070407070707070707070707070707070707070707070707070707070707070707070707070707070707070707070707070707070707070707070707070707070707070707070707070707
310
07070707070404040404040404040404040404040404040404000000000000000000000000000000000000000000000000000000000101010101010101010000000000000000000000000001010101010101040404040404000000000000000000000004040407070707040707070707070707070707070707070707070707
310
07070707070707070707070707070707070707070707070707070707070707070707070707070707070707070707070707070707070707070707040404040404040404040404040404040404040400000000000000000000000000000000000000000000000000000000010101010101010101000000000000000000000000
310
00010101010101010404040404040000000000000000000000040404070707070407070707070707070707070707070707070707070707070707070707070707070707070707070707070407070707070707070707070707070707070707070707070707070707070707070707070404040404040404040404040404040404
310
04040404000000000000000000000000000000000000000000000000000000000101010101010101010000000000000000000000000001010101010101040404040404000000000000000000000004040407070707070707070707070707070707070707070707070707070707070707070707070707070707070707070707
310
07070707070707070707070707070707070707070707070707070707070707070707070704040404040404040404040404040404040404040400000000000000000000000000000000000000000000000000000000010101010101010101000000000000000000000000000101010101010104040404040404040404040404
310
04040404040404070707070707070707070707070707070707070707070707070707070707070707070707070707070707070707070707070707070707070707070707070707070707070707070707070707070707070707070404040404040404040404040404040404040404040404040404040404040404040404040404
310
04040404040404040404040404040404010101010000000000000000000000000001010101010101040404070707070707070707070707070707070707070404070707070707070707070707070707070707070707070707070707070707070707070707070707070707070707070707070707070707070707070707070707
310
07070707070707070707040707070404040404040404040404040404040404040404040404040404040404040404040404040404040404040404040404040404040404040404010101000000000000000000000000000101010101010104040407070707070707070707070707070707070707040404040407070404040407
310
07040404040707040404070707040404070707040404070707040404070707040404070707040404070707040404070707040404070707040404070707040404070707040404040404040404040404040404040404040404040404040404040404040404040404040404040404040404040404040404040404040401010100
310
00000000000000000000000001010101010101040404070707070707070707070707070707070707070404040404070704040404070704040404070704040407070704040407070704040407070704040407070704040407070704040407070704040407070704040407070704040407070704040407070704040404040404
310
04040404040404040404040404040404040404040404040404040404040404040404040404040404040404040404040404010101000000000000000000000000000101010101010104040407070707070707070707070707070707070707040404040707040404040707040404040707040404040707040404040707040404
310
04070704040404070704040404070704040404070704040404070704040404070707070404070707040407070707040404040404040404040404040404040404040404040707070707070707070707070707070707070707070707070707070707070404040401010100000000000000000000000000010101010101010404
310
04040404070707070707070707070404040404040404040407070404040407070404040407070404040407070404040407070404040407070404040407070404040407070404040407070404040407070404040407070707040407070704040707070704040404040404040404040404040404040404040404070707070707
310
07070707070707070707070707070707070707070707070704040404010101000000000000000000000000000101010101010104040404040407070707070707070707040404040404040404040707070404040707070404070707070404070707070404070707070404070707070404070707070404070707070404070707
310
07040407070707040404070707070404070707040407070707070404040404040404040404040404040404040404040707070707070707070707070707070707070707070707070707070707070404040401010100000000050505050505050505010101010101010404040404040404040404040404040404040404040404
310
04040407070704040407070704040707070704040707070704040707070704040707070704040707070704040707070704040707070704040707070704040407070707040407070704040707070707040404040404040404040404040404040404040404040404040404040404040404040404040404040404040404040404
310
04040404040404010101000000000505050505050505050101010101010104040404040404040404040404040404040404040404040404040707070404040707070404070707070405050505050505050505050505050505050505050505050505050505050505050505050505050507070404040707070704040707070404
310
07070707070404040404040404040404040404040404040404040404040404040404040404040404040404040404040404040404040404040404040401010100000000050505050505050505010101010101010404040404040404040404040404040404040404040404040404040404040404040404040404040404040505
310
05050505050505050505050505050505050505050505050505050505050505050505050505040404040404040404040404040404040404040404040404040404040404040404040404040404040404040404040404040404040404040404040404040404040404040404040404040404010101010000000005050505050505
310
05050101010101010104040404040404040404040404040404040404040404040404040404040404040404040404040404040405050505050505050505050505050505050505050505050505050505050505050505050505050504040404040404040404040404040404040404040404040404040404040404040404040404
310
04040404040404040404040404040404040404040404040404040404040404040404040404040101010100000000050505050505050505010101010101010404040404040404040404040404040404040404040404040404040404040404040404040404040404040505050505050505050505050505050505050505050505
310
05050505050505050505050505050505040404040404040404040404040404040404040404040404040404040404040404040404040404040404010101010101010101010101010101010707010101010101010101070707070707010101010000000005050505050505050501010101010101010101040404040404040404
310
04040404040404040404040404040404040404040404040404040404040405050505050505050505050505050505050505050505050505050505050505050505050505050504040404040404040404040404040404040404040404040404040404040404040404040404040404010107070707070707010707070707070701
310
07070101010707070101010707070707070101010100000000050505050505050505010101010101010101010404040404040404040404040404040404040404040404040404040404040404040404040404040505050505050505050505050505050505050505050505050505050505050505050505050505050404040404
310
04040404040404040404040404040404040404040404040404040404040404040404040101070707070707070107070707070707010707070101070707010101070707070707010101010000000005050505050505050501010101010101010101040404040404040404040404040404040404040404040404040404040404
310
04040404040404040405050505050505050505050505050505050505050505050505050505050505050505050505050504040404040404040404040404040404040404040404040404040404040404040404040404040404010107070707070707010707070707070701070707010107070701010107070707070101010101
310
00000000050505050505050505050505050101010101010101010101010101010101010101010101010101010101010101010101010101010101010101010505050505050505050505050505050505050505050505050505050505050505050505050505050101010101010101010101010101010101010101010101010101
310
01010101010101010101010101010101010101010101010101010101010101010707070101010101010101010101010101000000000000000005050505050505050505050505010101010101010101010101010101010101010101010101010101010101010101010101010101010101010101050505050505050505050505
310
05050505050505050505050505050505050505050505050505050501010101010101010101010101010101010101010101010101010101010101010101010101010101010101010101010101010101010101010101010101010101010101010101010101010100000000000000000505050505050505050505050501010101
310
01010101010101010101010101010101010101010101010101010101010101010101010101010101010101010101010101010101010101010101010101010101010101010101010101010101010101010101010101010101010101010101010101010101010101010101010101010101010101010101010101010101010101
310
01010101010101010101010101010101010101010101010101010101000000000000000000000000000000000000000000000000000000000000000000000000000000000000000000000000000000000000000000000000000000000000000000000000000000000000000000000000000000000000000000000000000000
310
0000000000000000000000000000000000000000000000000000000000000000000000000000000000000000000000000000000000000000000000000000000000000000000000000000000000000000000000000000000602
  0
ENDSEC
  0
EOF
