  0
SECTION
  2
HEADER
  9
$ACADVER
  1
AC1014
  9
$ACADMAINTVER
 70
     0
  9
$DWGCODEPAGE
  3
ANSI_1252
  9
$INSBASE
 10
0.0
 20
0.0
 30
0.0
  9
$EXTMIN
 10
758.528333
 20
2441.054667
 30
0.0
  9
$EXTMAX
 10
1183.565833
 20
2716.054667
 30
0.0
  9
$LIMMIN
 10
0.0
 20
0.0
  9
$LIMMAX
 10
12.0
 20
9.0
  9
$ORTHOMODE
 70
     0
  9
$REGENMODE
 70
     1
  9
$FILLMODE
 70
     1
  9
$QTEXTMODE
 70
     0
  9
$MIRRTEXT
 70
     1
  9
$DRAGMODE
 70
     2
  9
$LTSCALE
 40
1.0
  9
$OSMODE
 70
     0
  9
$ATTMODE
 70
     1
  9
$TEXTSIZE
 40
0.2
  9
$TRACEWID
 40
0.05
  9
$TEXTSTYLE
  7
STANDARD
  9
$CLAYER
  8
0
  9
$CELTYPE
  6
CONTINUOUS
  9
$CECOLOR
 62
   256
  9
$CELTSCALE
 40
1.0
  9
$DELOBJ
 70
     1
  9
$DISPSILH
 70
     0
  9
$DIMSCALE
 40
1.0
  9
$DIMASZ
 40
0.18
  9
$DIMEXO
 40
0.0625
  9
$DIMDLI
 40
0.38
  9
$DIMRND
 40
0.0
  9
$DIMDLE
 40
0.0
  9
$DIMEXE
 40
0.18
  9
$DIMTP
 40
0.0
  9
$DIMTM
 40
0.0
  9
$DIMTXT
 40
0.18
  9
$DIMCEN
 40
0.09
  9
$DIMTSZ
 40
0.0
  9
$DIMTOL
 70
     0
  9
$DIMLIM
 70
     0
  9
$DIMTIH
 70
     1
  9
$DIMTOH
 70
     1
  9
$DIMSE1
 70
     0
  9
$DIMSE2
 70
     0
  9
$DIMTAD
 70
     0
  9
$DIMZIN
 70
     0
  9
$DIMBLK
  1

  9
$DIMASO
 70
     1
  9
$DIMSHO
 70
     1
  9
$DIMPOST
  1

  9
$DIMAPOST
  1

  9
$DIMALT
 70
     0
  9
$DIMALTD
 70
     2
  9
$DIMALTF
 40
25.4
  9
$DIMLFAC
 40
1.0
  9
$DIMTOFL
 70
     0
  9
$DIMTVP
 40
0.0
  9
$DIMTIX
 70
     0
  9
$DIMSOXD
 70
     0
  9
$DIMSAH
 70
     0
  9
$DIMBLK1
  1

  9
$DIMBLK2
  1

  9
$DIMSTYLE
  2
STANDARD
  9
$DIMCLRD
 70
     0
  9
$DIMCLRE
 70
     0
  9
$DIMCLRT
 70
     0
  9
$DIMTFAC
 40
1.0
  9
$DIMGAP
 40
0.09
  9
$DIMJUST
 70
     0
  9
$DIMSD1
 70
     0
  9
$DIMSD2
 70
     0
  9
$DIMTOLJ
 70
     1
  9
$DIMTZIN
 70
     0
  9
$DIMALTZ
 70
     0
  9
$DIMALTTZ
 70
     0
  9
$DIMFIT
 70
     3
  9
$DIMUPT
 70
     0
  9
$DIMUNIT
 70
     2
  9
$DIMDEC
 70
     4
  9
$DIMTDEC
 70
     4
  9
$DIMALTU
 70
     2
  9
$DIMALTTD
 70
     2
  9
$DIMTXSTY
  7
STANDARD
  9
$DIMAUNIT
 70
     0
  9
$LUNITS
 70
     2
  9
$LUPREC
 70
     4
  9
$SKETCHINC
 40
0.1
  9
$FILLETRAD
 40
0.0
  9
$AUNITS
 70
     0
  9
$AUPREC
 70
     0
  9
$MENU
  1
acad
  9
$ELEVATION
 40
0.0
  9
$PELEVATION
 40
0.0
  9
$THICKNESS
 40
0.0
  9
$LIMCHECK
 70
     0
  9
$BLIPMODE
 70
     1
  9
$CHAMFERA
 40
0.0
  9
$CHAMFERB
 40
0.0
  9
$CHAMFERC
 40
0.0
  9
$CHAMFERD
 40
0.0
  9
$SKPOLY
 70
     0
  9
$TDCREATE
 40
2451800.358692130
  9
$TDUPDATE
 40
2451800.358692130
  9
$TDINDWG
 40
0.0000000000
  9
$TDUSRTIMER
 40
0.0000000000
  9
$USRTIMER
 70
     1
  9
$ANGBASE
 50
0.0
  9
$ANGDIR
 70
     0
  9
$PDMODE
 70
     0
  9
$PDSIZE
 40
0.0
  9
$PLINEWID
 40
0.0
  9
$COORDS
 70
     0
  9
$SPLFRAME
 70
     0
  9
$SPLINETYPE
 70
     6
  9
$SPLINESEGS
 70
    10
  9
$ATTDIA
 70
     0
  9
$ATTREQ
 70
     1
  9
$HANDLING
 70
     1
  9
$HANDSEED
  5
2AA
  9
$SURFTAB1
 70
     6
  9
$SURFTAB2
 70
     6
  9
$SURFTYPE
 70
     6
  9
$SURFU
 70
     6
  9
$SURFV
 70
     6
  9
$UCSNAME
  2

  9
$UCSORG
 10
0.0
 20
0.0
 30
0.0
  9
$UCSXDIR
 10
1.0
 20
0.0
 30
0.0
  9
$UCSYDIR
 10
0.0
 20
1.0
 30
0.0
  9
$PUCSNAME
  2

  9
$PUCSORG
 10
0.0
 20
0.0
 30
0.0
  9
$PUCSXDIR
 10
1.0
 20
0.0
 30
0.0
  9
$PUCSYDIR
 10
0.0
 20
1.0
 30
0.0
  9
$USERI1
 70
     0
  9
$USERI2
 70
     0
  9
$USERI3
 70
     0
  9
$USERI4
 70
     0
  9
$USERI5
 70
     0
  9
$USERR1
 40
0.0
  9
$USERR2
 40
0.0
  9
$USERR3
 40
0.0
  9
$USERR4
 40
0.0
  9
$USERR5
 40
0.0
  9
$WORLDVIEW
 70
     1
  9
$SHADEDGE
 70
     3
  9
$SHADEDIF
 70
    70
  9
$TILEMODE
 70
     1
  9
$MAXACTVP
 70
    16
  9
$PINSBASE
 10
0.0
 20
0.0
 30
0.0
  9
$PLIMCHECK
 70
     0
  9
$PEXTMIN
 10
-1.000000E+20
 20
-1.000000E+20
 30
-1.000000E+20
  9
$PEXTMAX
 10
-1.000000E+20
 20
-1.000000E+20
 30
-1.000000E+20
  9
$PLIMMIN
 10
0.0
 20
0.0
  9
$PLIMMAX
 10
12.0
 20
9.0
  9
$UNITMODE
 70
     0
  9
$VISRETAIN
 70
     0
  9
$PLINEGEN
 70
     1
  9
$PSLTSCALE
 70
     0
  9
$TREEDEPTH
 70
  3020
  9
$PICKSTYLE
 70
     1
  9
$CMLSTYLE
  2
STANDARD
  9
$CMLJUST
 70
     0
  9
$CMLSCALE
 40
1.0
  9
$PROXYGRAPHICS
 70
     0
  9
$MEASUREMENT
 70
     0
  0
ENDSEC
  0
SECTION
  2
CLASSES
  0
CLASS
  1
LWPOLYLINE
  2
AcDbPolyline
  3
"AutoCAD"
 90
        0
280
     0
281
     1
  0
CLASS
  1
IMAGE
  2
AcDbRasterImage
  3
ISM
 90
      127
280
     0
281
     1
  0
CLASS
  1
OLE2FRAME
  2
AcDbOle2Frame
  3
""
 90
        0
280
     0
281
     1
  0
CLASS
  1
HATCH
  2
AcDbHatch
  3
"ACAD_SEDONA"
 90
        0
280
     0
281
     1
  0
CLASS
  1
DICTIONARYVAR
  2
AcDbDictionaryVar
  3
"AutoCAD"
 90
        0
280
     0
281
     0
  0
CLASS
  1
RASTERVARIABLES
  2
AcDbRasterVariables
  3
ISM
 90
        0
280
     0
281
     0
  0
CLASS
  1
IMAGEDEF
  2
AcDbRasterImageDef
  3
ISM
 90
        0
280
     0
281
     0
  0
CLASS
  1
IMAGEDEF_REACTOR
  2
AcDbRasterImageDefReactor
  3
ISM
 90
        1
280
     0
281
     0
  0
CLASS
  1
IDBUFFER
  2
AcDbIdBuffer
  3
"Acad"
 90
        0
280
     0
281
     0
  0
CLASS
  1
SPATIAL_FILTER
  2
AcDbSpatialFilter
  3
"Acad"
 90
        0
280
     0
281
     0
  0
CLASS
  1
XRECORD
  2
AcDbXrecord
  3
"<Built In>"
 90
        0
280
     0
281
     0
  0
CLASS
  1
SORTENTSTABLE
  2
AcDbSortentsTable
  3
"AutoCAD"
 90
        0
280
     0
281
     0
  0
CLASS
  1
LAYER_INDEX
  2
AcDbLayerIndex
  3
"Acad"
 90
        0
280
     0
281
     0
  0
CLASS
  1
SPATIAL_INDEX
  2
AcDbSpatialIndex
  3
"Acad"
 90
        0
280
     0
281
     0
  0
CLASS
  1
OBJECT_PTR
  2
CAseDLPNTableRecord
  3
"ASE-LPNTableRecord"
 90
        1
280
     0
281
     0
  0
ENDSEC
  0
SECTION
  2
TABLES
  0
TABLE
  2
VPORT
  5
7
100
AcDbSymbolTable
 70
     1
  0
VPORT
  5
2A9
100
AcDbSymbolTableRecord
100
AcDbViewportTableRecord
  2
*ACTIVE
 70
     0
 10
0.0
 20
0.0
 11
1.0
 21
1.0
 12
0.0
 22
0.0
 13
0.0
 23
0.0
 14
0.0
 24
0.0
 15
0.0
 25
0.0
 16
0.0
 26
0.0
 36
1.0
 17
959.09283
 27
2578.554667
 37
0.0
 40
286.0
 41
1.543189
 42
50.0
 43
0.0
 44
0.0
 50
0.0
 51
0.0
 71
     0
 72
   100
 73
     1
 74
     0
 75
     0
 76
     0
 77
     0
 78
     0
  0
ENDTAB
  0
TABLE
  2
LTYPE
  5
4
100
AcDbSymbolTable
 70
     9
  0
LTYPE
  5
11
100
AcDbSymbolTableRecord
100
AcDbLinetypeTableRecord
  2
BYBLOCK
 70
     0
  3

 72
    65
 73
     0
 40
0.0
  0
LTYPE
  5
12
100
AcDbSymbolTableRecord
100
AcDbLinetypeTableRecord
  2
BYLAYER
 70
     0
  3

 72
    65
 73
     0
 40
0.0
  0
LTYPE
  5
13
100
AcDbSymbolTableRecord
100
AcDbLinetypeTableRecord
  2
CONTINUOUS
 70
     0
  3
Solid line
 72
    65
 73
     0
 40
0.0
  0
LTYPE
  5
22
102
{ACAD_XDICTIONARY
360
9205002324000000
102
}
100
AcDbSymbolTableRecord
100
AcDbLinetypeTableRecord
  2
DOT
 70
    64
  3
. . . . . . . . . . . . . . . . . . . . . . . . . . . . . . . . .
 72
    65
 73
     2
 40
0.25
 49
0.0
 74
     0
 49
-0.25
 74
     0
  0
LTYPE
  5
23
102
{ACAD_XDICTIONARY
360
9205002324000000
102
}
100
AcDbSymbolTableRecord
100
AcDbLinetypeTableRecord
  2
HIDDEN
 70
    64
  3
__ __ __ __ __ __ __ __ __ __ __ __ __ __ __ __ __ __ __ __ __ 
 72
    65
 73
     2
 40
0.375
 49
0.25
 74
     0
 49
-0.125
 74
     0
  0
LTYPE
  5
24
102
{ACAD_XDICTIONARY
360
9205002324000000
102
}
100
AcDbSymbolTableRecord
100
AcDbLinetypeTableRecord
  2
DASHED
 70
    64
  3
__ __ __ __ __ __ __ __ __ __ __ __ __ __ __ __ __ __ __ __ __
 72
    65
 73
     2
 40
0.75
 49
0.5
 74
     0
 49
-0.25
 74
     0
  0
LTYPE
  5
25
102
{ACAD_XDICTIONARY
360
9205002324000000
102
}
100
AcDbSymbolTableRecord
100
AcDbLinetypeTableRecord
  2
DASHDOT
 70
    64
  3
__ . __ . __ . __ . __ . __ . __ . __ . __ . __ . __ . __ . _
 72
    65
 73
     4
 40
1.0
 49
0.5
 74
     0
 49
-0.25
 74
     0
 49
0.0
 74
     0
 49
-0.25
 74
     0
  0
LTYPE
  5
26
102
{ACAD_XDICTIONARY
360
9205002324000000
102
}
100
AcDbSymbolTableRecord
100
AcDbLinetypeTableRecord
  2
DIVIDE
 70
    64
  3
____ . . ____ . . ____ . . ____ . . ____ . . ____ . . ____ . .
 72
    65
 73
     6
 40
1.25
 49
0.5
 74
     0
 49
-0.25
 74
     0
 49
0.0
 74
     0
 49
-0.25
 74
     0
 49
0.0
 74
     0
 49
-0.25
 74
     0
  0
LTYPE
  5
27
102
{ACAD_XDICTIONARY
360
9205002324000000
102
}
100
AcDbSymbolTableRecord
100
AcDbLinetypeTableRecord
  2
CENTER
 70
    64
  3
____ _ ____ _ ____ _ ____ _ ____ _ ____ _ ____ _ ____ _ ____ _
 72
    65
 73
     4
 40
2.0
 49
1.25
 74
     0
 49
-0.25
 74
     0
 49
0.25
 74
     0
 49
-0.25
 74
     0
  0
ENDTAB
  0
TABLE
  2
LAYER
  5
2
100
AcDbSymbolTable
 70
    10
  0
LAYER
  5
14
102
{ACAD_XDICTIONARY
360
5F205F5F5F5F205F
102
}
100
AcDbSymbolTableRecord
100
AcDbLayerTableRecord
  2
0
 70
     0
 62
     7
  6
CONTINUOUS
  0
LAYER
  5
1E
102
{ACAD_XDICTIONARY
360
5F205F5F5F5F205F
102
}
100
AcDbSymbolTableRecord
100
AcDbLayerTableRecord
  2
CONSTRUCTION_CLASS
 70
    64
 62
     7
  6
CONTINUOUS
  0
LAYER
  5
2A
102
{ACAD_XDICTIONARY
360
5F205F5F5F5F205F
102
}
100
AcDbSymbolTableRecord
100
AcDbLayerTableRecord
  2
20
 70
    64
 62
     7
  6
CONTINUOUS
  0
LAYER
  5
9B
102
{ACAD_XDICTIONARY
360
5F205F5F5F5F205F
102
}
100
AcDbSymbolTableRecord
100
AcDbLayerTableRecord
  2
7
 70
    64
 62
     7
  6
CONTINUOUS
  0
LAYER
  5
10A
102
{ACAD_XDICTIONARY
360
5F205F5F5F5F205F
102
}
100
AcDbSymbolTableRecord
100
AcDbLayerTableRecord
  2
61
 70
    64
 62
     7
  6
CONTINUOUS
  0
LAYER
  5
114
102
{ACAD_XDICTIONARY
360
5F205F5F5F5F205F
102
}
100
AcDbSymbolTableRecord
100
AcDbLayerTableRecord
  2
1
 70
    64
 62
     7
  6
CONTINUOUS
  0
LAYER
  5
14F
102
{ACAD_XDICTIONARY
360
5F205F5F5F5F205F
102
}
100
AcDbSymbolTableRecord
100
AcDbLayerTableRecord
  2
2
 70
    64
 62
     7
  6
CONTINUOUS
  0
LAYER
  5
15A
102
{ACAD_XDICTIONARY
360
5F205F5F5F5F205F
102
}
100
AcDbSymbolTableRecord
100
AcDbLayerTableRecord
  2
14
 70
    64
 62
     7
  6
CONTINUOUS
  0
LAYER
  5
1A5
102
{ACAD_XDICTIONARY
360
5F205F5F5F5F205F
102
}
100
AcDbSymbolTableRecord
100
AcDbLayerTableRecord
  2
17
 70
    64
 62
     7
  6
CONTINUOUS
  0
LAYER
  5
1DE
102
{ACAD_XDICTIONARY
360
5F205F5F5F5F205F
102
}
100
AcDbSymbolTableRecord
100
AcDbLayerTableRecord
  2
21
 70
    64
 62
     7
  6
CONTINUOUS
  0
ENDTAB
  0
TABLE
  2
STYLE
  5
3
100
AcDbSymbolTable
 70
     4
  0
STYLE
  5
17
100
AcDbSymbolTableRecord
100
AcDbTextStyleTableRecord
  2
STANDARD
 70
     0
 40
0.0
 41
1.0
 50
0.0
 71
     0
 42
0.0
  3
txt
  4

  0
STYLE
  5
3C
100
AcDbSymbolTableRecord
100
AcDbTextStyleTableRecord
  2
MONOTXT
 70
     0
 40
0.2
 41
1.0
 50
0.0
 71
     0
 42
0.2
  3
MONOTXT
  4

  0
STYLE
  5
9C
100
AcDbSymbolTableRecord
100
AcDbTextStyleTableRecord
  2
TXT
 70
     0
 40
0.2
 41
1.0
 50
0.0
 71
     0
 42
0.2
  3
TXT
  4

  0
STYLE
  5
A8
100
AcDbSymbolTableRecord
100
AcDbTextStyleTableRecord
  2
ROMANS
 70
     0
 40
0.2
 41
1.0
 50
0.0
 71
     0
 42
0.2
  3
ROMANS
  4

  0
ENDTAB
  0
TABLE
  2
VIEW
  5
5
100
AcDbSymbolTable
 70
     4
  0
VIEW
  5
2A5
102
{ACAD_XDICTIONARY
360
F43F
102
}
100
AcDbSymbolTableRecord
100
AcDbViewTableRecord
  2
PRINT
 70
     0
 40
310.162917
 10
0.0
 20
0.0
 41
490.040583
 11
0.0
 21
0.0
 31
1.0
 12
194.567792
 22
1943.280042
 32
0.0
 42
50.0
 43
0.084167
 44
0.0
 50
0.0
 71
     0
  0
VIEW
  5
2A6
102
{ACAD_XDICTIONARY
360
F43F
102
}
100
AcDbSymbolTableRecord
100
AcDbViewTableRecord
  2
SHEET
 70
     0
 40
2.157833
 10
0.0
 20
0.0
 41
3.266667
 11
0.0
 21
0.0
 31
1.0
 12
-77.017333
 22
1714.497583
 32
0.0
 42
50.0
 43
0.084167
 44
0.0
 50
0.0
 71
     0
  0
VIEW
  5
2A7
102
{ACAD_XDICTIONARY
360
F43F
102
}
100
AcDbSymbolTableRecord
100
AcDbViewTableRecord
  2
SECT
 70
     0
 40
4.362333
 10
0.0
 20
0.0
 41
6.853083
 11
0.0
 21
0.0
 31
1.0
 12
-349.694458
 22
2100.214333
 32
0.0
 42
50.0
 43
0.084167
 44
0.0
 50
0.0
 71
     0
  0
VIEW
  5
2A8
102
{ACAD_XDICTIONARY
360
F43F
102
}
100
AcDbSymbolTableRecord
100
AcDbViewTableRecord
  2
TABLE
 70
     0
 40
215.468
 10
0.0
 20
0.0
 41
297.845917
 11
0.0
 21
0.0
 31
1.0
 12
984.758042
 22
2597.528167
 32
0.0
 42
50.0
 43
0.084167
 44
0.0
 50
0.0
 71
     0
  0
ENDTAB
  0
TABLE
  2
UCS
  5
6
100
AcDbSymbolTable
 70
     0
  0
ENDTAB
  0
TABLE
  2
APPID
  5
8
100
AcDbSymbolTable
 70
     1
  0
APPID
  5
16
100
AcDbSymbolTableRecord
100
AcDbRegAppTableRecord
  2
ACAD
 70
     0
  0
ENDTAB
  0
TABLE
  2
DIMSTYLE
  5
9
100
AcDbSymbolTable
 70
     1
  0
DIMSTYLE
105
18
100
AcDbSymbolTableRecord
100
AcDbDimStyleTableRecord
  2
STANDARD
 70
     0
  3

  4

  5

  6

  7

 40
1.0
 41
0.18
 42
0.0625
 43
0.38
 44
0.18
 45
0.0
 46
0.0
 47
0.0
 48
0.0
140
0.18
141
0.09
142
0.0
143
25.4
144
1.0
145
0.0
146
1.0
147
0.09
 71
     0
 72
     0
 73
     1
 74
     1
 75
     0
 76
     0
 77
     0
 78
     0
170
     0
171
     2
172
     0
173
     0
174
     0
175
     0
176
     0
177
     0
178
     0
270
     2
271
     4
272
     4
273
     2
274
     2
340
17
275
     0
280
     0
281
     0
282
     0
283
     1
284
     0
285
     0
286
     0
287
     0
288
     0
  0
ENDTAB
  0
TABLE
  2
BLOCK_RECORD
  5
1
100
AcDbSymbolTable
 70
     0
  0
BLOCK_RECORD
  5
A
100
AcDbSymbolTableRecord
100
AcDbBlockTableRecord
  2
*MODEL_SPACE
  0
BLOCK_RECORD
  5
B
100
AcDbSymbolTableRecord
100
AcDbBlockTableRecord
  2
*PAPER_SPACE
  0
ENDTAB
  0
ENDSEC
  0
SECTION
  2
BLOCKS
  0
BLOCK
  5
D
100
AcDbEntity
  8
0
100
AcDbBlockBegin
  2
*MODEL_SPACE
 70
     0
 10
0.0
 20
0.0
 30
0.0
  3
*MODEL_SPACE
  1

  0
ENDBLK
  5
E
100
AcDbEntity
  8
0
100
AcDbBlockEnd
  0
BLOCK
  5
F
100
AcDbEntity
 67
     1
  8
0
100
AcDbBlockBegin
  2
*PAPER_SPACE
 70
     0
 10
0.0
 20
0.0
 30
0.0
  3
*PAPER_SPACE
  1

  0
ENDBLK
  5
10
100
AcDbEntity
 67
     1
  8
0
100
AcDbBlockEnd
  0
ENDSEC
  0
SECTION
  2
ENTITIES
  0
LWPOLYLINE
  5
2B
100
AcDbEntity
  8
20
  6
CONTINUOUS
 62
     7
100
AcDbPolyline
 90
        4
 70
     1
 10
879.000583
 20
2662.237083
 10
879.000583
 20
2662.237083
 10
933.79925
 20
2662.237083
 10
933.79925
 20
2662.237083
  0
POINT
  5
2C
100
AcDbEntity
  8
20
  6
CONTINUOUS
 62
     7
100
AcDbPoint
 10
901.904167
 20
2658.812167
 30
0.0
  0
POINT
  5
2D
100
AcDbEntity
  8
20
  6
CONTINUOUS
 62
     7
100
AcDbPoint
 10
917.957917
 20
2658.812167
 30
0.0
  0
POINT
  5
2E
100
AcDbEntity
  8
20
  6
CONTINUOUS
 62
     7
100
AcDbPoint
 10
934.273167
 20
2658.812167
 30
0.0
  0
POINT
  5
2F
100
AcDbEntity
  8
20
  6
CONTINUOUS
 62
     7
100
AcDbPoint
 10
965.595917
 20
2658.812167
 30
0.0
  0
POINT
  5
30
100
AcDbEntity
  8
20
  6
CONTINUOUS
 62
     7
100
AcDbPoint
 10
980.864917
 20
2658.812167
 30
0.0
  0
POINT
  5
31
100
AcDbEntity
  8
20
  6
CONTINUOUS
 62
     7
100
AcDbPoint
 10
996.3955
 20
2658.812167
 30
0.0
  0
POINT
  5
32
100
AcDbEntity
  8
20
  6
CONTINUOUS
 62
     7
100
AcDbPoint
 10
1011.664583
 20
2658.812167
 30
0.0
  0
POINT
  5
33
100
AcDbEntity
  8
20
  6
CONTINUOUS
 62
     7
100
AcDbPoint
 10
1027.45675
 20
2659.073917
 30
0.0
  0
POINT
  5
34
100
AcDbEntity
  8
20
  6
CONTINUOUS
 62
     7
100
AcDbPoint
 10
886.89675
 20
2653.332333
 30
0.0
  0
POINT
  5
35
100
AcDbEntity
  8
20
  6
CONTINUOUS
 62
     7
100
AcDbPoint
 10
901.904167
 20
2653.332333
 30
0.0
  0
POINT
  5
36
100
AcDbEntity
  8
20
  6
CONTINUOUS
 62
     7
100
AcDbPoint
 10
917.957917
 20
2653.332333
 30
0.0
  0
POINT
  5
37
100
AcDbEntity
  8
20
  6
CONTINUOUS
 62
     7
100
AcDbPoint
 10
949.280667
 20
2653.332333
 30
0.0
  0
POINT
  5
38
100
AcDbEntity
  8
20
  6
CONTINUOUS
 62
     7
100
AcDbPoint
 10
980.864917
 20
2653.332333
 30
0.0
  0
POINT
  5
39
100
AcDbEntity
  8
20
  6
CONTINUOUS
 62
     7
100
AcDbPoint
 10
996.3955
 20
2653.332333
 30
0.0
  0
POINT
  5
3A
100
AcDbEntity
  8
20
  6
CONTINUOUS
 62
     7
100
AcDbPoint
 10
1027.45675
 20
2653.594083
 30
0.0
  0
POINT
  5
3B
100
AcDbEntity
  8
20
  6
CONTINUOUS
 62
     7
100
AcDbPoint
 10
886.89675
 20
2658.812167
 30
0.0
  0
TEXT
  5
3D
100
AcDbEntity
  8
20
  6
CONTINUOUS
 62
     7
100
AcDbText
 10
885.801917
 20
2658.812167
 30
0.0
 40
1.37
  1
10'
  7
MONOTXT
 72
     1
 11
886.89675
 21
2658.812167
 31
0.0
210
0.0
220
0.0
230
1.0
100
AcDbText
  0
TEXT
  5
3E
100
AcDbEntity
  8
20
  6
CONTINUOUS
 62
     7
100
AcDbText
 10
901.100667
 20
2658.812167
 30
0.0
 40
1.37
  1
11'
  7
MONOTXT
 72
     1
 11
901.904333
 21
2658.812167
 31
0.0
210
0.0
220
0.0
230
1.0
100
AcDbText
  0
TEXT
  5
3F
100
AcDbEntity
  8
20
  6
CONTINUOUS
 62
     7
100
AcDbText
 10
916.863083
 20
2658.812167
 30
0.0
 40
1.37
  1
12'
  7
MONOTXT
 72
     1
 11
917.957917
 21
2658.812167
 31
0.0
210
0.0
220
0.0
230
1.0
100
AcDbText
  0
TEXT
  5
40
100
AcDbEntity
  8
20
  6
CONTINUOUS
 62
     7
100
AcDbText
 10
933.178417
 20
2658.812167
 30
0.0
 40
1.37
  1
13'
  7
MONOTXT
 72
     1
 11
934.27325
 21
2658.812167
 31
0.0
210
0.0
220
0.0
230
1.0
100
AcDbText
  0
TEXT
  5
41
100
AcDbEntity
  8
20
  6
CONTINUOUS
 62
     7
100
AcDbText
 10
948.1535
 20
2658.812167
 30
0.0
 40
1.37
  1
14'
  7
MONOTXT
 72
     1
 11
949.28075
 21
2658.812167
 31
0.0
210
0.0
220
0.0
230
1.0
100
AcDbText
  0
TEXT
  5
42
100
AcDbEntity
  8
20
  6
CONTINUOUS
 62
     7
100
AcDbText
 10
964.501167
 20
2658.812167
 30
0.0
 40
1.37
  1
15'
  7
MONOTXT
 72
     1
 11
965.596
 21
2658.812167
 31
0.0
210
0.0
220
0.0
230
1.0
100
AcDbText
  0
TEXT
  5
43
100
AcDbEntity
  8
20
  6
CONTINUOUS
 62
     7
100
AcDbText
 10
979.8025
 20
2658.812167
 30
0.0
 40
1.37
  1
16'
  7
MONOTXT
 72
     1
 11
980.865
 21
2658.812167
 31
0.0
210
0.0
220
0.0
230
1.0
100
AcDbText
  0
TEXT
  5
44
100
AcDbEntity
  8
20
  6
CONTINUOUS
 62
     7
100
AcDbText
 10
995.289917
 20
2658.812167
 30
0.0
 40
1.37
  1
17'
  7
MONOTXT
 72
     1
 11
996.395583
 21
2658.812167
 31
0.0
210
0.0
220
0.0
230
1.0
100
AcDbText
  0
TEXT
  5
45
100
AcDbEntity
  8
20
  6
CONTINUOUS
 62
     7
100
AcDbText
 10
1010.569917
 20
2658.812167
 30
0.0
 40
1.37
  1
18'
  7
MONOTXT
 72
     1
 11
1011.66475
 21
2658.812167
 31
0.0
210
0.0
220
0.0
230
1.0
100
AcDbText
  0
TEXT
  5
46
100
AcDbEntity
  8
20
  6
CONTINUOUS
 62
     7
100
AcDbText
 10
1026.394333
 20
2659.073917
 30
0.0
 40
1.37
  1
19'
  7
MONOTXT
 72
     1
 11
1027.456833
 21
2659.073917
 31
0.0
210
0.0
220
0.0
230
1.0
100
AcDbText
  0
TEXT
  5
47
100
AcDbEntity
  8
20
  6
CONTINUOUS
 62
     7
100
AcDbText
 10
884.34575
 20
2653.332333
 30
0.0
 40
1.37
  1
11'-6"
  7
MONOTXT
 72
     1
 11
886.896917
 21
2653.332333
 31
0.0
210
0.0
220
0.0
230
1.0
100
AcDbText
  0
TEXT
  5
48
100
AcDbEntity
  8
20
  6
CONTINUOUS
 62
     7
100
AcDbText
 10
899.061917
 20
2653.332333
 30
0.0
 40
1.37
  1
12'-6"
 41
0.999939
  7
MONOTXT
 72
     1
 11
901.90425
 21
2653.332333
 31
0.0
210
0.0
220
0.0
230
1.0
100
AcDbText
  0
TEXT
  5
49
100
AcDbEntity
  8
20
  6
CONTINUOUS
 62
     7
100
AcDbText
 10
915.115667
 20
2653.332333
 30
0.0
 40
1.37
  1
13'-6"
 41
0.999939
  7
MONOTXT
 72
     1
 11
917.958
 21
2653.332333
 31
0.0
210
0.0
220
0.0
230
1.0
100
AcDbText
  0
TEXT
  5
4A
100
AcDbEntity
  8
20
  6
CONTINUOUS
 62
     7
100
AcDbText
 10
931.39875
 20
2653.332333
 30
0.0
 40
1.37
  1
14'-6"
  7
MONOTXT
 72
     1
 11
934.273583
 21
2653.332333
 31
0.0
210
0.0
220
0.0
230
1.0
100
AcDbText
  0
TEXT
  5
4B
100
AcDbEntity
  8
20
  6
CONTINUOUS
 62
     7
100
AcDbText
 10
946.438333
 20
2653.332333
 30
0.0
 40
1.37
  1
15'-6"
  7
MONOTXT
 72
     1
 11
949.280833
 21
2653.332333
 31
0.0
210
0.0
220
0.0
230
1.0
100
AcDbText
  0
TEXT
  5
4C
100
AcDbEntity
  8
20
  6
CONTINUOUS
 62
     7
100
AcDbText
 10
962.78625
 20
2653.332333
 30
0.0
 40
1.37
  1
16'-6"
 41
0.999939
  7
MONOTXT
 72
     1
 11
965.596167
 21
2653.332333
 31
0.0
210
0.0
220
0.0
230
1.0
100
AcDbText
  0
TEXT
  5
4D
100
AcDbEntity
  8
20
  6
CONTINUOUS
 62
     7
100
AcDbText
 10
978.011833
 20
2653.332333
 30
0.0
 40
1.37
  1
17'-6"
  7
MONOTXT
 72
     1
 11
980.865083
 21
2653.332333
 31
0.0
210
0.0
220
0.0
230
1.0
100
AcDbText
  0
TEXT
  5
4E
100
AcDbEntity
  8
20
  6
CONTINUOUS
 62
     7
100
AcDbText
 10
993.553083
 20
2653.332333
 30
0.0
 40
1.37
  1
18'-6"
  7
MONOTXT
 72
     1
 11
996.395583
 21
2653.332333
 31
0.0
210
0.0
220
0.0
230
1.0
100
AcDbText
  0
TEXT
  5
4F
100
AcDbEntity
  8
20
  6
CONTINUOUS
 62
     7
100
AcDbText
 10
1024.323167
 20
2653.594083
 30
0.0
 40
1.37
  1
20'-6"
  7
MONOTXT
 72
     1
 11
1027.456833
 21
2653.594083
 31
0.0
210
0.0
220
0.0
230
1.0
100
AcDbText
  0
POINT
  5
50
100
AcDbEntity
  8
20
  6
CONTINUOUS
 62
     7
100
AcDbPoint
 10
1011.664583
 20
2653.332167
 30
0.0
  0
TEXT
  5
51
100
AcDbEntity
  8
20
  6
CONTINUOUS
 62
     7
100
AcDbText
 10
1008.85475
 20
2653.332167
 30
0.0
 40
1.37
  1
19'-6"
  7
MONOTXT
 72
     1
 11
1011.664833
 21
2653.332167
 31
0.0
210
0.0
220
0.0
230
1.0
100
AcDbText
  0
POINT
  5
52
100
AcDbEntity
  8
20
  6
CONTINUOUS
 62
     7
100
AcDbPoint
 10
934.273667
 20
2653.332333
 30
0.0
  0
POINT
  5
53
100
AcDbEntity
  8
20
  6
CONTINUOUS
 62
     7
100
AcDbPoint
 10
901.904167
 20
2658.812167
 30
0.0
  0
POINT
  5
54
100
AcDbEntity
  8
20
  6
CONTINUOUS
 62
     7
100
AcDbPoint
 10
886.89675
 20
2532.7745
 30
0.0
  0
POINT
  5
55
100
AcDbEntity
  8
20
  6
CONTINUOUS
 62
     7
100
AcDbPoint
 10
901.904167
 20
2532.7745
 30
0.0
  0
POINT
  5
56
100
AcDbEntity
  8
20
  6
CONTINUOUS
 62
     7
100
AcDbPoint
 10
917.957917
 20
2532.7745
 30
0.0
  0
POINT
  5
57
100
AcDbEntity
  8
20
  6
CONTINUOUS
 62
     7
100
AcDbPoint
 10
934.273167
 20
2532.7745
 30
0.0
  0
POINT
  5
58
100
AcDbEntity
  8
20
  6
CONTINUOUS
 62
     7
100
AcDbPoint
 10
949.280667
 20
2532.7745
 30
0.0
  0
POINT
  5
59
100
AcDbEntity
  8
20
  6
CONTINUOUS
 62
     7
100
AcDbPoint
 10
965.595917
 20
2532.7745
 30
0.0
  0
POINT
  5
5A
100
AcDbEntity
  8
20
  6
CONTINUOUS
 62
     7
100
AcDbPoint
 10
980.864917
 20
2532.7745
 30
0.0
  0
POINT
  5
5B
100
AcDbEntity
  8
20
  6
CONTINUOUS
 62
     7
100
AcDbPoint
 10
996.3955
 20
2532.7745
 30
0.0
  0
POINT
  5
5C
100
AcDbEntity
  8
20
  6
CONTINUOUS
 62
     7
100
AcDbPoint
 10
1011.664583
 20
2532.7745
 30
0.0
  0
POINT
  5
5D
100
AcDbEntity
  8
20
  6
CONTINUOUS
 62
     7
100
AcDbPoint
 10
1027.45675
 20
2533.03625
 30
0.0
  0
POINT
  5
5E
100
AcDbEntity
  8
20
  6
CONTINUOUS
 62
     7
100
AcDbPoint
 10
886.89675
 20
2525.924583
 30
0.0
  0
POINT
  5
5F
100
AcDbEntity
  8
20
  6
CONTINUOUS
 62
     7
100
AcDbPoint
 10
901.904167
 20
2525.924583
 30
0.0
  0
POINT
  5
60
100
AcDbEntity
  8
20
  6
CONTINUOUS
 62
     7
100
AcDbPoint
 10
917.957917
 20
2525.924583
 30
0.0
  0
POINT
  5
61
100
AcDbEntity
  8
20
  6
CONTINUOUS
 62
     7
100
AcDbPoint
 10
934.273167
 20
2525.924583
 30
0.0
  0
POINT
  5
62
100
AcDbEntity
  8
20
  6
CONTINUOUS
 62
     7
100
AcDbPoint
 10
949.280667
 20
2525.924583
 30
0.0
  0
POINT
  5
63
100
AcDbEntity
  8
20
  6
CONTINUOUS
 62
     7
100
AcDbPoint
 10
965.595917
 20
2525.924583
 30
0.0
  0
POINT
  5
64
100
AcDbEntity
  8
20
  6
CONTINUOUS
 62
     7
100
AcDbPoint
 10
980.864917
 20
2525.924583
 30
0.0
  0
POINT
  5
65
100
AcDbEntity
  8
20
  6
CONTINUOUS
 62
     7
100
AcDbPoint
 10
996.3955
 20
2525.924583
 30
0.0
  0
POINT
  5
66
100
AcDbEntity
  8
20
  6
CONTINUOUS
 62
     7
100
AcDbPoint
 10
1011.664583
 20
2525.924583
 30
0.0
  0
POINT
  5
67
100
AcDbEntity
  8
20
  6
CONTINUOUS
 62
     7
100
AcDbPoint
 10
1027.45675
 20
2526.186333
 30
0.0
  0
POINT
  5
68
100
AcDbEntity
  8
20
  6
CONTINUOUS
 62
     7
100
AcDbPoint
 10
886.89675
 20
2516.334917
 30
0.0
  0
POINT
  5
69
100
AcDbEntity
  8
20
  6
CONTINUOUS
 62
     7
100
AcDbPoint
 10
901.904167
 20
2516.334917
 30
0.0
  0
POINT
  5
6A
100
AcDbEntity
  8
20
  6
CONTINUOUS
 62
     7
100
AcDbPoint
 10
917.957917
 20
2516.334917
 30
0.0
  0
POINT
  5
6B
100
AcDbEntity
  8
20
  6
CONTINUOUS
 62
     7
100
AcDbPoint
 10
934.273167
 20
2516.334917
 30
0.0
  0
POINT
  5
6C
100
AcDbEntity
  8
20
  6
CONTINUOUS
 62
     7
100
AcDbPoint
 10
949.280667
 20
2516.334917
 30
0.0
  0
POINT
  5
6D
100
AcDbEntity
  8
20
  6
CONTINUOUS
 62
     7
100
AcDbPoint
 10
965.595917
 20
2516.334917
 30
0.0
  0
POINT
  5
6E
100
AcDbEntity
  8
20
  6
CONTINUOUS
 62
     7
100
AcDbPoint
 10
980.864917
 20
2516.334917
 30
0.0
  0
POINT
  5
6F
100
AcDbEntity
  8
20
  6
CONTINUOUS
 62
     7
100
AcDbPoint
 10
996.3955
 20
2516.334917
 30
0.0
  0
POINT
  5
70
100
AcDbEntity
  8
20
  6
CONTINUOUS
 62
     7
100
AcDbPoint
 10
1011.664583
 20
2516.334917
 30
0.0
  0
POINT
  5
71
100
AcDbEntity
  8
20
  6
CONTINUOUS
 62
     7
100
AcDbPoint
 10
1027.45675
 20
2516.596667
 30
0.0
  0
TEXT
  5
72
100
AcDbEntity
  8
20
  6
CONTINUOUS
 62
     7
100
AcDbText
 10
886.411417
 20
2532.7745
 30
0.0
 40
1.37
  1
4
 41
0.999939
  7
MONOTXT
 72
     1
 11
886.902167
 21
2532.7745
 31
0.0
210
0.0
220
0.0
230
1.0
100
AcDbText
  0
TEXT
  5
73
100
AcDbEntity
  8
20
  6
CONTINUOUS
 62
     7
100
AcDbText
 10
901.418917
 20
2532.7745
 30
0.0
 40
1.37
  1
4
 41
0.999939
  7
MONOTXT
 72
     1
 11
901.909667
 21
2532.7745
 31
0.0
210
0.0
220
0.0
230
1.0
100
AcDbText
  0
TEXT
  5
74
100
AcDbEntity
  8
20
  6
CONTINUOUS
 62
     7
100
AcDbText
 10
917.505083
 20
2532.7745
 30
0.0
 40
1.37
  1
5
  7
MONOTXT
 72
     1
 11
917.963583
 21
2532.7745
 31
0.0
210
0.0
220
0.0
230
1.0
100
AcDbText
  0
TEXT
  5
75
100
AcDbEntity
  8
20
  6
CONTINUOUS
 62
     7
100
AcDbText
 10
933.820417
 20
2532.7745
 30
0.0
 40
1.37
  1
5
  7
MONOTXT
 72
     1
 11
934.278917
 21
2532.7745
 31
0.0
210
0.0
220
0.0
230
1.0
100
AcDbText
  0
TEXT
  5
76
100
AcDbEntity
  8
20
  6
CONTINUOUS
 62
     7
100
AcDbText
 10
948.827917
 20
2532.7745
 30
0.0
 40
1.37
  1
5
  7
MONOTXT
 72
     1
 11
949.286417
 21
2532.7745
 31
0.0
210
0.0
220
0.0
230
1.0
100
AcDbText
  0
TEXT
  5
77
100
AcDbEntity
  8
20
  6
CONTINUOUS
 62
     7
100
AcDbText
 10
965.169917
 20
2532.7745
 30
0.0
 40
1.37
  1
6
  7
MONOTXT
 72
     1
 11
965.596
 21
2532.7745
 31
0.0
210
0.0
220
0.0
230
1.0
100
AcDbText
  0
TEXT
  5
78
100
AcDbEntity
  8
20
  6
CONTINUOUS
 62
     7
100
AcDbText
 10
980.4445
 20
2532.7745
 30
0.0
 40
1.37
  1
6
  7
MONOTXT
 72
     1
 11
980.870583
 21
2532.7745
 31
0.0
210
0.0
220
0.0
230
1.0
100
AcDbText
  0
TEXT
  5
79
100
AcDbEntity
  8
20
  6
CONTINUOUS
 62
     7
100
AcDbText
 10
995.975083
 20
2532.7745
 30
0.0
 40
1.37
  1
6
  7
MONOTXT
 72
     1
 11
996.401167
 21
2532.7745
 31
0.0
210
0.0
220
0.0
230
1.0
100
AcDbText
  0
TEXT
  5
7A
100
AcDbEntity
  8
20
  6
CONTINUOUS
 62
     7
100
AcDbText
 10
1011.2065
 20
2532.7745
 30
0.0
 40
1.37
  1
7
  7
MONOTXT
 72
     1
 11
1011.670333
 21
2532.7745
 31
0.0
210
0.0
220
0.0
230
1.0
100
AcDbText
  0
TEXT
  5
7B
100
AcDbEntity
  8
20
  6
CONTINUOUS
 62
     7
100
AcDbText
 10
1026.998667
 20
2533.03625
 30
0.0
 40
1.37
  1
7
  7
MONOTXT
 72
     1
 11
1027.4625
 21
2533.03625
 31
0.0
210
0.0
220
0.0
230
1.0
100
AcDbText
  0
TEXT
  5
7C
100
AcDbEntity
  8
20
  6
CONTINUOUS
 62
     7
100
AcDbText
 10
977.257
 20
2516.334917
 30
0.0
 40
1.369917
  1
2'-3 3/4 "
  7
MONOTXT
 72
     1
 11
980.865167
 21
2516.334917
 31
0.0
210
0.0
220
0.0
230
1.0
100
AcDbText
  0
POINT
  5
7D
100
AcDbEntity
  8
20
  6
CONTINUOUS
 62
     7
100
AcDbPoint
 10
913.541333
 20
2530.719
 30
0.0
  0
POINT
  5
7E
100
AcDbEntity
  8
20
  6
CONTINUOUS
 62
     7
100
AcDbPoint
 10
934.422667
 20
2530.719
 30
0.0
  0
POINT
  5
7F
100
AcDbEntity
  8
20
  6
CONTINUOUS
 62
     7
100
AcDbPoint
 10
953.99625
 20
2530.719
 30
0.0
  0
POINT
  5
80
100
AcDbEntity
  8
20
  6
CONTINUOUS
 62
     7
100
AcDbPoint
 10
976.446917
 20
2530.719
 30
0.0
  0
POINT
  5
81
100
AcDbEntity
  8
20
  6
CONTINUOUS
 62
     7
100
AcDbPoint
 10
996.543583
 20
2530.719
 30
0.0
  0
POINT
  5
82
100
AcDbEntity
  8
20
  6
CONTINUOUS
 62
     7
100
AcDbPoint
 10
1018.47125
 20
2530.98075
 30
0.0
  0
POINT
  5
83
100
AcDbEntity
  8
20
  6
CONTINUOUS
 62
     7
100
AcDbPoint
 10
913.541333
 20
2517.933
 30
0.0
  0
POINT
  5
84
100
AcDbEntity
  8
20
  6
CONTINUOUS
 62
     7
100
AcDbPoint
 10
934.422667
 20
2517.933
 30
0.0
  0
POINT
  5
85
100
AcDbEntity
  8
20
  6
CONTINUOUS
 62
     7
100
AcDbPoint
 10
953.99625
 20
2517.933
 30
0.0
  0
POINT
  5
86
100
AcDbEntity
  8
20
  6
CONTINUOUS
 62
     7
100
AcDbPoint
 10
976.446917
 20
2517.933
 30
0.0
  0
POINT
  5
87
100
AcDbEntity
  8
20
  6
CONTINUOUS
 62
     7
100
AcDbPoint
 10
996.543583
 20
2517.933
 30
0.0
  0
POINT
  5
88
100
AcDbEntity
  8
20
  6
CONTINUOUS
 62
     7
100
AcDbPoint
 10
886.89675
 20
2525.924583
 30
0.0
  0
POINT
  5
89
100
AcDbEntity
  8
20
  6
CONTINUOUS
 62
     7
100
AcDbPoint
 10
901.904167
 20
2525.924583
 30
0.0
  0
POINT
  5
8A
100
AcDbEntity
  8
20
  6
CONTINUOUS
 62
     7
100
AcDbPoint
 10
917.957917
 20
2525.924583
 30
0.0
  0
POINT
  5
8B
100
AcDbEntity
  8
20
  6
CONTINUOUS
 62
     7
100
AcDbPoint
 10
934.273167
 20
2525.924583
 30
0.0
  0
POINT
  5
8C
100
AcDbEntity
  8
20
  6
CONTINUOUS
 62
     7
100
AcDbPoint
 10
949.280667
 20
2525.924583
 30
0.0
  0
POINT
  5
8D
100
AcDbEntity
  8
20
  6
CONTINUOUS
 62
     7
100
AcDbPoint
 10
965.595917
 20
2525.924583
 30
0.0
  0
POINT
  5
8E
100
AcDbEntity
  8
20
  6
CONTINUOUS
 62
     7
100
AcDbPoint
 10
980.864917
 20
2525.924583
 30
0.0
  0
POINT
  5
8F
100
AcDbEntity
  8
20
  6
CONTINUOUS
 62
     7
100
AcDbPoint
 10
1011.664583
 20
2525.924583
 30
0.0
  0
POINT
  5
90
100
AcDbEntity
  8
20
  6
CONTINUOUS
 62
     7
100
AcDbPoint
 10
1027.45675
 20
2526.186333
 30
0.0
  0
TEXT
  5
91
100
AcDbEntity
  8
20
  6
CONTINUOUS
 62
     7
100
AcDbText
 10
884.733833
 20
2525.924583
 30
0.0
 40
1.37
  1
1'-9"
 41
0.999991
  7
MONOTXT
 72
     1
 11
886.896667
 21
2525.924583
 31
0.0
210
0.0
220
0.0
230
1.0
100
AcDbText
  0
TEXT
  5
92
100
AcDbEntity
  8
20
  6
CONTINUOUS
 62
     7
100
AcDbText
 10
899.741583
 20
2525.924583
 30
0.0
 40
1.37
  1
1'-9"
 41
0.999916
  7
MONOTXT
 72
     1
 11
901.90425
 21
2525.924583
 31
0.0
210
0.0
220
0.0
230
1.0
100
AcDbText
  0
TEXT
  5
93
100
AcDbEntity
  8
20
  6
CONTINUOUS
 62
     7
100
AcDbText
 10
1009.501917
 20
2525.924583
 30
0.0
 40
1.37
  1
1'-9"
 41
0.999916
  7
MONOTXT
 72
     1
 11
1011.664583
 21
2525.924583
 31
0.0
210
0.0
220
0.0
230
1.0
100
AcDbText
  0
TEXT
  5
94
100
AcDbEntity
  8
20
  6
CONTINUOUS
 62
     7
100
AcDbText
 10
1025.294083
 20
2526.186333
 30
0.0
 40
1.37
  1
1'-9"
 41
0.999916
  7
MONOTXT
 72
     1
 11
1027.45675
 21
2526.186333
 31
0.0
210
0.0
220
0.0
230
1.0
100
AcDbText
  0
TEXT
  5
95
100
AcDbEntity
  8
20
  6
CONTINUOUS
 62
     7
100
AcDbText
 10
932.110333
 20
2525.924583
 30
0.0
 40
1.37
  1
1'-9"
 41
0.999991
  7
MONOTXT
 72
     1
 11
934.273167
 21
2525.924583
 31
0.0
210
0.0
220
0.0
230
1.0
100
AcDbText
  0
TEXT
  5
96
100
AcDbEntity
  8
20
  6
CONTINUOUS
 62
     7
100
AcDbText
 10
915.79525
 20
2525.924583
 30
0.0
 40
1.37
  1
1'-9"
 41
0.999916
  7
MONOTXT
 72
     1
 11
917.957917
 21
2525.924583
 31
0.0
210
0.0
220
0.0
230
1.0
100
AcDbText
  0
TEXT
  5
97
100
AcDbEntity
  8
20
  6
CONTINUOUS
 62
     7
100
AcDbText
 10
947.15
 20
2526.085917
 30
0.0
 40
1.37
  1
1'-9"
 41
0.999916
  7
MONOTXT
 72
     1
 11
949.312667
 21
2526.085917
 31
0.0
210
0.0
220
0.0
230
1.0
100
AcDbText
  0
TEXT
  5
98
100
AcDbEntity
  8
20
  6
CONTINUOUS
 62
     7
100
AcDbText
 10
964.282417
 20
2525.76325
 30
0.0
 40
1.37
  1
1'-9"
 41
0.999916
  7
MONOTXT
 72
     1
 11
966.445083
 21
2525.76325
 31
0.0
210
0.0
220
0.0
230
1.0
100
AcDbText
  0
TEXT
  5
99
100
AcDbEntity
  8
20
  6
CONTINUOUS
 62
     7
100
AcDbText
 10
994.941917
 20
2525.924583
 30
0.0
 40
1.37
  1
1'-9"
 41
0.999916
  7
MONOTXT
 72
     1
 11
997.104583
 21
2525.924583
 31
0.0
210
0.0
220
0.0
230
1.0
100
AcDbText
  0
TEXT
  5
9A
100
AcDbEntity
  8
20
  6
CONTINUOUS
 62
     7
100
AcDbText
 10
978.989417
 20
2525.924583
 30
0.0
 40
1.37
  1
1'-9"
 41
0.999916
  7
MONOTXT
 72
     1
 11
981.152083
 21
2525.924583
 31
0.0
210
0.0
220
0.0
230
1.0
100
AcDbText
  0
TEXT
  5
9D
100
AcDbEntity
  8
7
  6
CONTINUOUS
 62
     7
100
AcDbText
 10
1031.23525
 20
2672.799167
 30
0.0
 40
1.4796
  1
JACKING FORCE / LOW RELAX STRAND = 30,980 LBS.
  7
TXT
210
0.0
220
0.0
230
1.0
100
AcDbText
  0
TEXT
  5
9E
100
AcDbEntity
  8
20
  6
CONTINUOUS
 62
   231
100
AcDbText
 10
885.986167
 20
2647.655333
 30
0.0
 40
1.37
  1
7
  7
MONOTXT
 72
     4
 11
886.45
 21
2648.340333
 31
0.0
210
0.0
220
0.0
230
1.0
100
AcDbText
  0
TEXT
  5
9F
100
AcDbEntity
  8
20
  6
CONTINUOUS
 62
   231
100
AcDbText
 10
901.273
 20
2647.655333
 30
0.0
 40
1.37
  1
8
  7
MONOTXT
 72
     4
 11
901.7315
 21
2648.340333
 31
0.0
210
0.0
220
0.0
230
1.0
100
AcDbText
  0
TEXT
  5
A0
100
AcDbEntity
  8
20
  6
CONTINUOUS
 62
   231
100
AcDbText
 10
917.385833
 20
2647.655333
 30
0.0
 40
1.37
  1
8
  7
MONOTXT
 72
     4
 11
917.844333
 21
2648.340333
 31
0.0
210
0.0
220
0.0
230
1.0
100
AcDbText
  0
TEXT
  5
A1
100
AcDbEntity
  8
20
  6
CONTINUOUS
 62
   231
100
AcDbText
 10
933.330083
 20
2647.655333
 30
0.0
 40
1.37
  1
8
  7
MONOTXT
 72
     4
 11
933.788583
 21
2648.340333
 31
0.0
210
0.0
220
0.0
230
1.0
100
AcDbText
  0
TEXT
  5
A2
100
AcDbEntity
  8
20
  6
CONTINUOUS
 62
   231
100
AcDbText
 10
948.181667
 20
2647.655333
 30
0.0
 40
1.37
  1
8
  7
MONOTXT
 72
     4
 11
948.640167
 21
2648.340333
 31
0.0
210
0.0
220
0.0
230
1.0
100
AcDbText
  0
TEXT
  5
A3
100
AcDbEntity
  8
20
  6
CONTINUOUS
 62
   231
100
AcDbText
 10
965.233167
 20
2647.655333
 30
0.0
 40
1.37
  1
9
  7
MONOTXT
 72
     4
 11
965.65925
 21
2648.340333
 31
0.0
210
0.0
220
0.0
230
1.0
100
AcDbText
  0
TEXT
  5
A4
100
AcDbEntity
  8
20
  6
CONTINUOUS
 62
   231
100
AcDbText
 10
980.131333
 20
2647.655333
 30
0.0
 40
1.37
  1
9
  7
MONOTXT
 72
     4
 11
980.557417
 21
2648.340333
 31
0.0
210
0.0
220
0.0
230
1.0
100
AcDbText
  0
TEXT
  5
A5
100
AcDbEntity
  8
20
  6
CONTINUOUS
 62
   231
100
AcDbText
 10
995.520417
 20
2647.655333
 30
0.0
 40
1.37
  1
10
  7
MONOTXT
 72
     4
 11
996.361833
 21
2648.340333
 31
0.0
210
0.0
220
0.0
230
1.0
100
AcDbText
  0
TEXT
  5
A6
100
AcDbEntity
  8
20
  6
CONTINUOUS
 62
   231
100
AcDbText
 10
1010.848583
 20
2647.655333
 30
0.0
 40
1.37
  1
10
  7
MONOTXT
 72
     4
 11
1011.69
 21
2648.340333
 31
0.0
210
0.0
220
0.0
230
1.0
100
AcDbText
  0
TEXT
  5
A7
100
AcDbEntity
  8
20
  6
CONTINUOUS
 62
   231
100
AcDbText
 10
1026.776083
 20
2647.917083
 30
0.0
 40
1.37
  1
11
  7
MONOTXT
 72
     4
 11
1027.32625
 21
2648.602083
 31
0.0
210
0.0
220
0.0
230
1.0
100
AcDbText
  0
TEXT
  5
A9
100
AcDbEntity
  8
20
  6
CONTINUOUS
 62
   231
100
AcDbText
 10
885.252
 20
2624.11775
 30
0.0
 40
1.37
  1
212
  7
ROMANS
 72
     4
 11
887.010333
 21
2624.80275
 31
0.0
210
0.0
220
0.0
230
1.0
100
AcDbText
  0
TEXT
  5
AA
100
AcDbEntity
  8
20
  6
CONTINUOUS
 62
   231
100
AcDbText
 10
900.249
 20
2624.11775
 30
0.0
 40
1.37
  1
241
  7
ROMANS
 72
     4
 11
901.83475
 21
2624.80275
 31
0.0
210
0.0
220
0.0
230
1.0
100
AcDbText
  0
TEXT
  5
AB
100
AcDbEntity
  8
20
  6
CONTINUOUS
 62
   231
100
AcDbText
 10
931.943167
 20
2624.11775
 30
0.0
 40
1.37
  1
241
  7
ROMANS
 72
     4
 11
933.528917
 21
2624.80275
 31
0.0
210
0.0
220
0.0
230
1.0
100
AcDbText
  0
TEXT
  5
AC
100
AcDbEntity
  8
20
  6
CONTINUOUS
 62
   231
100
AcDbText
 10
947.8765
 20
2624.11775
 30
0.0
 40
1.37
  1
241
  7
ROMANS
 72
     4
 11
949.46225
 21
2624.80275
 31
0.0
210
0.0
220
0.0
230
1.0
100
AcDbText
  0
TEXT
  5
AD
100
AcDbEntity
  8
20
  6
CONTINUOUS
 62
   231
100
AcDbText
 10
963.297167
 20
2624.11775
 30
0.0
 40
1.37
  1
271
  7
ROMANS
 72
     4
 11
964.882917
 21
2624.80275
 31
0.0
210
0.0
220
0.0
230
1.0
100
AcDbText
  0
TEXT
  5
AE
100
AcDbEntity
  8
20
  6
CONTINUOUS
 62
   231
100
AcDbText
 10
979.42925
 20
2624.11775
 30
0.0
 40
1.37
  1
271
  7
ROMANS
 72
     4
 11
981.015
 21
2624.80275
 31
0.0
210
0.0
220
0.0
230
1.0
100
AcDbText
  0
TEXT
  5
AF
100
AcDbEntity
  8
20
  6
CONTINUOUS
 62
   231
100
AcDbText
 10
994.487167
 20
2624.11775
 30
0.0
 40
1.37
  1
300
  7
ROMANS
 72
     4
 11
996.2995
 21
2624.80275
 31
0.0
210
0.0
220
0.0
230
1.0
100
AcDbText
  0
TEXT
  5
B0
100
AcDbEntity
  8
20
  6
CONTINUOUS
 62
   231
100
AcDbText
 10
1009.8345
 20
2624.11775
 30
0.0
 40
1.37
  1
300
  7
ROMANS
 72
     4
 11
1011.646833
 21
2624.80275
 31
0.0
210
0.0
220
0.0
230
1.0
100
AcDbText
  0
TEXT
  5
B1
100
AcDbEntity
  8
20
  6
CONTINUOUS
 62
   231
100
AcDbText
 10
885.252
 20
2615.76275
 30
0.0
 40
1.37
  1
197
  7
ROMANS
 72
     4
 11
887.010333
 21
2616.44775
 31
0.0
210
0.0
220
0.0
230
1.0
100
AcDbText
  0
TEXT
  5
B2
100
AcDbEntity
  8
20
  6
CONTINUOUS
 62
   231
100
AcDbText
 10
899.8775
 20
2615.76275
 30
0.0
 40
1.37
  1
223
  7
ROMANS
 72
     4
 11
901.635833
 21
2616.44775
 31
0.0
210
0.0
220
0.0
230
1.0
100
AcDbText
  0
TEXT
  5
B3
100
AcDbEntity
  8
20
  6
CONTINUOUS
 62
   231
100
AcDbText
 10
931.969417
 20
2615.76275
 30
0.0
 40
1.37
  1
223
  7
ROMANS
 72
     4
 11
933.72775
 21
2616.44775
 31
0.0
210
0.0
220
0.0
230
1.0
100
AcDbText
  0
TEXT
  5
B4
100
AcDbEntity
  8
20
  6
CONTINUOUS
 62
   231
100
AcDbText
 10
947.703917
 20
2615.76275
 30
0.0
 40
1.37
  1
223
  7
ROMANS
 72
     4
 11
949.46225
 21
2616.44775
 31
0.0
210
0.0
220
0.0
230
1.0
100
AcDbText
  0
TEXT
  5
B5
100
AcDbEntity
  8
20
  6
CONTINUOUS
 62
   231
100
AcDbText
 10
963.323333
 20
2615.76275
 30
0.0
 40
1.37
  1
249
  7
ROMANS
 72
     4
 11
965.081667
 21
2616.44775
 31
0.0
210
0.0
220
0.0
230
1.0
100
AcDbText
  0
TEXT
  5
B6
100
AcDbEntity
  8
20
  6
CONTINUOUS
 62
   231
100
AcDbText
 10
979.256667
 20
2615.76275
 30
0.0
 40
1.37
  1
249
  7
ROMANS
 72
     4
 11
981.015
 21
2616.44775
 31
0.0
210
0.0
220
0.0
230
1.0
100
AcDbText
  0
TEXT
  5
B7
100
AcDbEntity
  8
20
  6
CONTINUOUS
 62
   231
100
AcDbText
 10
994.541333
 20
2615.76275
 30
0.0
 40
1.37
  1
274
  7
ROMANS
 72
     4
 11
996.299667
 21
2616.44775
 31
0.0
210
0.0
220
0.0
230
1.0
100
AcDbText
  0
TEXT
  5
B8
100
AcDbEntity
  8
20
  6
CONTINUOUS
 62
   231
100
AcDbText
 10
1010.087333
 20
2615.76275
 30
0.0
 40
1.37
  1
275
  7
ROMANS
 72
     4
 11
1011.845667
 21
2616.44775
 31
0.0
210
0.0
220
0.0
230
1.0
100
AcDbText
  0
TEXT
  5
B9
100
AcDbEntity
  8
20
  6
CONTINUOUS
 62
   231
100
AcDbText
 10
1024.9205
 20
2615.76275
 30
0.0
 40
1.37
  1
300
  7
ROMANS
 72
     4
 11
1026.732833
 21
2616.44775
 31
0.0
210
0.0
220
0.0
230
1.0
100
AcDbText
  0
TEXT
  5
BA
100
AcDbEntity
  8
20
  6
CONTINUOUS
 62
   231
100
AcDbText
 10
885.251917
 20
2609.198333
 30
0.0
 40
1.37
  1
123
  7
ROMANS
 72
     4
 11
887.01025
 21
2609.883333
 31
0.0
210
0.0
220
0.0
230
1.0
100
AcDbText
  0
TEXT
  5
BB
100
AcDbEntity
  8
20
  6
CONTINUOUS
 62
   231
100
AcDbText
 10
899.8775
 20
2609.198333
 30
0.0
 40
1.37
  1
135
  7
ROMANS
 72
     4
 11
901.635833
 21
2609.883333
 31
0.0
210
0.0
220
0.0
230
1.0
100
AcDbText
  0
TEXT
  5
BC
100
AcDbEntity
  8
20
  6
CONTINUOUS
 62
   231
100
AcDbText
 10
931.915333
 20
2609.198333
 30
0.0
 40
1.37
  1
160
  7
ROMANS
 72
     4
 11
933.727667
 21
2609.883333
 31
0.0
210
0.0
220
0.0
230
1.0
100
AcDbText
  0
TEXT
  5
BD
100
AcDbEntity
  8
20
  6
CONTINUOUS
 62
   231
100
AcDbText
 10
947.902667
 20
2609.198333
 30
0.0
 40
1.37
  1
173
  7
ROMANS
 72
     4
 11
949.661
 21
2609.883333
 31
0.0
210
0.0
220
0.0
230
1.0
100
AcDbText
  0
TEXT
  5
BE
100
AcDbEntity
  8
20
  6
CONTINUOUS
 62
   231
100
AcDbText
 10
963.290917
 20
2609.198333
 30
0.0
 40
1.37
  1
186
  7
ROMANS
 72
     4
 11
965.081583
 21
2609.883333
 31
0.0
210
0.0
220
0.0
230
1.0
100
AcDbText
  0
TEXT
  5
BF
100
AcDbEntity
  8
20
  6
CONTINUOUS
 62
   231
100
AcDbText
 10
979.256583
 20
2609.198333
 30
0.0
 40
1.37
  1
199
  7
ROMANS
 72
     4
 11
981.014917
 21
2609.883333
 31
0.0
210
0.0
220
0.0
230
1.0
100
AcDbText
  0
TEXT
  5
C0
100
AcDbEntity
  8
20
  6
CONTINUOUS
 62
   231
100
AcDbText
 10
994.541333
 20
2609.198333
 30
0.0
 40
1.37
  1
213
  7
ROMANS
 72
     4
 11
996.299667
 21
2609.883333
 31
0.0
210
0.0
220
0.0
230
1.0
100
AcDbText
  0
TEXT
  5
C1
100
AcDbEntity
  8
20
  6
CONTINUOUS
 62
   231
100
AcDbText
 10
1010.286167
 20
2609.198333
 30
0.0
 40
1.37
  1
227
  7
ROMANS
 72
     4
 11
1012.0445
 21
2609.883333
 31
0.0
210
0.0
220
0.0
230
1.0
100
AcDbText
  0
TEXT
  5
C2
100
AcDbEntity
  8
20
  6
CONTINUOUS
 62
   231
100
AcDbText
 10
1025.147167
 20
2609.198333
 30
0.0
 40
1.37
  1
241
  7
ROMANS
 72
     4
 11
1026.732917
 21
2609.883333
 31
0.0
210
0.0
220
0.0
230
1.0
100
AcDbText
  0
TEXT
  5
C3
100
AcDbEntity
  8
20
  6
CONTINUOUS
 62
   231
100
AcDbText
 10
899.8775
 20
2603.628333
 30
0.0
 40
1.37
  1
189
  7
ROMANS
 72
     4
 11
901.635833
 21
2604.313333
 31
0.0
210
0.0
220
0.0
230
1.0
100
AcDbText
  0
TEXT
  5
C4
100
AcDbEntity
  8
20
  6
CONTINUOUS
 62
   231
100
AcDbText
 10
932.168167
 20
2603.628333
 30
0.0
 40
1.37
  1
189
  7
ROMANS
 72
     4
 11
933.9265
 21
2604.313333
 31
0.0
210
0.0
220
0.0
230
1.0
100
AcDbText
  0
TEXT
  5
C5
100
AcDbEntity
  8
20
  6
CONTINUOUS
 62
   231
100
AcDbText
 10
962.7115
 20
2603.628333
 30
0.0
 40
1.37
  1
215
  7
ROMANS
 72
     4
 11
964.469833
 21
2604.313333
 31
0.0
210
0.0
220
0.0
230
1.0
100
AcDbText
  0
TEXT
  5
C6
100
AcDbEntity
  8
20
  6
CONTINUOUS
 62
   231
100
AcDbText
 10
979.638583
 20
2603.628333
 30
0.0
 40
1.37
  1
215
  7
ROMANS
 72
     4
 11
981.396917
 21
2604.313333
 31
0.0
210
0.0
220
0.0
230
1.0
100
AcDbText
  0
TEXT
  5
C7
100
AcDbEntity
  8
20
  6
CONTINUOUS
 62
   231
100
AcDbText
 10
994.272833
 20
2603.628333
 30
0.0
 40
1.37
  1
240
  7
ROMANS
 72
     4
 11
996.085167
 21
2604.313333
 31
0.0
210
0.0
220
0.0
230
1.0
100
AcDbText
  0
TEXT
  5
C8
100
AcDbEntity
  8
20
  6
CONTINUOUS
 62
   231
100
AcDbText
 10
1010.216583
 20
2603.628333
 30
0.0
 40
1.37
  1
240
  7
ROMANS
 72
     4
 11
1012.028917
 21
2604.313333
 31
0.0
210
0.0
220
0.0
230
1.0
100
AcDbText
  0
TEXT
  5
C9
100
AcDbEntity
  8
20
  6
CONTINUOUS
 62
   231
100
AcDbText
 10
1025.555333
 20
2603.628333
 30
0.0
 40
1.37
  1
264
  7
ROMANS
 72
     4
 11
1027.313667
 21
2604.313333
 31
0.0
210
0.0
220
0.0
230
1.0
100
AcDbText
  0
TEXT
  5
CA
100
AcDbEntity
  8
20
  6
CONTINUOUS
 62
   231
100
AcDbText
 10
947.703917
 20
2603.628333
 30
0.0
 40
1.37
  1
189
  7
ROMANS
 72
     4
 11
949.46225
 21
2604.313333
 31
0.0
210
0.0
220
0.0
230
1.0
100
AcDbText
  0
TEXT
  5
CB
100
AcDbEntity
  8
20
  6
CONTINUOUS
 62
   231
100
AcDbText
 10
900.924833
 20
2598.257417
 30
0.0
 40
1.37
  1
-
  7
ROMANS
 72
     4
 11
901.43725
 21
2598.942417
 31
0.0
210
0.0
220
0.0
230
1.0
100
AcDbText
  0
TEXT
  5
CC
100
AcDbEntity
  8
20
  6
CONTINUOUS
 62
   231
100
AcDbText
 10
963.973083
 20
2598.257417
 30
0.0
 40
1.37
  1
-
  7
ROMANS
 72
     4
 11
964.4855
 21
2598.942417
 31
0.0
210
0.0
220
0.0
230
1.0
100
AcDbText
  0
TEXT
  5
CD
100
AcDbEntity
  8
20
  6
CONTINUOUS
 62
   231
100
AcDbText
 10
995.986
 20
2598.257417
 30
0.0
 40
1.37
  1
-
  7
ROMANS
 72
     4
 11
996.498417
 21
2598.942417
 31
0.0
210
0.0
220
0.0
230
1.0
100
AcDbText
  0
TEXT
  5
CE
100
AcDbEntity
  8
20
  6
CONTINUOUS
 62
   231
100
AcDbText
 10
1027.214333
 20
2598.257417
 30
0.0
 40
1.37
  1
-
  7
ROMANS
 72
     4
 11
1027.72675
 21
2598.942417
 31
0.0
210
0.0
220
0.0
230
1.0
100
AcDbText
  0
TEXT
  5
CF
100
AcDbEntity
  8
20
  6
CONTINUOUS
 62
   231
100
AcDbText
 10
886.8955
 20
2598.257417
 30
0.0
 40
1.37
  1
-
  7
ROMANS
 72
     4
 11
887.407917
 21
2598.942417
 31
0.0
210
0.0
220
0.0
230
1.0
100
AcDbText
  0
TEXT
  5
D0
100
AcDbEntity
  8
20
  6
CONTINUOUS
 62
   231
100
AcDbText
 10
933.414167
 20
2598.257417
 30
0.0
 40
1.37
  1
-
  7
ROMANS
 72
     4
 11
933.926583
 21
2598.942417
 31
0.0
210
0.0
220
0.0
230
1.0
100
AcDbText
  0
TEXT
  5
D1
100
AcDbEntity
  8
20
  6
CONTINUOUS
 62
   231
100
AcDbText
 10
948.949917
 20
2598.257417
 30
0.0
 40
1.37
  1
-
  7
ROMANS
 72
     4
 11
949.462333
 21
2598.942417
 31
0.0
210
0.0
220
0.0
230
1.0
100
AcDbText
  0
TEXT
  5
D2
100
AcDbEntity
  8
20
  6
CONTINUOUS
 62
   231
100
AcDbText
 10
980.900083
 20
2598.257417
 30
0.0
 40
1.37
  1
-
  7
ROMANS
 72
     4
 11
981.4125
 21
2598.942417
 31
0.0
210
0.0
220
0.0
230
1.0
100
AcDbText
  0
TEXT
  5
D3
100
AcDbEntity
  8
20
  6
CONTINUOUS
 62
   231
100
AcDbText
 10
1011.730917
 20
2598.257417
 30
0.0
 40
1.37
  1
-
  7
ROMANS
 72
     4
 11
1012.243333
 21
2598.942417
 31
0.0
210
0.0
220
0.0
230
1.0
100
AcDbText
  0
TEXT
  5
D4
100
AcDbEntity
  8
20
  6
CONTINUOUS
 62
   231
100
AcDbText
 10
886.892583
 20
2586.783333
 30
0.0
 40
1.37
  1
-
  7
ROMANS
 72
     4
 11
887.405
 21
2587.468333
 31
0.0
210
0.0
220
0.0
230
1.0
100
AcDbText
  0
TEXT
  5
D5
100
AcDbEntity
  8
20
  6
CONTINUOUS
 62
   231
100
AcDbText
 10
917.78625
 20
2586.783333
 30
0.0
 40
1.37
  1
-
  7
ROMANS
 72
     4
 11
918.298667
 21
2587.468333
 31
0.0
210
0.0
220
0.0
230
1.0
100
AcDbText
  0
TEXT
  5
D6
100
AcDbEntity
  8
20
  6
CONTINUOUS
 62
   231
100
AcDbText
 10
933.123333
 20
2586.783333
 30
0.0
 40
1.37
  1
-
  7
ROMANS
 72
     4
 11
933.63575
 21
2587.468333
 31
0.0
210
0.0
220
0.0
230
1.0
100
AcDbText
  0
TEXT
  5
D7
100
AcDbEntity
  8
20
  6
CONTINUOUS
 62
   231
100
AcDbText
 10
965.27225
 20
2586.783333
 30
0.0
 40
1.37
  1
-
  7
ROMANS
 72
     4
 11
965.784667
 21
2587.468333
 31
0.0
210
0.0
220
0.0
230
1.0
100
AcDbText
  0
TEXT
  5
D8
100
AcDbEntity
  8
20
  6
CONTINUOUS
 62
   231
100
AcDbText
 10
979.728833
 20
2586.783333
 30
0.0
 40
1.37
  1
-
  7
ROMANS
 72
     4
 11
980.24125
 21
2587.468333
 31
0.0
210
0.0
220
0.0
230
1.0
100
AcDbText
  0
TEXT
  5
D9
100
AcDbEntity
  8
20
  6
CONTINUOUS
 62
   231
100
AcDbText
 10
886.693833
 20
2570.073667
 30
0.0
 40
1.37
  1
-
  7
ROMANS
 72
     4
 11
887.20625
 21
2570.758667
 31
0.0
210
0.0
220
0.0
230
1.0
100
AcDbText
  0
TEXT
  5
DA
100
AcDbEntity
  8
20
  6
CONTINUOUS
 62
   231
100
AcDbText
 10
901.319417
 20
2570.073667
 30
0.0
 40
1.37
  1
-
  7
ROMANS
 72
     4
 11
901.831833
 21
2570.758667
 31
0.0
210
0.0
220
0.0
230
1.0
100
AcDbText
  0
TEXT
  5
DB
100
AcDbEntity
  8
20
  6
CONTINUOUS
 62
   231
100
AcDbText
 10
917.985
 20
2570.073667
 30
0.0
 40
1.37
  1
-
  7
ROMANS
 72
     4
 11
918.497417
 21
2570.758667
 31
0.0
210
0.0
220
0.0
230
1.0
100
AcDbText
  0
TEXT
  5
DC
100
AcDbEntity
  8
20
  6
CONTINUOUS
 62
   231
100
AcDbText
 10
933.123333
 20
2570.073667
 30
0.0
 40
1.37
  1
-
  7
ROMANS
 72
     4
 11
933.63575
 21
2570.758667
 31
0.0
210
0.0
220
0.0
230
1.0
100
AcDbText
  0
TEXT
  5
DD
100
AcDbEntity
  8
20
  6
CONTINUOUS
 62
   231
100
AcDbText
 10
948.74275
 20
2570.073667
 30
0.0
 40
1.37
  1
-
  7
ROMANS
 72
     4
 11
949.255167
 21
2570.758667
 31
0.0
210
0.0
220
0.0
230
1.0
100
AcDbText
  0
TEXT
  5
DE
100
AcDbEntity
  8
20
  6
CONTINUOUS
 62
   231
100
AcDbText
 10
965.27225
 20
2570.073667
 30
0.0
 40
1.37
  1
-
  7
ROMANS
 72
     4
 11
965.784667
 21
2570.758667
 31
0.0
210
0.0
220
0.0
230
1.0
100
AcDbText
  0
TEXT
  5
DF
100
AcDbEntity
  8
20
  6
CONTINUOUS
 62
   231
100
AcDbText
 10
979.563083
 20
2570.073667
 30
0.0
 40
1.37
  1
-
  7
ROMANS
 72
     4
 11
980.0755
 21
2570.758667
 31
0.0
210
0.0
220
0.0
230
1.0
100
AcDbText
  0
TEXT
  5
E0
100
AcDbEntity
  8
20
  6
CONTINUOUS
 62
   231
100
AcDbText
 10
996.301833
 20
2570.073667
 30
0.0
 40
1.37
  1
-
  7
ROMANS
 72
     4
 11
996.81425
 21
2570.758667
 31
0.0
210
0.0
220
0.0
230
1.0
100
AcDbText
  0
TEXT
  5
E1
100
AcDbEntity
  8
20
  6
CONTINUOUS
 62
   231
100
AcDbText
 10
1011.5865
 20
2570.073667
 30
0.0
 40
1.37
  1
-
  7
ROMANS
 72
     4
 11
1012.098917
 21
2570.758667
 31
0.0
210
0.0
220
0.0
230
1.0
100
AcDbText
  0
TEXT
  5
E2
100
AcDbEntity
  8
20
  6
CONTINUOUS
 62
   231
100
AcDbText
 10
881.839333
 20
2561.032667
 30
0.0
 40
1.37
  1
 3-#4
  7
ROMANS
210
0.0
220
0.0
230
1.0
100
AcDbText
  0
TEXT
  5
E3
100
AcDbEntity
  8
20
  6
CONTINUOUS
 62
   231
100
AcDbText
 10
881.839333
 20
2558.1785
 30
0.0
 40
1.37
  1
x 3'-0"
  7
ROMANS
210
0.0
220
0.0
230
1.0
100
AcDbText
  0
TEXT
  5
E4
100
AcDbEntity
  8
20
  6
CONTINUOUS
 62
   231
100
AcDbText
 10
944.28575
 20
2561.10725
 30
0.0
 40
1.37
  1
 3-#4
  7
ROMANS
210
0.0
220
0.0
230
1.0
100
AcDbText
  0
TEXT
  5
E5
100
AcDbEntity
  8
20
  6
CONTINUOUS
 62
   231
100
AcDbText
 10
944.28575
 20
2558.253083
 30
0.0
 40
1.37
  1
x 3'-6"
  7
ROMANS
210
0.0
220
0.0
230
1.0
100
AcDbText
  0
TEXT
  5
E6
100
AcDbEntity
  8
20
  6
CONTINUOUS
 62
   231
100
AcDbText
 10
960.41775
 20
2561.10725
 30
0.0
 40
1.37
  1
 3-#4
  7
ROMANS
210
0.0
220
0.0
230
1.0
100
AcDbText
  0
TEXT
  5
E7
100
AcDbEntity
  8
20
  6
CONTINUOUS
 62
   231
100
AcDbText
 10
960.41775
 20
2558.253083
 30
0.0
 40
1.37
  1
x 3'-6"
  7
ROMANS
210
0.0
220
0.0
230
1.0
100
AcDbText
  0
TEXT
  5
E8
100
AcDbEntity
  8
20
  6
CONTINUOUS
 62
   231
100
AcDbText
 10
976.099917
 20
2561.147333
 30
0.0
 40
1.37
  1
 3-#4
  7
ROMANS
210
0.0
220
0.0
230
1.0
100
AcDbText
  0
TEXT
  5
E9
100
AcDbEntity
  8
20
  6
CONTINUOUS
 62
   231
100
AcDbText
 10
976.099917
 20
2558.293167
 30
0.0
 40
1.37
  1
x 4'-0"
  7
ROMANS
210
0.0
220
0.0
230
1.0
100
AcDbText
  0
TEXT
  5
EA
100
AcDbEntity
  8
20
  6
CONTINUOUS
 62
   231
100
AcDbText
 10
1022.14225
 20
2560.978333
 30
0.0
 40
1.37
  1
 3-#4
  7
ROMANS
210
0.0
220
0.0
230
1.0
100
AcDbText
  0
TEXT
  5
EB
100
AcDbEntity
  8
20
  6
CONTINUOUS
 62
   231
100
AcDbText
 10
1022.14225
 20
2558.124167
 30
0.0
 40
1.37
  1
x 4'-6"
  7
ROMANS
210
0.0
220
0.0
230
1.0
100
AcDbText
  0
TEXT
  5
EC
100
AcDbEntity
  8
20
  6
CONTINUOUS
 62
   231
100
AcDbText
 10
884.454083
 20
2537.525167
 30
0.0
 40
1.37
  1
3.4
  7
ROMANS
 72
     4
 11
886.212417
 21
2538.210167
 31
0.0
210
0.0
220
0.0
230
1.0
100
AcDbText
  0
TEXT
  5
ED
100
AcDbEntity
  8
20
  6
CONTINUOUS
 62
   231
100
AcDbText
 10
883.97325
 20
2554.3585
 30
0.0
 40
1.37
  1
0.02
  7
ROMANS
 72
     4
 11
886.411167
 21
2555.0435
 31
0.0
210
0.0
220
0.0
230
1.0
100
AcDbText
  0
TEXT
  5
EE
100
AcDbEntity
  8
20
  6
CONTINUOUS
 62
   231
100
AcDbText
 10
883.97325
 20
2548.788667
 30
0.0
 40
1.37
  1
0.04
  7
ROMANS
 72
     4
 11
886.411167
 21
2549.473667
 31
0.0
210
0.0
220
0.0
230
1.0
100
AcDbText
  0
TEXT
  5
EF
100
AcDbEntity
  8
20
  6
CONTINUOUS
 62
   231
100
AcDbText
 10
883.97325
 20
2543.4175
 30
0.0
 40
1.37
  1
0.05
  7
ROMANS
 72
     4
 11
886.411167
 21
2544.1025
 31
0.0
210
0.0
220
0.0
230
1.0
100
AcDbText
  0
TEXT
  5
F0
100
AcDbEntity
  8
20
  6
CONTINUOUS
 62
   231
100
AcDbText
 10
898.99625
 20
2554.3585
 30
0.0
 40
1.37
  1
0.04
  7
ROMANS
 72
     4
 11
901.434167
 21
2555.0435
 31
0.0
210
0.0
220
0.0
230
1.0
100
AcDbText
  0
TEXT
  5
F1
100
AcDbEntity
  8
20
  6
CONTINUOUS
 62
   231
100
AcDbText
 10
899.195167
 20
2548.788667
 30
0.0
 40
1.37
  1
0.07
  7
ROMANS
 72
     4
 11
901.633083
 21
2549.473667
 31
0.0
210
0.0
220
0.0
230
1.0
100
AcDbText
  0
TEXT
  5
F2
100
AcDbEntity
  8
20
  6
CONTINUOUS
 62
   231
100
AcDbText
 10
899.195167
 20
2543.4175
 30
0.0
 40
1.37
  1
0.08
  7
ROMANS
 72
     4
 11
901.633083
 21
2544.1025
 31
0.0
210
0.0
220
0.0
230
1.0
100
AcDbText
  0
TEXT
  5
F3
100
AcDbEntity
  8
20
  6
CONTINUOUS
 62
   231
100
AcDbText
 10
915.264417
 20
2554.3585
 30
0.0
 40
1.37
  1
0.04
  7
ROMANS
 72
     4
 11
917.702333
 21
2555.0435
 31
0.0
210
0.0
220
0.0
230
1.0
100
AcDbText
  0
TEXT
  5
F4
100
AcDbEntity
  8
20
  6
CONTINUOUS
 62
   231
100
AcDbText
 10
915.661917
 20
2548.788667
 30
0.0
 40
1.37
  1
0.07
  7
ROMANS
 72
     4
 11
918.099833
 21
2549.473667
 31
0.0
210
0.0
220
0.0
230
1.0
100
AcDbText
  0
TEXT
  5
F5
100
AcDbEntity
  8
20
  6
CONTINUOUS
 62
   231
100
AcDbText
 10
915.463167
 20
2543.4175
 30
0.0
 40
1.37
  1
0.09
  7
ROMANS
 72
     4
 11
917.901083
 21
2544.1025
 31
0.0
210
0.0
220
0.0
230
1.0
100
AcDbText
  0
TEXT
  5
F6
100
AcDbEntity
  8
20
  6
CONTINUOUS
 62
   231
100
AcDbText
 10
931.3965
 20
2554.3585
 30
0.0
 40
1.37
  1
0.05
  7
ROMANS
 72
     4
 11
933.834417
 21
2555.0435
 31
0.0
210
0.0
220
0.0
230
1.0
100
AcDbText
  0
TEXT
  5
F7
100
AcDbEntity
  8
20
  6
CONTINUOUS
 62
   231
100
AcDbText
 10
931.3965
 20
2548.788667
 30
0.0
 40
1.37
  1
0.08
  7
ROMANS
 72
     4
 11
933.834417
 21
2549.473667
 31
0.0
210
0.0
220
0.0
230
1.0
100
AcDbText
  0
TEXT
  5
F8
100
AcDbEntity
  8
20
  6
CONTINUOUS
 62
   231
100
AcDbText
 10
931.595333
 20
2543.4175
 30
0.0
 40
1.37
  1
0.09
  7
ROMANS
 72
     4
 11
934.03325
 21
2544.1025
 31
0.0
210
0.0
220
0.0
230
1.0
100
AcDbText
  0
TEXT
  5
F9
100
AcDbEntity
  8
20
  6
CONTINUOUS
 62
   231
100
AcDbText
 10
946.419583
 20
2554.3585
 30
0.0
 40
1.37
  1
0.05
  7
ROMANS
 72
     4
 11
948.8575
 21
2555.0435
 31
0.0
210
0.0
220
0.0
230
1.0
100
AcDbText
  0
TEXT
  5
FA
100
AcDbEntity
  8
20
  6
CONTINUOUS
 62
   231
100
AcDbText
 10
946.419583
 20
2548.788667
 30
0.0
 40
1.37
  1
0.08
  7
ROMANS
 72
     4
 11
948.8575
 21
2549.473667
 31
0.0
210
0.0
220
0.0
230
1.0
100
AcDbText
  0
TEXT
  5
FB
100
AcDbEntity
  8
20
  6
CONTINUOUS
 62
   231
100
AcDbText
 10
946.564333
 20
2543.4175
 30
0.0
 40
1.37
  1
0.10
  7
ROMANS
 72
     4
 11
949.056167
 21
2544.1025
 31
0.0
210
0.0
220
0.0
230
1.0
100
AcDbText
  0
TEXT
  5
FC
100
AcDbEntity
  8
20
  6
CONTINUOUS
 62
   231
100
AcDbText
 10
962.949167
 20
2554.3585
 30
0.0
 40
1.37
  1
0.07
  7
ROMANS
 72
     4
 11
965.387083
 21
2555.0435
 31
0.0
210
0.0
220
0.0
230
1.0
100
AcDbText
  0
TEXT
  5
FD
100
AcDbEntity
  8
20
  6
CONTINUOUS
 62
   231
100
AcDbText
 10
962.949167
 20
2548.788667
 30
0.0
 40
1.37
  1
0.12
  7
ROMANS
 72
     4
 11
965.387083
 21
2549.473667
 31
0.0
210
0.0
220
0.0
230
1.0
100
AcDbText
  0
TEXT
  5
FE
100
AcDbEntity
  8
20
  6
CONTINUOUS
 62
   231
100
AcDbText
 10
962.949167
 20
2543.4175
 30
0.0
 40
1.37
  1
0.15
  7
ROMANS
 72
     4
 11
965.387083
 21
2544.1025
 31
0.0
210
0.0
220
0.0
230
1.0
100
AcDbText
  0
TEXT
  5
FF
100
AcDbEntity
  8
20
  6
CONTINUOUS
 62
   231
100
AcDbText
 10
978.035083
 20
2554.3585
 30
0.0
 40
1.37
  1
0.08
  7
ROMANS
 72
     4
 11
980.473
 21
2555.0435
 31
0.0
210
0.0
220
0.0
230
1.0
100
AcDbText
  0
TEXT
  5
100
100
AcDbEntity
  8
20
  6
CONTINUOUS
 62
   231
100
AcDbText
 10
978.233833
 20
2548.788667
 30
0.0
 40
1.37
  1
0.13
  7
ROMANS
 72
     4
 11
980.67175
 21
2549.473667
 31
0.0
210
0.0
220
0.0
230
1.0
100
AcDbText
  0
TEXT
  5
101
100
AcDbEntity
  8
20
  6
CONTINUOUS
 62
   231
100
AcDbText
 10
978.233833
 20
2543.4175
 30
0.0
 40
1.37
  1
0.15
  7
ROMANS
 72
     4
 11
980.67175
 21
2544.1025
 31
0.0
210
0.0
220
0.0
230
1.0
100
AcDbText
  0
TEXT
  5
102
100
AcDbEntity
  8
20
  6
CONTINUOUS
 62
   231
100
AcDbText
 10
994.15125
 20
2554.3585
 30
0.0
 40
1.37
  1
0.11
  7
ROMANS
 72
     4
 11
996.416583
 21
2555.0435
 31
0.0
210
0.0
220
0.0
230
1.0
100
AcDbText
  0
TEXT
  5
103
100
AcDbEntity
  8
20
  6
CONTINUOUS
 62
   231
100
AcDbText
 10
994.177417
 20
2548.788667
 30
0.0
 40
1.37
  1
0.18
  7
ROMANS
 72
     4
 11
996.615333
 21
2549.473667
 31
0.0
210
0.0
220
0.0
230
1.0
100
AcDbText
  0
TEXT
  5
104
100
AcDbEntity
  8
20
  6
CONTINUOUS
 62
   231
100
AcDbText
 10
994.35
 20
2543.4175
 30
0.0
 40
1.37
  1
0.21
  7
ROMANS
 72
     4
 11
996.615333
 21
2544.1025
 31
0.0
210
0.0
220
0.0
230
1.0
100
AcDbText
  0
TEXT
  5
105
100
AcDbEntity
  8
20
  6
CONTINUOUS
 62
   231
100
AcDbText
 10
1008.839667
 20
2554.3585
 30
0.0
 40
1.37
  1
0.11
  7
ROMANS
 72
     4
 11
1011.105
 21
2555.0435
 31
0.0
210
0.0
220
0.0
230
1.0
100
AcDbText
  0
TEXT
  5
106
100
AcDbEntity
  8
20
  6
CONTINUOUS
 62
   231
100
AcDbText
 10
1009.263417
 20
2548.788667
 30
0.0
 40
1.37
  1
0.18
  7
ROMANS
 72
     4
 11
1011.701333
 21
2549.473667
 31
0.0
210
0.0
220
0.0
230
1.0
100
AcDbText
  0
TEXT
  5
107
100
AcDbEntity
  8
20
  6
CONTINUOUS
 62
   231
100
AcDbText
 10
1009.436
 20
2543.4175
 30
0.0
 40
1.37
  1
0.21
  7
ROMANS
 72
     4
 11
1011.701333
 21
2544.1025
 31
0.0
210
0.0
220
0.0
230
1.0
100
AcDbText
  0
TEXT
  5
108
100
AcDbEntity
  8
20
  6
CONTINUOUS
 62
   231
100
AcDbText
 10
1024.474833
 20
2549.050417
 30
0.0
 40
1.37
  1
0.24
  7
ROMANS
 72
     4
 11
1026.91275
 21
2549.735417
 31
0.0
210
0.0
220
0.0
230
1.0
100
AcDbText
  0
TEXT
  5
109
100
AcDbEntity
  8
20
  6
CONTINUOUS
 62
   231
100
AcDbText
 10
1025.071167
 20
2543.67925
 30
0.0
 40
1.37
  1
0.28
  7
ROMANS
 72
     4
 11
1027.509083
 21
2544.36425
 31
0.0
210
0.0
220
0.0
230
1.0
100
AcDbText
  0
ARC
  5
10B
100
AcDbEntity
  8
61
  6
CONTINUOUS
 62
   100
100
AcDbCircle
 10
771.029323
 20
2660.43447
 30
0.0
 40
1.562497
210
0.0
220
0.0
230
1.0
100
AcDbArc
 50
323.130094
 51
36.869886
  0
ARC
  5
10C
100
AcDbEntity
  8
61
  6
CONTINUOUS
 62
   100
100
AcDbCircle
 10
771.029323
 20
2626.059504
 30
0.0
 40
1.562497
210
0.0
220
0.0
230
1.0
100
AcDbArc
 50
323.130094
 51
36.501431
  0
ARC
  5
10D
100
AcDbEntity
  8
61
  6
CONTINUOUS
 62
   100
100
AcDbCircle
 10
771.029323
 20
2533.559596
 30
0.0
 40
1.562497
210
0.0
220
0.0
230
1.0
100
AcDbArc
 50
322.671753
 51
36.411544
  0
ARC
  5
10E
100
AcDbEntity
  8
61
  6
CONTINUOUS
 62
   100
100
AcDbCircle
 10
771.029323
 20
2499.184631
 30
0.0
 40
1.562497
210
0.0
220
0.0
230
1.0
100
AcDbArc
 50
323.130094
 51
36.869886
  0
LINE
  5
10F
100
AcDbEntity
  8
61
  6
CONTINUOUS
 62
     2
100
AcDbLine
 10
772.278333
 20
2660.429667
 30
0.0
 11
777.278333
 21
2660.429667
 31
0.0
  0
LINE
  5
110
100
AcDbEntity
  8
61
  6
CONTINUOUS
 62
     2
100
AcDbLine
 10
772.278333
 20
2626.054667
 30
0.0
 11
777.278333
 21
2626.054667
 31
0.0
  0
LINE
  5
111
100
AcDbEntity
  8
61
  6
CONTINUOUS
 62
     2
100
AcDbLine
 10
772.278333
 20
2533.567167
 30
0.0
 11
777.278333
 21
2533.567167
 31
0.0
  0
LINE
  5
112
100
AcDbEntity
  8
61
  6
CONTINUOUS
 62
     2
100
AcDbLine
 10
772.278333
 20
2499.179667
 30
0.0
 11
777.278333
 21
2499.179667
 31
0.0
  0
TEXT
  5
113
100
AcDbEntity
  8
61
  6
CONTINUOUS
 62
     1
100
AcDbText
 10
787.765833
 20
2446.117167
 30
0.0
 40
0.749775
  1
D03K14C90-SS
  7
MONOTXT
210
0.0
220
0.0
230
1.0
100
AcDbText
  0
LINE
  5
115
100
AcDbEntity
  8
1
  6
CONTINUOUS
 62
     1
100
AcDbLine
 10
1105.640833
 20
2709.817167
 30
0.0
 11
1105.640833
 21
2697.517167
 31
0.0
  0
LINE
  5
116
100
AcDbEntity
  8
1
  6
CONTINUOUS
 62
     1
100
AcDbLine
 10
1105.640833
 20
2697.517167
 30
0.0
 11
1177.278333
 21
2697.517167
 31
0.0
  0
LINE
  5
117
100
AcDbEntity
  8
1
  6
CONTINUOUS
 62
     1
100
AcDbLine
 10
1105.640833
 20
2703.679667
 30
0.0
 11
1177.278333
 21
2703.679667
 31
0.0
  0
LINE
  5
118
100
AcDbEntity
  8
1
  6
CONTINUOUS
 62
     1
100
AcDbLine
 10
1114.140833
 20
2709.817167
 30
0.0
 11
1114.140833
 21
2697.517167
 31
0.0
  0
LINE
  5
119
100
AcDbEntity
  8
1
  6
CONTINUOUS
 62
     1
100
AcDbLine
 10
1122.628333
 20
2709.817167
 30
0.0
 11
1122.628333
 21
2697.517167
 31
0.0
  0
LINE
  5
11A
100
AcDbEntity
  8
1
  6
CONTINUOUS
 62
     1
100
AcDbLine
 10
1142.640833
 20
2709.817167
 30
0.0
 11
1142.640833
 21
2697.517167
 31
0.0
  0
LINE
  5
11B
100
AcDbEntity
  8
1
  6
CONTINUOUS
 62
     1
100
AcDbLine
 10
1162.628333
 20
2709.817167
 30
0.0
 11
1162.628333
 21
2697.517167
 31
0.0
  0
LINE
  5
11C
100
AcDbEntity
  8
1
  6
CONTINUOUS
 62
     1
100
AcDbLine
 10
1169.728333
 20
2709.817167
 30
0.0
 11
1169.728333
 21
2697.517167
 31
0.0
  0
TEXT
  5
11D
100
AcDbEntity
  8
1
  6
CONTINUOUS
 62
     7
100
AcDbText
 10
1106.878333
 20
2707.692167
 30
0.0
 40
1.17495
  1
PUBLIC
 41
0.984808
  7
TXT
 72
     1
 11
1109.871333
 21
2708.867083
 31
0.0
210
0.0
220
0.0
230
1.0
100
AcDbText
 73
     3
  0
TEXT
  5
11E
100
AcDbEntity
  8
1
  6
CONTINUOUS
 62
     7
100
AcDbText
 10
1107.015833
 20
2706.004667
 30
0.0
 40
1.187399
  1
ROADS
 41
0.983451
  7
TXT
 72
     1
 11
1109.67775
 21
2707.192083
 31
0.0
210
0.0
220
0.0
230
1.0
100
AcDbText
 73
     3
  0
TEXT
  5
11F
100
AcDbEntity
  8
1
  6
CONTINUOUS
 62
     7
100
AcDbText
 10
1108.053333
 20
2704.329667
 30
0.0
 40
1.17495
  1
DIV.
 41
0.976637
  7
TXT
 72
     1
 11
1109.6165
 21
2705.504583
 31
0.0
210
0.0
220
0.0
230
1.0
100
AcDbText
 73
     3
  0
TEXT
  5
120
100
AcDbEntity
  8
1
  6
CONTINUOUS
 62
     7
100
AcDbText
 10
1107.615833
 20
2700.229667
 30
0.0
 40
1.17495
  1
W.VA.
 41
0.968339
  7
TXT
 72
     1
 11
1109.703167
 21
2701.404583
 31
0.0
210
0.0
220
0.0
230
1.0
100
AcDbText
 73
     3
  0
TEXT
  5
121
100
AcDbEntity
  8
1
  6
CONTINUOUS
 62
     7
100
AcDbText
 10
1115.528333
 20
2707.692167
 30
0.0
 40
1.17495
  1
STATE
 41
0.975424
  7
TXT
 72
     1
 11
1118.158833
 21
2708.867083
 31
0.0
210
0.0
220
0.0
230
1.0
100
AcDbText
 73
     3
  0
TEXT
  5
122
100
AcDbEntity
  8
1
  6
CONTINUOUS
 62
     7
100
AcDbText
 10
1115.890833
 20
2705.867167
 30
0.0
 40
1.17495
  1
DIST.
 41
0.982701
  7
TXT
 72
     1
 11
1118.054583
 21
2707.042083
 31
0.0
210
0.0
220
0.0
230
1.0
100
AcDbText
 73
     3
  0
TEXT
  5
123
100
AcDbEntity
  8
1
  6
CONTINUOUS
 62
     7
100
AcDbText
 10
1116.553333
 20
2704.329667
 30
0.0
 40
1.17495
  1
NO.
 41
0.963552
  7
TXT
 72
     1
 11
1117.747833
 21
2705.504583
 31
0.0
210
0.0
220
0.0
230
1.0
100
AcDbText
 73
     3
  0
TEXT
  5
124
100
AcDbEntity
  8
1
  6
CONTINUOUS
 62
     7
100
AcDbText
 10
1124.315833
 20
2706.242167
 30
0.0
 40
1.17495
  1
PROJECT NUMBER
 41
0.981106
  7
TXT
 72
     1
 11
1132.099167
 21
2707.417083
 31
0.0
210
0.0
220
0.0
230
1.0
100
AcDbText
 73
     3
  0
TEXT
  5
125
100
AcDbEntity
  8
1
  6
CONTINUOUS
 62
     7
100
AcDbText
 10
1149.140833
 20
2706.004667
 30
0.0
 40
1.187399
  1
COUNTY
 41
0.968924
  7
TXT
 72
     1
 11
1152.334167
 21
2707.192083
 31
0.0
210
0.0
220
0.0
230
1.0
100
AcDbText
 73
     3
  0
TEXT
  5
126
100
AcDbEntity
  8
1
  6
CONTINUOUS
 62
     7
100
AcDbText
 10
1163.278333
 20
2707.779667
 30
0.0
 40
1.1625
  1
SHEET
 41
1.000581
  7
TXT
 72
     1
 11
1165.934333
 21
2708.942167
 31
0.0
210
0.0
220
0.0
230
1.0
100
AcDbText
 73
     3
  0
TEXT
  5
127
100
AcDbEntity
  8
1
  6
CONTINUOUS
 62
     7
100
AcDbText
 10
1164.590833
 20
2705.204667
 30
0.0
 40
1.0998
  1
NO.
 41
1.061511
  7
TXT
 72
     1
 11
1165.822583
 21
2706.3045
 31
0.0
210
0.0
220
0.0
230
1.0
100
AcDbText
 73
     3
  0
TEXT
  5
128
100
AcDbEntity
  8
1
  6
CONTINUOUS
 62
     7
100
AcDbText
 10
1170.315833
 20
2707.779667
 30
0.0
 40
1.1625
  1
TOTAL
 41
1.000323
  7
TXT
 72
     1
 11
1172.985
 21
2708.942167
 31
0.0
210
0.0
220
0.0
230
1.0
100
AcDbText
 73
     3
  0
TEXT
  5
129
100
AcDbEntity
  8
1
  6
CONTINUOUS
 62
     7
100
AcDbText
 10
1170.753333
 20
2705.292167
 30
0.0
 40
1.08735
  1
SHTS
 41
1.065733
  7
TXT
 72
     1
 11
1172.838333
 21
2706.3795
 31
0.0
210
0.0
220
0.0
230
1.0
100
AcDbText
 73
     3
  0
POINT
  5
12A
100
AcDbEntity
  8
1
  6
CONTINUOUS
 62
     1
100
AcDbPoint
 10
1177.278333
 20
2447.317167
 30
0.0
  0
LINE
  5
12B
100
AcDbEntity
  8
1
  6
CONTINUOUS
 62
     1
100
AcDbLine
 10
1094.140833
 20
2447.317167
 30
0.0
 11
1094.140833
 21
2493.467167
 31
0.0
  0
LINE
  5
12C
100
AcDbEntity
  8
1
  6
CONTINUOUS
 62
     1
100
AcDbLine
 10
1094.140833
 20
2493.467167
 30
0.0
 11
1177.278333
 21
2493.467167
 31
0.0
  0
LINE
  5
12D
100
AcDbEntity
  8
1
  6
CONTINUOUS
 62
     1
100
AcDbLine
 10
1094.140833
 20
2484.242167
 30
0.0
 11
1177.278333
 21
2484.242167
 31
0.0
  0
LINE
  5
12E
100
AcDbEntity
  8
1
  6
CONTINUOUS
 62
     1
100
AcDbLine
 10
1094.140833
 20
2458.079667
 30
0.0
 11
1155.653333
 21
2458.079667
 31
0.0
  0
LINE
  5
12F
100
AcDbEntity
  8
1
  6
CONTINUOUS
 62
     1
100
AcDbLine
 10
1155.653333
 20
2484.242167
 30
0.0
 11
1155.653333
 21
2447.317167
 31
0.0
  0
LINE
  5
130
100
AcDbEntity
  8
1
  6
CONTINUOUS
 62
     1
100
AcDbLine
 10
1155.653333
 20
2480.429667
 30
0.0
 11
1177.278333
 21
2480.429667
 31
0.0
  0
LINE
  5
131
100
AcDbEntity
  8
1
  6
CONTINUOUS
 62
     1
100
AcDbLine
 10
1155.653333
 20
2476.542167
 30
0.0
 11
1177.278333
 21
2476.542167
 31
0.0
  0
LINE
  5
132
100
AcDbEntity
  8
1
  6
CONTINUOUS
 62
     1
100
AcDbLine
 10
1155.653333
 20
2472.667167
 30
0.0
 11
1177.278333
 21
2472.667167
 31
0.0
  0
LINE
  5
133
100
AcDbEntity
  8
1
  6
CONTINUOUS
 62
     1
100
AcDbLine
 10
1155.653333
 20
2468.842167
 30
0.0
 11
1177.278333
 21
2468.842167
 31
0.0
  0
LINE
  5
134
100
AcDbEntity
  8
1
  6
CONTINUOUS
 62
     1
100
AcDbLine
 10
1155.653333
 20
2464.979667
 30
0.0
 11
1177.278333
 21
2464.979667
 31
0.0
  0
LINE
  5
135
100
AcDbEntity
  8
1
  6
CONTINUOUS
 62
     1
100
AcDbLine
 10
1155.653333
 20
2461.167167
 30
0.0
 11
1177.278333
 21
2461.167167
 31
0.0
  0
LINE
  5
136
100
AcDbEntity
  8
1
  6
CONTINUOUS
 62
     1
100
AcDbLine
 10
1155.653333
 20
2457.267167
 30
0.0
 11
1177.278333
 21
2457.267167
 31
0.0
  0
LINE
  5
137
100
AcDbEntity
  8
1
  6
CONTINUOUS
 62
     1
100
AcDbLine
 10
1032.540833
 20
2447.317167
 30
0.0
 11
1032.540833
 21
2478.079667
 31
0.0
  0
LINE
  5
138
100
AcDbEntity
  8
1
  6
CONTINUOUS
 62
     1
100
AcDbLine
 10
1032.540833
 20
2478.079667
 30
0.0
 11
1094.140833
 21
2478.079667
 31
0.0
  0
LINE
  5
139
100
AcDbEntity
  8
1
  6
CONTINUOUS
 62
     1
100
AcDbLine
 10
1032.540833
 20
2471.117167
 30
0.0
 11
1094.140833
 21
2471.117167
 31
0.0
  0
LINE
  5
13A
100
AcDbEntity
  8
1
  6
CONTINUOUS
 62
     1
100
AcDbLine
 10
1078.753333
 20
2471.117167
 30
0.0
 11
1078.753333
 21
2447.317167
 31
0.0
  0
LINE
  5
13B
100
AcDbEntity
  8
1
  6
CONTINUOUS
 62
     1
100
AcDbLine
 10
1078.753333
 20
2450.392167
 30
0.0
 11
1094.140833
 21
2450.392167
 31
0.0
  0
LINE
  5
13C
100
AcDbEntity
  8
1
  6
CONTINUOUS
 62
     1
100
AcDbLine
 10
1078.753333
 20
2453.479667
 30
0.0
 11
1094.140833
 21
2453.479667
 31
0.0
  0
LINE
  5
13D
100
AcDbEntity
  8
1
  6
CONTINUOUS
 62
     1
100
AcDbLine
 10
1078.753333
 20
2456.542167
 30
0.0
 11
1094.140833
 21
2456.542167
 31
0.0
  0
LINE
  5
13E
100
AcDbEntity
  8
1
  6
CONTINUOUS
 62
     1
100
AcDbLine
 10
1078.753333
 20
2459.617167
 30
0.0
 11
1094.140833
 21
2459.617167
 31
0.0
  0
LINE
  5
13F
100
AcDbEntity
  8
1
  6
CONTINUOUS
 62
     1
100
AcDbLine
 10
1078.753333
 20
2462.704667
 30
0.0
 11
1094.140833
 21
2462.704667
 31
0.0
  0
LINE
  5
140
100
AcDbEntity
  8
1
  6
CONTINUOUS
 62
     1
100
AcDbLine
 10
1078.753333
 20
2465.792167
 30
0.0
 11
1094.140833
 21
2465.792167
 31
0.0
  0
LINE
  5
141
100
AcDbEntity
  8
1
  6
CONTINUOUS
 62
     1
100
AcDbLine
 10
1086.440833
 20
2465.854667
 30
0.0
 11
1086.440833
 21
2447.317167
 31
0.0
  0
TEXT
  5
142
100
AcDbEntity
  8
1
  6
CONTINUOUS
 62
     7
100
AcDbText
 10
1156.690833
 20
2483.142167
 30
0.0
 40
0.800099
  1
DESIGNED BY:
 41
0.965786
  7
TXT
 11
1156.690833
 21
2483.94225
 31
0.0
210
0.0
220
0.0
230
1.0
100
AcDbText
 73
     3
  0
LINE
  5
143
100
AcDbEntity
  8
1
  6
CONTINUOUS
 62
     7
100
AcDbLine
 10
1156.540833
 20
2485.342167
 30
0.0
 11
1156.540833
 21
2485.417167
 31
0.0
  0
TEXT
  5
144
100
AcDbEntity
  8
1
  6
CONTINUOUS
 62
     7
100
AcDbText
 10
1156.615833
 20
2479.329667
 30
0.0
 40
0.737474
  1
DRAWN BY:
 41
1.043425
  7
TXT
 11
1156.615833
 21
2480.067167
 31
0.0
210
0.0
220
0.0
230
1.0
100
AcDbText
 73
     3
  0
TEXT
  5
145
100
AcDbEntity
  8
1
  6
CONTINUOUS
 62
     7
100
AcDbText
 10
1156.690833
 20
2475.367167
 30
0.0
 40
0.812624
  1
CHECKED BY:
 41
0.945824
  7
TXT
 11
1156.690833
 21
2476.17975
 31
0.0
210
0.0
220
0.0
230
1.0
100
AcDbText
 73
     3
  0
TEXT
  5
146
100
AcDbEntity
  8
1
  6
CONTINUOUS
 62
     7
100
AcDbText
 10
1156.690833
 20
2471.417167
 30
0.0
 40
0.72495
  1
REVIEWED BY:
 41
1.065487
  7
TXT
 11
1156.690833
 21
2472.142083
 31
0.0
210
0.0
220
0.0
230
1.0
100
AcDbText
 73
     3
  0
TEXT
  5
147
100
AcDbEntity
  8
1
  6
CONTINUOUS
 62
     7
100
AcDbText
 10
1156.615833
 20
2467.617167
 30
0.0
 40
0.800099
  1
DATE:
 41
0.958005
  7
TXT
 11
1156.615833
 21
2468.41725
 31
0.0
210
0.0
220
0.0
230
1.0
100
AcDbText
 73
     3
  0
TEXT
  5
148
100
AcDbEntity
  8
1
  6
CONTINUOUS
 62
     7
100
AcDbText
 10
1156.540833
 20
2463.717167
 30
0.0
 40
0.737474
  1
SCALE:
 41
1.052171
  7
TXT
 11
1156.540833
 21
2464.454667
 31
0.0
210
0.0
220
0.0
230
1.0
100
AcDbText
 73
     3
  0
TEXT
  5
149
100
AcDbEntity
  8
1
  6
CONTINUOUS
 62
     7
100
AcDbText
 10
1156.540833
 20
2459.929667
 30
0.0
 40
0.800099
  1
SHEET NO.:
 41
0.958568
  7
TXT
 11
1156.540833
 21
2460.72975
 31
0.0
210
0.0
220
0.0
230
1.0
100
AcDbText
 73
     3
  0
TEXT
  5
14A
100
AcDbEntity
  8
1
  6
CONTINUOUS
 62
     7
100
AcDbText
 10
1164.315833
 20
2457.504667
 30
0.0
 40
0.812624
  1
OF
 41
0.958468
  7
TXT
 11
1164.315833
 21
2458.31725
 31
0.0
210
0.0
220
0.0
230
1.0
100
AcDbText
 73
     3
  0
TEXT
  5
14B
100
AcDbEntity
  8
1
  6
CONTINUOUS
 62
     7
100
AcDbText
 10
1158.153333
 20
2454.779667
 30
0.0
 40
1.262099
  1
BRIDGE NUMBER
 41
1.038745
  7
TXT
 72
     1
 11
1166.127667
 21
2456.04175
 31
0.0
210
0.0
220
0.0
230
1.0
100
AcDbText
 73
     3
  0
TEXT
  5
14C
100
AcDbEntity
  8
1
  6
CONTINUOUS
 62
     7
100
AcDbText
 10
1050.990833
 20
2473.029667
 30
0.0
 40
0.72495
  1
DIRECTOR, STRUCTURES DIVISION
 41
1.061246
  7
TXT
 11
1050.990833
 21
2473.754583
 31
0.0
210
0.0
220
0.0
230
1.0
100
AcDbText
 73
     3
  0
TEXT
  5
14D
100
AcDbEntity
  8
1
  6
CONTINUOUS
 62
     7
100
AcDbText
 10
1079.040833
 20
2469.967167
 30
0.0
 40
0.712425
  1
PREPARED:
 41
1.081482
  7
TXT
 11
1079.040833
 21
2470.679583
 31
0.0
210
0.0
220
0.0
230
1.0
100
AcDbText
 73
     3
  0
TEXT
  5
14E
100
AcDbEntity
  8
1
  6
CONTINUOUS
 62
     7
100
AcDbText
 10
1079.190833
 20
2464.742167
 30
0.0
 40
0.800099
  1
REVISED:
 41
0.957068
  7
TXT
 11
1079.190833
 21
2465.54225
 31
0.0
210
0.0
220
0.0
230
1.0
100
AcDbText
 73
     3
  0
TEXT
  5
150
100
AcDbEntity
  8
2
  6
CONTINUOUS
 62
     2
100
AcDbText
 10
1034.828333
 20
2467.154667
 30
0.0
 40
1.562249
  1
WEST VIRGINIA DEPARTMENT OF TRANSPORTATION
 41
0.743975
  7
TXT
 72
     1
 11
1055.392333
 21
2467.154667
 31
0.0
210
0.0
220
0.0
230
1.0
100
AcDbText
  0
TEXT
  5
151
100
AcDbEntity
  8
2
  6
CONTINUOUS
 62
     2
100
AcDbText
 10
1040.690833
 20
2464.192167
 30
0.0
 40
1.562249
  1
DIVISION OF HIGHWAYS-STRUCTURES
 41
0.743975
  7
TXT
 72
     4
 11
1055.731167
 21
2464.973333
 31
0.0
210
0.0
220
0.0
230
1.0
100
AcDbText
  0
TEXT
  5
152
100
AcDbEntity
  8
1
  6
CONTINUOUS
 62
     4
100
AcDbText
 10
1097.828333
 20
2489.604667
 30
0.0
 40
2.337225
  1
THE WEST VIRGINIA DEPARTMENT OF TRANSPORTATION
 41
0.834226
  7
TXT
 72
     1
 11
1135.038
 21
2491.941917
 31
0.0
210
0.0
220
0.0
230
1.0
100
AcDbText
 73
     3
  0
TEXT
  5
153
100
AcDbEntity
  8
1
  6
CONTINUOUS
 62
     2
100
AcDbText
 10
1115.503333
 20
2485.992167
 30
0.0
 40
1.562249
  1
DIVISION OF HIGHWAYS-STRUCTURES 
  7
TXT
 72
     1
 11
1136.211417
 21
2485.992167
 31
0.0
210
0.0
220
0.0
230
1.0
100
AcDbText
  0
POINT
  5
154
100
AcDbEntity
  8
CONSTRUCTION_CLASS
  6
CONTINUOUS
 62
     2
100
AcDbPoint
 10
1183.565833
 20
2441.054667
 30
0.0
  0
LINE
  5
155
100
AcDbEntity
  8
61
  6
CONTINUOUS
 62
     1
100
AcDbLine
 10
1177.278333
 20
2709.817167
 30
0.0
 11
1177.278333
 21
2447.317167
 31
0.0
  0
POINT
  5
156
100
AcDbEntity
  8
CONSTRUCTION_CLASS
  6
CONTINUOUS
 62
     2
100
AcDbPoint
 10
758.528333
 20
2716.054667
 30
0.0
  0
LINE
  5
157
100
AcDbEntity
  8
61
  6
CONTINUOUS
 62
     1
100
AcDbLine
 10
788.528333
 20
2709.817167
 30
0.0
 11
788.528333
 21
2447.317167
 31
0.0
  0
LINE
  5
158
100
AcDbEntity
  8
61
  6
CONTINUOUS
 62
     1
100
AcDbLine
 10
758.528333
 20
2716.054667
 30
0.0
 11
1183.565833
 21
2716.054667
 31
0.0
  0
LINE
  5
159
100
AcDbEntity
  8
61
  6
CONTINUOUS
 62
     1
100
AcDbLine
 10
1183.565833
 20
2441.054667
 30
0.0
 11
758.528333
 21
2441.054667
 31
0.0
  0
TEXT
  5
15B
100
AcDbEntity
  8
14
  6
CONTINUOUS
 62
   100
100
AcDbText
 10
1117.340833
 20
2700.017167
 30
0.0
 40
1.124849
  1
  
  7
ROMANS
 72
     1
 11
1118.456833
 21
2700.017167
 31
0.0
210
0.0
220
0.0
230
1.0
100
AcDbText
  0
TEXT
  5
15C
100
AcDbEntity
  8
14
  6
CONTINUOUS
 62
   100
100
AcDbText
 10
1123.928333
 20
2699.842167
 30
0.0
 40
1.124849
  1
                
  7
ROMANS
 72
     1
 11
1132.856333
 21
2699.842167
 31
0.0
210
0.0
220
0.0
230
1.0
100
AcDbText
  0
TEXT
  5
15D
100
AcDbEntity
  8
14
  6
CONTINUOUS
 62
   100
100
AcDbText
 10
1144.065833
 20
2699.929667
 30
0.0
 40
1.124849
  1
                
  7
ROMANS
 72
     1
 11
1152.993833
 21
2699.929667
 31
0.0
210
0.0
220
0.0
230
1.0
100
AcDbText
  0
TEXT
  5
15E
100
AcDbEntity
  8
14
  6
CONTINUOUS
 62
   100
100
AcDbText
 10
1165.678333
 20
2699.842167
 30
0.0
 40
1.124849
  1
  
  7
ROMANS
 72
     1
 11
1166.794333
 21
2699.842167
 31
0.0
210
0.0
220
0.0
230
1.0
100
AcDbText
  0
TEXT
  5
15F
100
AcDbEntity
  8
14
  6
CONTINUOUS
 62
   100
100
AcDbText
 10
1172.528333
 20
2699.842167
 30
0.0
 40
1.124849
  1
  
  7
ROMANS
 72
     1
 11
1173.644333
 21
2699.842167
 31
0.0
210
0.0
220
0.0
230
1.0
100
AcDbText
  0
TEXT
  5
160
100
AcDbEntity
  8
14
  6
CONTINUOUS
 62
   100
100
AcDbText
 10
1166.478333
 20
2473.404667
 30
0.0
 40
1.124849
  1
       
  7
ROMANS
 72
     1
 11
1170.384333
 21
2473.404667
 31
0.0
210
0.0
220
0.0
230
1.0
100
AcDbText
  0
TEXT
  5
161
100
AcDbEntity
  8
14
  6
CONTINUOUS
 62
   100
100
AcDbText
 10
1166.565833
 20
2469.529667
 30
0.0
 40
1.124849
  1
       
  7
ROMANS
 72
     1
 11
1170.471833
 21
2469.529667
 31
0.0
210
0.0
220
0.0
230
1.0
100
AcDbText
  0
TEXT
  5
162
100
AcDbEntity
  8
14
  6
CONTINUOUS
 62
   100
100
AcDbText
 10
1166.453333
 20
2465.479667
 30
0.0
 40
1.124849
  1
        
  7
ROMANS
 72
     1
 11
1170.917333
 21
2465.479667
 31
0.0
210
0.0
220
0.0
230
1.0
100
AcDbText
  0
TEXT
  5
163
100
AcDbEntity
  8
14
  6
CONTINUOUS
 62
   100
100
AcDbText
 10
1166.728333
 20
2461.779667
 30
0.0
 40
1.124849
  1
  NONE  
  7
ROMANS
 72
     1
 11
1171.192333
 21
2461.779667
 31
0.0
210
0.0
220
0.0
230
1.0
100
AcDbText
  0
TEXT
  5
164
100
AcDbEntity
  8
14
  6
CONTINUOUS
 62
   100
100
AcDbText
 10
1159.853333
 20
2457.729667
 30
0.0
 40
1.124849
  1
  
  7
ROMANS
 72
     1
 11
1160.969333
 21
2457.729667
 31
0.0
210
0.0
220
0.0
230
1.0
100
AcDbText
  0
TEXT
  5
165
100
AcDbEntity
  8
14
  6
CONTINUOUS
 62
   100
100
AcDbText
 10
1168.040833
 20
2457.729667
 30
0.0
 40
1.124849
  1
  
  7
ROMANS
 72
     1
 11
1169.156833
 21
2457.729667
 31
0.0
210
0.0
220
0.0
230
1.0
100
AcDbText
  0
TEXT
  5
166
100
AcDbEntity
  8
14
  6
CONTINUOUS
 62
   100
100
AcDbText
 10
1159.740833
 20
2449.704667
 30
0.0
 40
1.562324
  1
          
  7
ROMANS
 72
     1
 11
1167.491
 21
2449.704667
 31
0.0
210
0.0
220
0.0
230
1.0
100
AcDbText
  0
TEXT
  5
167
100
AcDbEntity
  8
14
  6
CONTINUOUS
 62
   100
100
AcDbText
 10
1094.240833
 20
2480.979667
 30
0.0
 40
3.124874
  1
                    
  7
TXT
 72
     1
 11
1124.96875
 21
2480.979667
 31
0.0
210
0.0
220
0.0
230
1.0
100
AcDbText
  0
TEXT
  5
168
100
AcDbEntity
  8
14
  6
CONTINUOUS
 62
   100
100
AcDbText
 10
1094.415833
 20
2473.654667
 30
0.0
 40
3.124874
  1
                    
  7
TXT
 72
     1
 11
1125.14375
 21
2473.654667
 31
0.0
210
0.0
220
0.0
230
1.0
100
AcDbText
  0
TEXT
  5
169
100
AcDbEntity
  8
14
  6
CONTINUOUS
 62
   100
100
AcDbText
 10
1093.103333
 20
2466.192167
 30
0.0
 40
3.124874
  1
                    
  7
TXT
 72
     1
 11
1123.83125
 21
2466.192167
 31
0.0
210
0.0
220
0.0
230
1.0
100
AcDbText
  0
TEXT
  5
16A
100
AcDbEntity
  8
14
  6
CONTINUOUS
 62
   100
100
AcDbText
 10
1091.428333
 20
2459.142167
 30
0.0
 40
3.124874
  1
                    
  7
TXT
 72
     1
 11
1122.15625
 21
2459.142167
 31
0.0
210
0.0
220
0.0
230
1.0
100
AcDbText
  0
TEXT
  5
16B
100
AcDbEntity
  8
14
  6
CONTINUOUS
 62
   100
100
AcDbText
 10
1124.215833
 20
2477.892167
 30
0.0
 40
1.562324
  1
    
  7
TXT
 72
     1
 11
1127.080083
 21
2477.892167
 31
0.0
210
0.0
220
0.0
230
1.0
100
AcDbText
  0
TEXT
  5
16C
100
AcDbEntity
  8
14
  6
CONTINUOUS
 62
   100
100
AcDbText
 10
1126.040833
 20
2470.592167
 30
0.0
 40
1.562324
  1
  
  7
TXT
 72
     1
 11
1127.34275
 21
2470.592167
 31
0.0
210
0.0
220
0.0
230
1.0
100
AcDbText
  0
TEXT
  5
16D
100
AcDbEntity
  8
14
  6
CONTINUOUS
 62
   100
100
AcDbText
 10
1126.403333
 20
2463.267167
 30
0.0
 40
1.562324
  1
  
  7
TXT
 72
     1
 11
1127.70525
 21
2463.267167
 31
0.0
210
0.0
220
0.0
230
1.0
100
AcDbText
  0
TEXT
  5
16E
100
AcDbEntity
  8
14
  6
CONTINUOUS
 62
   100
100
AcDbText
 10
1035.090833
 20
2453.342167
 30
0.0
 40
1.362375
  1
                             
  7
TXT
 72
     1
 11
1054.618167
 21
2453.342167
 31
0.0
210
0.0
220
0.0
230
1.0
100
AcDbText
  0
TEXT
  5
16F
100
AcDbEntity
  8
14
  6
CONTINUOUS
 62
   100
100
AcDbText
 10
1079.353333
 20
2460.042167
 30
0.0
 40
1.3623
  1
     
  7
TXT
 72
     1
 11
1082.532
 21
2460.042167
 31
0.0
210
0.0
220
0.0
230
1.0
100
AcDbText
  0
TEXT
  5
170
100
AcDbEntity
  8
14
  6
CONTINUOUS
 62
   100
100
AcDbText
 10
1079.353333
 20
2456.954667
 30
0.0
 40
1.3623
  1
     
  7
TXT
 72
     1
 11
1082.532
 21
2456.954667
 31
0.0
210
0.0
220
0.0
230
1.0
100
AcDbText
  0
TEXT
  5
171
100
AcDbEntity
  8
14
  6
CONTINUOUS
 62
   100
100
AcDbText
 10
1079.353333
 20
2453.954667
 30
0.0
 40
1.3623
  1
     
  7
TXT
 72
     1
 11
1082.532
 21
2453.954667
 31
0.0
210
0.0
220
0.0
230
1.0
100
AcDbText
  0
TEXT
  5
172
100
AcDbEntity
  8
14
  6
CONTINUOUS
 62
   100
100
AcDbText
 10
1079.353333
 20
2450.879667
 30
0.0
 40
1.3623
  1
     
  7
TXT
 72
     1
 11
1082.532
 21
2450.879667
 31
0.0
210
0.0
220
0.0
230
1.0
100
AcDbText
  0
TEXT
  5
173
100
AcDbEntity
  8
14
  6
CONTINUOUS
 62
   100
100
AcDbText
 10
1079.353333
 20
2448.317167
 30
0.0
 40
1.3623
  1
     
  7
TXT
 72
     1
 11
1082.532
 21
2448.317167
 31
0.0
210
0.0
220
0.0
230
1.0
100
AcDbText
  0
TEXT
  5
174
100
AcDbEntity
  8
14
  6
CONTINUOUS
 62
   100
100
AcDbText
 10
1087.040833
 20
2463.029667
 30
0.0
 40
1.3623
  1
     
  7
TXT
 72
     1
 11
1090.2195
 21
2463.029667
 31
0.0
210
0.0
220
0.0
230
1.0
100
AcDbText
  0
TEXT
  5
175
100
AcDbEntity
  8
14
  6
CONTINUOUS
 62
   100
100
AcDbText
 10
1087.040833
 20
2460.042167
 30
0.0
 40
1.3623
  1
     
  7
TXT
 72
     1
 11
1090.2195
 21
2460.042167
 31
0.0
210
0.0
220
0.0
230
1.0
100
AcDbText
  0
TEXT
  5
176
100
AcDbEntity
  8
14
  6
CONTINUOUS
 62
   100
100
AcDbText
 10
1087.040833
 20
2456.954667
 30
0.0
 40
1.3623
  1
     
  7
TXT
 72
     1
 11
1090.2195
 21
2456.954667
 31
0.0
210
0.0
220
0.0
230
1.0
100
AcDbText
  0
TEXT
  5
177
100
AcDbEntity
  8
14
  6
CONTINUOUS
 62
   100
100
AcDbText
 10
1087.040833
 20
2453.954667
 30
0.0
 40
1.3623
  1
     
  7
TXT
 72
     1
 11
1090.2195
 21
2453.954667
 31
0.0
210
0.0
220
0.0
230
1.0
100
AcDbText
  0
TEXT
  5
178
100
AcDbEntity
  8
14
  6
CONTINUOUS
 62
   100
100
AcDbText
 10
1087.040833
 20
2450.879667
 30
0.0
 40
1.3623
  1
     
  7
TXT
 72
     1
 11
1090.2195
 21
2450.879667
 31
0.0
210
0.0
220
0.0
230
1.0
100
AcDbText
  0
TEXT
  5
179
100
AcDbEntity
  8
14
  6
CONTINUOUS
 62
   100
100
AcDbText
 10
1087.040833
 20
2448.317167
 30
0.0
 40
1.3623
  1
     
  7
TXT
 72
     1
 11
1090.2195
 21
2448.317167
 31
0.0
210
0.0
220
0.0
230
1.0
100
AcDbText
  0
TEXT
  5
17A
100
AcDbEntity
  8
14
  6
CONTINUOUS
 62
   100
100
AcDbText
 10
1038.906917
 20
2450.154667
 30
0.0
 40
1.562334
  1
  STANDARD SHEET BR-S12B  
  7
TXT
 72
     1
 11
1056.059667
 21
2450.154667
 31
0.0
210
0.0
220
0.0
230
1.0
100
AcDbText
  0
LINE
  5
17B
100
AcDbEntity
  8
61
  6
CONTINUOUS
 62
     1
100
AcDbLine
 10
1177.278333
 20
2709.817167
 30
0.0
 11
788.528333
 21
2709.817167
 31
0.0
  0
LINE
  5
17C
100
AcDbEntity
  8
61
  6
CONTINUOUS
 62
     1
100
AcDbLine
 10
1177.278333
 20
2447.317167
 30
0.0
 11
788.528333
 21
2447.317167
 31
0.0
  0
TEXT
  5
17D
100
AcDbEntity
  8
1
  6
CONTINUOUS
 62
   100
100
AcDbText
 10
786.615833
 20
2450.054667
 30
0.0
 40
1.138875
  1
$$$$$$$$$FILENAME$$$$$$$$
 50
90.0
  7
TXT
210
0.0
220
0.0
230
1.0
100
AcDbText
  0
TEXT
  5
17E
100
AcDbEntity
  8
1
  6
CONTINUOUS
 62
   100
100
AcDbText
 10
786.615833
 20
2472.379667
 30
0.0
 40
1.138875
  1
$USERNAME$
 50
90.0
  7
TXT
210
0.0
220
0.0
230
1.0
100
AcDbText
  0
TEXT
  5
17F
100
AcDbEntity
  8
1
  6
CONTINUOUS
 62
   100
100
AcDbText
 10
786.590833
 20
2483.354667
 30
0.0
 40
0.94905
  1
DD-MMM-YYYY HH:MM
 50
90.0
  7
TXT
210
0.0
220
0.0
230
1.0
100
AcDbText
  0
LINE
  5
180
100
AcDbEntity
  8
7
  6
DOT
 62
     2
100
AcDbLine
 10
1040.265833
 20
2474.154667
 30
0.0
 11
1076.378333
 21
2474.154667
 31
0.0
  0
LINE
  5
181
100
AcDbEntity
  8
7
  6
DOT
 62
     2
100
AcDbLine
 10
1080.865833
 20
2474.154667
 30
0.0
 11
1093.090833
 21
2474.154667
 31
0.0
  0
TEXT
  5
182
100
AcDbEntity
  8
14
  6
CONTINUOUS
 62
   100
100
AcDbText
 10
1083.565167
 20
2466.904667
 30
0.0
 40
1.3623
  1
9-96  
  7
TXT
 72
     1
 11
1086.313167
 21
2466.904667
 31
0.0
210
0.0
220
0.0
230
1.0
100
AcDbText
  0
TEXT
  5
183
100
AcDbEntity
  8
14
  6
CONTINUOUS
 62
   100
100
AcDbText
 10
1079.353333
 20
2463.029667
 30
0.0
 40
1.3623
  1
     
  7
TXT
 72
     1
 11
1082.532
 21
2463.029667
 31
0.0
210
0.0
220
0.0
230
1.0
100
AcDbText
  0
TEXT
  5
184
100
AcDbEntity
  8
7
  6
CONTINUOUS
 62
     7
100
AcDbText
 10
820.300583
 20
2598.212083
 30
0.0
 40
1.362524
  1
TOTAL NUMBER OF DEBONDED STRANDS
  7
ROMANS
210
0.0
220
0.0
230
1.0
100
AcDbText
  0
TEXT
  5
185
100
AcDbEntity
  8
7
  6
CONTINUOUS
 62
     7
100
AcDbText
 10
820.300583
 20
2524.262083
 30
0.0
 40
1.362524
  1
NUMBER AND SPACING
  7
ROMANS
210
0.0
220
0.0
230
1.0
100
AcDbText
  0
TEXT
  5
186
100
AcDbEntity
  8
7
  6
CONTINUOUS
 62
     7
100
AcDbText
 10
820.300583
 20
2521.249583
 30
0.0
 40
1.362524
  1
OF GUARDRAIL INSERTS
  7
ROMANS
210
0.0
220
0.0
230
1.0
100
AcDbText
  0
TEXT
  5
187
100
AcDbEntity
  8
7
  6
CONTINUOUS
 62
     7
100
AcDbText
 10
853.350583
 20
2532.124583
 30
0.0
 40
1.362524
  1
NO. OF INSERTS
  7
ROMANS
210
0.0
220
0.0
230
1.0
100
AcDbText
  0
TEXT
  5
188
100
AcDbEntity
  8
7
  6
CONTINUOUS
 62
     7
100
AcDbText
 10
853.350583
 20
2527.699583
 30
0.0
 40
1.362524
  1
END OF BEAM TO
  7
ROMANS
210
0.0
220
0.0
230
1.0
100
AcDbText
  0
TEXT
  5
189
100
AcDbEntity
  8
7
  6
CONTINUOUS
 62
     7
100
AcDbText
 10
853.350583
 20
2525.449583
 30
0.0
 40
1.362524
  1
> OF FIRST INSERT
  7
ROMANS
210
0.0
220
0.0
230
1.0
100
AcDbText
  0
LINE
  5
18A
100
AcDbEntity
  8
7
  6
CONTINUOUS
 62
   100
100
AcDbLine
 10
816.638083
 20
2510.787083
 30
0.0
 11
849.675583
 21
2510.787083
 31
0.0
  0
LINE
  5
18B
100
AcDbEntity
  8
7
  6
CONTINUOUS
 62
   100
100
AcDbLine
 10
816.638083
 20
2510.787083
 30
0.0
 11
860.688083
 21
2510.787083
 31
0.0
  0
LWPOLYLINE
  5
18C
100
AcDbEntity
  8
7
  6
CONTINUOUS
 62
     7
100
AcDbPolyline
 90
        4
 70
     1
 10
934.125583
 20
2510.787083
 10
934.125583
 20
2510.787083
 10
879.050583
 20
2510.787083
 10
879.050583
 20
2510.787083
  0
LWPOLYLINE
  5
18D
100
AcDbEntity
  8
7
  6
CONTINUOUS
 62
     7
100
AcDbPolyline
 90
        4
 70
     1
 10
934.125583
 20
2510.787083
 10
934.125583
 20
2510.787083
 10
879.050583
 20
2510.787083
 10
879.050583
 20
2510.787083
  0
CIRCLE
  5
18E
100
AcDbEntity
  8
7
  6
CONTINUOUS
 62
     7
100
AcDbCircle
 10
820.543673
 20
2659.595509
 30
0.0
 40
2.065223
210
0.0
220
0.0
230
1.0
  0
LINE
  5
18F
100
AcDbEntity
  8
7
  6
CONTINUOUS
 62
   100
100
AcDbLine
 10
816.638083
 20
2631.387083
 30
0.0
 11
816.638083
 21
2670.499583
 31
0.0
  0
LINE
  5
190
100
AcDbEntity
  8
7
  6
CONTINUOUS
 62
   100
100
AcDbLine
 10
816.638083
 20
2579.624583
 30
0.0
 11
816.638083
 21
2631.387083
 31
0.0
  0
TEXT
  5
191
100
AcDbEntity
  8
7
  6
CONTINUOUS
 62
     7
100
AcDbText
 10
820.300583
 20
2625.749583
 30
0.0
 40
1.362524
  1
PRESTRESSING FORCE AT DETENSION
  7
ROMANS
210
0.0
220
0.0
230
1.0
100
AcDbText
  0
TEXT
  5
192
100
AcDbEntity
  8
7
  6
CONTINUOUS
 62
     7
100
AcDbText
 10
820.300583
 20
2617.487083
 30
0.0
 40
1.362524
  1
FINAL PRESTRESSING FORCE
  7
ROMANS
210
0.0
220
0.0
230
1.0
100
AcDbText
  0
LINE
  5
193
100
AcDbEntity
  8
7
  6
CONTINUOUS
 62
   100
100
AcDbLine
 10
816.638083
 20
2562.587083
 30
0.0
 11
816.638083
 21
2581.362083
 31
0.0
  0
LINE
  5
194
100
AcDbEntity
  8
7
  6
CONTINUOUS
 62
   100
100
AcDbLine
 10
816.638083
 20
2510.787083
 30
0.0
 11
816.638083
 21
2537.512083
 31
0.0
  0
LINE
  5
195
100
AcDbEntity
  8
7
  6
CONTINUOUS
 62
   100
100
AcDbLine
 10
816.638083
 20
2537.512083
 30
0.0
 11
816.638083
 21
2562.587083
 31
0.0
  0
TEXT
  5
196
100
AcDbEntity
  8
7
  6
CONTINUOUS
 62
     7
100
AcDbText
 10
853.350583
 20
2518.749583
 30
0.0
 40
1.362524
  1
> OF FIRST INSERT
  7
ROMANS
210
0.0
220
0.0
230
1.0
100
AcDbText
  0
LINE
  5
197
100
AcDbEntity
  8
7
  6
CONTINUOUS
 62
   100
100
AcDbLine
 10
816.638083
 20
2670.499583
 30
0.0
 11
1144.625583
 21
2670.499583
 31
0.0
  0
TEXT
  5
198
100
AcDbEntity
  8
7
  6
CONTINUOUS
 62
     7
100
AcDbText
 10
832.875583
 20
2542.962083
 30
0.0
 40
1.362524
  1
FINAL, INCHES +=UPWARD (in)
  7
ROMANS
210
0.0
220
0.0
230
1.0
100
AcDbText
  0
TEXT
  5
199
100
AcDbEntity
  8
7
  6
CONTINUOUS
 62
     7
100
AcDbText
 10
820.475583
 20
2548.649583
 30
0.0
 40
1.362524
  1
CAMBER   ERECTION, INCHES +=UPWARD (in)
  7
ROMANS
210
0.0
220
0.0
230
1.0
100
AcDbText
  0
TEXT
  5
19A
100
AcDbEntity
  8
7
  6
CONTINUOUS
 62
     7
100
AcDbText
 10
832.800583
 20
2554.049583
 30
0.0
 40
1.362524
  1
DETENSION, INCHES +=UPWARD (in)
  7
ROMANS
210
0.0
220
0.0
230
1.0
100
AcDbText
  0
LINE
  5
19B
100
AcDbEntity
  8
7
  6
CONTINUOUS
 62
   100
100
AcDbLine
 10
831.788083
 20
2541.074583
 30
0.0
 11
831.788083
 21
2557.612083
 31
0.0
  0
TEXT
  5
19C
100
AcDbEntity
  8
7
  6
CONTINUOUS
 62
     7
100
AcDbText
 10
820.300583
 20
2536.487083
 30
0.0
 40
1.362524
  1
(TONS)
  7
ROMANS
210
0.0
220
0.0
230
1.0
100
AcDbText
  0
TEXT
  5
19D
100
AcDbEntity
  8
7
  6
CONTINUOUS
 62
     7
100
AcDbText
 10
820.300583
 20
2622.999583
 30
0.0
 40
1.362524
  1
(KIPS/BEAM)
  7
ROMANS
210
0.0
220
0.0
230
1.0
100
AcDbText
  0
TEXT
  5
19E
100
AcDbEntity
  8
7
  6
CONTINUOUS
 62
     7
100
AcDbText
 10
820.300583
 20
2614.737083
 30
0.0
 40
1.362524
  1
(KIPS/BEAM)
  7
ROMANS
210
0.0
220
0.0
230
1.0
100
AcDbText
  0
TEXT
  5
19F
100
AcDbEntity
  8
7
  6
CONTINUOUS
 62
     7
100
AcDbText
 10
820.300583
 20
2609.224583
 30
0.0
 40
1.362524
  1
ULTIMATE DESIGN MOMENT (FT-KIPS/BEAM)
  7
ROMANS
210
0.0
220
0.0
230
1.0
100
AcDbText
  0
TEXT
  5
1A0
100
AcDbEntity
  8
7
  6
CONTINUOUS
 62
     7
100
AcDbText
 10
820.300583
 20
2603.724583
 30
0.0
 40
1.362524
  1
ULTIMATE RESISTING MOMENT (FT-KIPS/BEAM)
  7
ROMANS
210
0.0
220
0.0
230
1.0
100
AcDbText
  0
TEXT
  5
1A1
100
AcDbEntity
  8
7
  6
CONTINUOUS
 62
     7
100
AcDbText
 10
820.300583
 20
2583.799583
 30
0.0
 40
1.362524
  1
AND LENGTH FROM EACH END
  7
ROMANS
210
0.0
220
0.0
230
1.0
100
AcDbText
  0
TEXT
  5
1A2
100
AcDbEntity
  8
7
  6
CONTINUOUS
 62
     7
100
AcDbText
 10
820.300583
 20
2566.812083
 30
0.0
 40
1.362524
  1
AND LENGTH FROM EACH END
  7
ROMANS
210
0.0
220
0.0
230
1.0
100
AcDbText
  0
TEXT
  5
1A3
100
AcDbEntity
  8
7
  6
CONTINUOUS
 62
     7
100
AcDbText
 10
853.350583
 20
2522.837083
 30
0.0
 40
1.362524
  1
EACH END
  7
ROMANS
210
0.0
220
0.0
230
1.0
100
AcDbText
  0
TEXT
  5
1A4
100
AcDbEntity
  8
7
  6
CONTINUOUS
 62
     7
100
AcDbText
 10
853.350583
 20
2512.787083
 30
0.0
 40
1.362524
  1
EACH END
  7
ROMANS
210
0.0
220
0.0
230
1.0
100
AcDbText
  0
POLYLINE
  5
1A6
100
AcDbEntity
  8
17
  6
CONTINUOUS
 62
   100
100
AcDb2dPolyline
 66
     1
 10
0.0
 20
0.0
 30
0.0
  0
VERTEX
  5
1A7
100
AcDbEntity
  8
17
  6
CONTINUOUS
 62
   100
100
AcDbVertex
100
AcDb2dVertex
 10
849.675583
 20
2510.787083
 30
0.0
  0
VERTEX
  5
1A8
100
AcDbEntity
  8
17
  6
CONTINUOUS
 62
   100
100
AcDbVertex
100
AcDb2dVertex
 10
849.675583
 20
2521.799583
 30
0.0
  0
VERTEX
  5
1A9
100
AcDbEntity
  8
17
  6
CONTINUOUS
 62
   100
100
AcDbVertex
100
AcDb2dVertex
 10
849.675583
 20
2530.062083
 30
0.0
  0
VERTEX
  5
1AA
100
AcDbEntity
  8
17
  6
CONTINUOUS
 62
   100
100
AcDbVertex
100
AcDb2dVertex
 10
849.675583
 20
2535.562083
 30
0.0
  0
SEQEND
  5
1AB
100
AcDbEntity
  8
17
  6
CONTINUOUS
 62
   100
  0
TEXT
  5
1AC
100
AcDbEntity
  8
7
  6
CONTINUOUS
 62
     7
100
AcDbText
 10
820.300583
 20
2636.762083
 30
0.0
 40
1.362524
  1
STRAND POSITION NUMBER
  7
ROMANS
210
0.0
220
0.0
230
1.0
100
AcDbText
  0
TEXT
  5
1AD
100
AcDbEntity
  8
7
  6
CONTINUOUS
 62
     7
100
AcDbText
 10
820.300583
 20
2590.712083
 30
0.0
 40
1.362524
  1
LAYER 1-DEBONDED STRAND POSITION NUMBER
  7
ROMANS
210
0.0
220
0.0
230
1.0
100
AcDbText
  0
TEXT
  5
1AE
100
AcDbEntity
  8
7
  6
CONTINUOUS
 62
     7
100
AcDbText
 10
820.300583
 20
2573.987083
 30
0.0
 40
1.362524
  1
LAYER 2-DEBONDED STRAND POSITION NUMBER
  7
ROMANS
210
0.0
220
0.0
230
1.0
100
AcDbText
  0
LINE
  5
1AF
100
AcDbEntity
  8
7
  6
CONTINUOUS
 62
   100
100
AcDbLine
 10
879.000583
 20
2510.787083
 30
0.0
 11
879.000583
 21
2662.237083
 31
0.0
  0
LINE
  5
1B0
100
AcDbEntity
  8
7
  6
CONTINUOUS
 62
   100
100
AcDbLine
 10
894.625583
 20
2510.787083
 30
0.0
 11
894.625583
 21
2662.237083
 31
0.0
  0
LINE
  5
1B1
100
AcDbEntity
  8
7
  6
CONTINUOUS
 62
   100
100
AcDbLine
 10
910.250583
 20
2510.787083
 30
0.0
 11
910.250583
 21
2662.237083
 31
0.0
  0
LINE
  5
1B2
100
AcDbEntity
  8
7
  6
CONTINUOUS
 62
   100
100
AcDbLine
 10
925.875583
 20
2510.787083
 30
0.0
 11
925.875583
 21
2662.237083
 31
0.0
  0
LINE
  5
1B3
100
AcDbEntity
  8
7
  6
CONTINUOUS
 62
   100
100
AcDbLine
 10
941.500583
 20
2510.787083
 30
0.0
 11
941.500583
 21
2662.237083
 31
0.0
  0
LINE
  5
1B4
100
AcDbEntity
  8
7
  6
CONTINUOUS
 62
   100
100
AcDbLine
 10
957.125583
 20
2510.787083
 30
0.0
 11
957.125583
 21
2662.237083
 31
0.0
  0
LINE
  5
1B5
100
AcDbEntity
  8
7
  6
CONTINUOUS
 62
   100
100
AcDbLine
 10
972.750583
 20
2510.787083
 30
0.0
 11
972.750583
 21
2662.237083
 31
0.0
  0
LINE
  5
1B6
100
AcDbEntity
  8
7
  6
CONTINUOUS
 62
   100
100
AcDbLine
 10
988.375583
 20
2510.787083
 30
0.0
 11
988.375583
 21
2662.237083
 31
0.0
  0
LINE
  5
1B7
100
AcDbEntity
  8
7
  6
CONTINUOUS
 62
   100
100
AcDbLine
 10
1004.000583
 20
2510.787083
 30
0.0
 11
1004.000583
 21
2662.237083
 31
0.0
  0
LINE
  5
1B8
100
AcDbEntity
  8
7
  6
CONTINUOUS
 62
   100
100
AcDbLine
 10
1019.625583
 20
2510.787083
 30
0.0
 11
1019.625583
 21
2662.237083
 31
0.0
  0
LINE
  5
1B9
100
AcDbEntity
  8
7
  6
CONTINUOUS
 62
   100
100
AcDbLine
 10
1035.250583
 20
2510.787083
 30
0.0
 11
1035.250583
 21
2662.237083
 31
0.0
  0
LINE
  5
1BA
100
AcDbEntity
  8
7
  6
CONTINUOUS
 62
   100
100
AcDbLine
 10
1050.875583
 20
2510.787083
 30
0.0
 11
1050.875583
 21
2662.237083
 31
0.0
  0
LINE
  5
1BB
100
AcDbEntity
  8
7
  6
CONTINUOUS
 62
   100
100
AcDbLine
 10
1066.500583
 20
2510.787083
 30
0.0
 11
1066.500583
 21
2662.237083
 31
0.0
  0
LINE
  5
1BC
100
AcDbEntity
  8
7
  6
CONTINUOUS
 62
   100
100
AcDbLine
 10
1082.125583
 20
2510.787083
 30
0.0
 11
1082.125583
 21
2662.237083
 31
0.0
  0
LINE
  5
1BD
100
AcDbEntity
  8
7
  6
CONTINUOUS
 62
   100
100
AcDbLine
 10
1144.625583
 20
2510.787083
 30
0.0
 11
1144.625583
 21
2670.499583
 31
0.0
  0
TEXT
  5
1BE
100
AcDbEntity
  8
7
  6
CONTINUOUS
 62
     7
100
AcDbText
 10
820.013083
 20
2658.849583
 30
0.0
 40
1.362524
  1
L  SPAN LENGTH > TO > BEARING
  7
ROMANS
210
0.0
220
0.0
230
1.0
100
AcDbText
  0
TEXT
  5
1BF
100
AcDbEntity
  8
7
  6
CONTINUOUS
 62
     7
100
AcDbText
 10
820.300583
 20
2653.287083
 30
0.0
 40
1.362524
  1
OVERALL LENGTH ALONG > ROADWAY
  7
ROMANS
210
0.0
220
0.0
230
1.0
100
AcDbText
  0
TEXT
  5
1C0
100
AcDbEntity
  8
7
  6
CONTINUOUS
 62
     7
100
AcDbText
 10
853.350583
 20
2515.599583
 30
0.0
 40
1.362524
  1
TO > SECOND INSERT
  7
ROMANS
210
0.0
220
0.0
230
1.0
100
AcDbText
  0
LINE
  5
1C1
100
AcDbEntity
  8
7
  6
CONTINUOUS
 62
   100
100
AcDbLine
 10
816.638083
 20
2662.237083
 30
0.0
 11
1144.625583
 21
2662.237083
 31
0.0
  0
LINE
  5
1C2
100
AcDbEntity
  8
7
  6
CONTINUOUS
 62
   100
100
AcDbLine
 10
816.638083
 20
2656.724583
 30
0.0
 11
1144.625583
 21
2656.724583
 31
0.0
  0
LINE
  5
1C3
100
AcDbEntity
  8
7
  6
CONTINUOUS
 62
   100
100
AcDbLine
 10
816.638083
 20
2651.224583
 30
0.0
 11
1144.625583
 21
2651.224583
 31
0.0
  0
LINE
  5
1C4
100
AcDbEntity
  8
7
  6
CONTINUOUS
 62
   100
100
AcDbLine
 10
816.638083
 20
2645.712083
 30
0.0
 11
1144.625583
 21
2645.712083
 31
0.0
  0
LINE
  5
1C5
100
AcDbEntity
  8
7
  6
CONTINUOUS
 62
   100
100
AcDbLine
 10
816.638083
 20
2629.187083
 30
0.0
 11
1144.625583
 21
2629.187083
 31
0.0
  0
LINE
  5
1C6
100
AcDbEntity
  8
7
  6
CONTINUOUS
 62
   100
100
AcDbLine
 10
816.638083
 20
2620.937083
 30
0.0
 11
1144.625583
 21
2620.937083
 31
0.0
  0
LINE
  5
1C7
100
AcDbEntity
  8
7
  6
CONTINUOUS
 62
   100
100
AcDbLine
 10
816.638083
 20
2612.674583
 30
0.0
 11
1144.625583
 21
2612.674583
 31
0.0
  0
LINE
  5
1C8
100
AcDbEntity
  8
7
  6
CONTINUOUS
 62
   100
100
AcDbLine
 10
816.638083
 20
2607.162083
 30
0.0
 11
1144.625583
 21
2607.162083
 31
0.0
  0
LINE
  5
1C9
100
AcDbEntity
  8
7
  6
CONTINUOUS
 62
   100
100
AcDbLine
 10
816.638083
 20
2601.649583
 30
0.0
 11
1144.625583
 21
2601.649583
 31
0.0
  0
LINE
  5
1CA
100
AcDbEntity
  8
7
  6
CONTINUOUS
 62
   100
100
AcDbLine
 10
816.638083
 20
2596.149583
 30
0.0
 11
1144.625583
 21
2596.149583
 31
0.0
  0
LINE
  5
1CB
100
AcDbEntity
  8
7
  6
CONTINUOUS
 62
   100
100
AcDbLine
 10
816.638083
 20
2579.624583
 30
0.0
 11
1144.625583
 21
2579.624583
 31
0.0
  0
LINE
  5
1CC
100
AcDbEntity
  8
7
  6
CONTINUOUS
 62
   100
100
AcDbLine
 10
816.638083
 20
2563.099583
 30
0.0
 11
1144.625583
 21
2563.099583
 31
0.0
  0
LINE
  5
1CD
100
AcDbEntity
  8
7
  6
CONTINUOUS
 62
   100
100
AcDbLine
 10
816.638083
 20
2557.599583
 30
0.0
 11
1144.625583
 21
2557.599583
 31
0.0
  0
LINE
  5
1CE
100
AcDbEntity
  8
7
  6
CONTINUOUS
 62
   100
100
AcDbLine
 10
831.788083
 20
2552.087083
 30
0.0
 11
1144.625583
 21
2552.087083
 31
0.0
  0
LINE
  5
1CF
100
AcDbEntity
  8
7
  6
CONTINUOUS
 62
   100
100
AcDbLine
 10
831.788083
 20
2546.587083
 30
0.0
 11
1144.625583
 21
2546.587083
 31
0.0
  0
LINE
  5
1D0
100
AcDbEntity
  8
7
  6
CONTINUOUS
 62
   100
100
AcDbLine
 10
816.638083
 20
2541.074583
 30
0.0
 11
1144.625583
 21
2541.074583
 31
0.0
  0
LINE
  5
1D1
100
AcDbEntity
  8
7
  6
CONTINUOUS
 62
   100
100
AcDbLine
 10
816.638083
 20
2535.562083
 30
0.0
 11
1144.625583
 21
2535.562083
 31
0.0
  0
LINE
  5
1D2
100
AcDbEntity
  8
7
  6
CONTINUOUS
 62
   100
100
AcDbLine
 10
849.675583
 20
2530.062083
 30
0.0
 11
1144.625583
 21
2530.062083
 31
0.0
  0
LINE
  5
1D3
100
AcDbEntity
  8
7
  6
CONTINUOUS
 62
   100
100
AcDbLine
 10
849.675583
 20
2521.799583
 30
0.0
 11
1144.625583
 21
2521.799583
 31
0.0
  0
LINE
  5
1D4
100
AcDbEntity
  8
7
  6
CONTINUOUS
 62
   100
100
AcDbLine
 10
849.675583
 20
2510.787083
 30
0.0
 11
1144.625583
 21
2510.787083
 31
0.0
  0
TEXT
  5
1D5
100
AcDbEntity
  8
20
  6
CONTINUOUS
 62
     7
100
AcDbText
 10
883.463333
 20
2516.334917
 30
0.0
 40
1.369917
  1
2'-5 1/4 "
  7
MONOTXT
 72
     1
 11
887.0715
 21
2516.334917
 31
0.0
210
0.0
220
0.0
230
1.0
100
AcDbText
  0
TEXT
  5
1D6
100
AcDbEntity
  8
20
  6
CONTINUOUS
 62
   231
100
AcDbText
 10
915.927333
 20
2537.525167
 30
0.0
 40
1.37
  1
4.0
  7
ROMANS
 72
     4
 11
917.739667
 21
2538.210167
 31
0.0
210
0.0
220
0.0
230
1.0
100
AcDbText
  0
TEXT
  5
1D7
100
AcDbEntity
  8
20
  6
CONTINUOUS
 62
   231
100
AcDbText
 10
932.267833
 20
2537.525167
 30
0.0
 40
1.37
  1
4.3
  7
ROMANS
 72
     4
 11
934.026167
 21
2538.210167
 31
0.0
210
0.0
220
0.0
230
1.0
100
AcDbText
  0
TEXT
  5
1D8
100
AcDbEntity
  8
20
  6
CONTINUOUS
 62
   231
100
AcDbText
 10
947.532167
 20
2537.525167
 30
0.0
 40
1.37
  1
4.6
  7
ROMANS
 72
     4
 11
949.322833
 21
2538.210167
 31
0.0
210
0.0
220
0.0
230
1.0
100
AcDbText
  0
TEXT
  5
1D9
100
AcDbEntity
  8
20
  6
CONTINUOUS
 62
   231
100
AcDbText
 10
963.761083
 20
2537.525167
 30
0.0
 40
1.37
  1
4.9
  7
ROMANS
 72
     4
 11
965.519417
 21
2538.210167
 31
0.0
210
0.0
220
0.0
230
1.0
100
AcDbText
  0
TEXT
  5
1DA
100
AcDbEntity
  8
20
  6
CONTINUOUS
 62
   231
100
AcDbText
 10
978.607917
 20
2537.525167
 30
0.0
 40
1.37
  1
5.2
  7
ROMANS
 72
     4
 11
980.36625
 21
2538.210167
 31
0.0
210
0.0
220
0.0
230
1.0
100
AcDbText
  0
TEXT
  5
1DB
100
AcDbEntity
  8
20
  6
CONTINUOUS
 62
   231
100
AcDbText
 10
994.5345
 20
2537.525167
 30
0.0
 40
1.37
  1
5.5
  7
ROMANS
 72
     4
 11
996.292833
 21
2538.210167
 31
0.0
210
0.0
220
0.0
230
1.0
100
AcDbText
  0
TEXT
  5
1DC
100
AcDbEntity
  8
20
  6
CONTINUOUS
 62
   231
100
AcDbText
 10
1009.74125
 20
2537.525167
 30
0.0
 40
1.37
  1
5.8
  7
ROMANS
 72
     4
 11
1011.499583
 21
2538.210167
 31
0.0
210
0.0
220
0.0
230
1.0
100
AcDbText
  0
TEXT
  5
1DD
100
AcDbEntity
  8
20
  6
CONTINUOUS
 62
   231
100
AcDbText
 10
1025.6605
 20
2537.525167
 30
0.0
 40
1.37
  1
6.1
  7
ROMANS
 72
     4
 11
1027.24625
 21
2538.210167
 31
0.0
210
0.0
220
0.0
230
1.0
100
AcDbText
  0
TEXT
  5
1DF
100
AcDbEntity
  8
21
  6
CONTINUOUS
 62
   103
100
AcDbText
 10
1031.1935
 20
2677.805667
 30
0.0
 40
1.4796
  1
MIN. CONCRETE STRENGTH @ DETENSION = 4,000 PSI.
  7
TXT
210
0.0
220
0.0
230
1.0
100
AcDbText
  0
TEXT
  5
1E0
100
AcDbEntity
  8
21
  6
CONTINUOUS
 62
   103
100
AcDbText
 10
1031.1935
 20
2675.351583
 30
0.0
 40
1.4796
  1
MIN. CONCRETE STRENGTH @ 28 DAYS = 5,000 PSI.
  7
TXT
210
0.0
220
0.0
230
1.0
100
AcDbText
  0
TEXT
  5
1E1
100
AcDbEntity
  8
7
  6
CONTINUOUS
 62
     7
100
AcDbText
 10
820.300583
 20
2649.003083
 30
0.0
 40
1.3625
  1
NO. OF GRADE 270,  1/2 " DIA. LOW-RELAX.
  7
ROMANS
210
0.0
220
0.0
230
1.0
100
AcDbText
  0
TEXT
  5
1E2
100
AcDbEntity
  8
7
  6
CONTINUOUS
 62
     7
100
AcDbText
 10
820.300583
 20
2646.80925
 30
0.0
 40
1.3625
  1
STRANDS, AREA/STRAND= 0.153 SQ. IN. 
  7
ROMANS
210
0.0
220
0.0
230
1.0
100
AcDbText
  0
TEXT
  5
1E3
100
AcDbEntity
  8
7
  6
CONTINUOUS
 62
     7
100
AcDbText
 10
820.300583
 20
2559.662083
 30
0.0
 40
1.3625
  1
END TENSION STEEL EACH END (SIZE & LENGTH)
  7
ROMANS
210
0.0
220
0.0
230
1.0
100
AcDbText
  0
TEXT
  5
1E4
100
AcDbEntity
  8
21
  6
CONTINUOUS
 62
   103
100
AcDbText
 10
1088.238833
 20
2663.807583
 30
0.0
 40
1.37
  1
(4)
  7
MONOTXT
 72
     1
 11
1089.56025
 21
2663.807583
 31
0.0
210
0.0
220
0.0
230
1.0
100
AcDbText
  0
TEXT
  5
1E5
100
AcDbEntity
  8
21
  6
CONTINUOUS
 62
   103
100
AcDbText
 10
823.129083
 20
2546.456417
 30
0.0
 40
1.37
  1
(3)
  7
MONOTXT
 72
     1
 11
824.418083
 21
2546.456417
 31
0.0
210
0.0
220
0.0
230
1.0
100
AcDbText
  0
TEXT
  5
1E6
100
AcDbEntity
  8
21
  6
CONTINUOUS
 62
   103
100
AcDbText
 10
829.833083
 20
2536.369583
 30
0.0
 40
1.37
  1
(1),(2)
  7
MONOTXT
 72
     1
 11
832.718667
 21
2536.369583
 31
0.0
210
0.0
220
0.0
230
1.0
100
AcDbText
  0
TEXT
  5
1E7
100
AcDbEntity
  8
20
  6
CONTINUOUS
 62
   231
100
AcDbText
 10
885.251917
 20
2603.628333
 30
0.0
 40
1.37
  1
162
  7
ROMANS
 72
     4
 11
887.01025
 21
2604.313333
 31
0.0
210
0.0
220
0.0
230
1.0
100
AcDbText
  0
TEXT
  5
1E8
100
AcDbEntity
  8
20
  6
CONTINUOUS
 62
   231
100
AcDbText
 10
916.09075
 20
2624.11775
 30
0.0
 40
1.37
  1
241
  7
ROMANS
 72
     4
 11
917.6765
 21
2624.80275
 31
0.0
210
0.0
220
0.0
230
1.0
100
AcDbText
  0
TEXT
  5
1E9
100
AcDbEntity
  8
20
  6
CONTINUOUS
 62
   231
100
AcDbText
 10
915.71925
 20
2615.76275
 30
0.0
 40
1.37
  1
223
  7
ROMANS
 72
     4
 11
917.477583
 21
2616.44775
 31
0.0
210
0.0
220
0.0
230
1.0
100
AcDbText
  0
TEXT
  5
1EA
100
AcDbEntity
  8
20
  6
CONTINUOUS
 62
   231
100
AcDbText
 10
915.71925
 20
2609.198333
 30
0.0
 40
1.37
  1
147
  7
ROMANS
 72
     4
 11
917.477583
 21
2609.883333
 31
0.0
210
0.0
220
0.0
230
1.0
100
AcDbText
  0
TEXT
  5
1EB
100
AcDbEntity
  8
20
  6
CONTINUOUS
 62
   231
100
AcDbText
 10
915.71925
 20
2603.628333
 30
0.0
 40
1.37
  1
189
  7
ROMANS
 72
     4
 11
917.477583
 21
2604.313333
 31
0.0
210
0.0
220
0.0
230
1.0
100
AcDbText
  0
TEXT
  5
1EC
100
AcDbEntity
  8
20
  6
CONTINUOUS
 62
   231
100
AcDbText
 10
916.766583
 20
2598.257417
 30
0.0
 40
1.37
  1
-
  7
ROMANS
 72
     4
 11
917.279
 21
2598.942417
 31
0.0
210
0.0
220
0.0
230
1.0
100
AcDbText
  0
TEXT
  5
1ED
100
AcDbEntity
  8
20
  6
CONTINUOUS
 62
   231
100
AcDbText
 10
901.136833
 20
2586.783333
 30
0.0
 40
1.37
  1
-
  7
ROMANS
 72
     4
 11
901.64925
 21
2587.468333
 31
0.0
210
0.0
220
0.0
230
1.0
100
AcDbText
  0
TEXT
  5
1EE
100
AcDbEntity
  8
20
  6
CONTINUOUS
 62
   231
100
AcDbText
 10
948.662
 20
2586.783333
 30
0.0
 40
1.37
  1
-
  7
ROMANS
 72
     4
 11
949.174417
 21
2587.468333
 31
0.0
210
0.0
220
0.0
230
1.0
100
AcDbText
  0
TEXT
  5
1EF
100
AcDbEntity
  8
20
  6
CONTINUOUS
 62
   231
100
AcDbText
 10
1011.811667
 20
2586.783333
 30
0.0
 40
1.37
  1
-
  7
ROMANS
 72
     4
 11
1012.324083
 21
2587.468333
 31
0.0
210
0.0
220
0.0
230
1.0
100
AcDbText
  0
TEXT
  5
1F0
100
AcDbEntity
  8
20
  6
CONTINUOUS
 62
   231
100
AcDbText
 10
1027.295083
 20
2570.073667
 30
0.0
 40
1.37
  1
-
  7
ROMANS
 72
     4
 11
1027.8075
 21
2570.758667
 31
0.0
210
0.0
220
0.0
230
1.0
100
AcDbText
  0
TEXT
  5
1F1
100
AcDbEntity
  8
20
  6
CONTINUOUS
 62
   231
100
AcDbText
 10
899.87475
 20
2537.525167
 30
0.0
 40
1.37
  1
3.7
  7
ROMANS
 72
     4
 11
901.633083
 21
2538.210167
 31
0.0
210
0.0
220
0.0
230
1.0
100
AcDbText
  0
TEXT
  5
1F2
100
AcDbEntity
  8
20
  6
CONTINUOUS
 62
     7
100
AcDbText
 10
962.311167
 20
2516.334917
 30
0.0
 40
1.369917
  1
1'-9 3/4 "
 41
1.000061
  7
MONOTXT
 72
     1
 11
965.595833
 21
2516.334917
 31
0.0
210
0.0
220
0.0
230
1.0
100
AcDbText
  0
TEXT
  5
1F3
100
AcDbEntity
  8
20
  6
CONTINUOUS
 62
     7
100
AcDbText
 10
1024.970167
 20
2516.596667
 30
0.0
 40
1.369917
  1
2'-3"
 41
1.000061
  7
MONOTXT
 72
     1
 11
1027.456667
 21
2516.596667
 31
0.0
210
0.0
220
0.0
230
1.0
100
AcDbText
  0
TEXT
  5
1F4
100
AcDbEntity
  8
21
  6
CONTINUOUS
 62
   103
100
AcDbText
 10
816.102
 20
2506.39225
 30
0.0
 40
1.369999
  1
NOTES:
  7
MONOTXT
210
0.0
220
0.0
230
1.0
100
AcDbText
  0
TEXT
  5
1F5
100
AcDbEntity
  8
7
  6
CONTINUOUS
 62
     7
100
AcDbText
 10
819.323083
 20
2496.903333
 30
0.0
 40
1.368749
  1
2. FOR STANDARD CURB, ADD 93 LBS. (0.05 TON) PER CURB, PER FOOT OF BEAM.
 41
1.000061
  7
MONOTXT
210
0.0
220
0.0
230
1.0
100
AcDbText
  0
TEXT
  5
1F6
100
AcDbEntity
  8
7
  6
CONTINUOUS
 62
     7
100
AcDbText
 10
819.262
 20
2486.423333
 30
0.0
 40
1.368749
  1
4. DATA LISTED IN THE DESIGN TABLE MAY NOT BE VALID FOR SPAN LENGTHS THAT FALL
 41
1.000061
  7
MONOTXT
210
0.0
220
0.0
230
1.0
100
AcDbText
  0
TEXT
  5
1F7
100
AcDbEntity
  8
7
  6
CONTINUOUS
 62
     7
100
AcDbText
 10
822.124
 20
2484.375417
 30
0.0
 40
1.368784
  1
BETWEEN THE SPAN LENGTHS LISTED. IF DIFFERENCES ARE ENCOUNTERED, CALCULATE
 41
1.000033
  7
MONOTXT
210
0.0
220
0.0
230
1.0
100
AcDbText
  0
TEXT
  5
1F8
100
AcDbEntity
  8
7
  6
CONTINUOUS
 62
     7
100
AcDbText
 10
822.124
 20
2482.322667
 30
0.0
 40
1.368784
  1
AND ENTER SPECIFIC DATA FOR BEAM LENGTH REQUIRED IN THIS COLUMN.
 41
1.000033
  7
MONOTXT
210
0.0
220
0.0
230
1.0
100
AcDbText
  0
TEXT
  5
1F9
100
AcDbEntity
  8
7
  6
CONTINUOUS
 62
     7
100
AcDbText
 10
819.35775
 20
2493.4845
 30
0.0
 40
1.368916
  1
3. CAMBER VALUES LISTED IN DESIGN TABLE ARE APPROXIMATE AND ARE FOR COMPARISON
 41
0.999939
  7
MONOTXT
210
0.0
220
0.0
230
1.0
100
AcDbText
  0
TEXT
  5
1FA
100
AcDbEntity
  8
7
  6
CONTINUOUS
 62
     7
100
AcDbText
 10
822.088667
 20
2491.539333
 30
0.0
 40
1.368784
  1
PURPOSES ONLY. NOT TO BE USED FOR INSPECTION PURPOSES UNLESS PERMITTED BY
 41
1.000058
  7
MONOTXT
210
0.0
220
0.0
230
1.0
100
AcDbText
  0
TEXT
  5
1FB
100
AcDbEntity
  8
7
  6
CONTINUOUS
 62
     7
100
AcDbText
 10
822.088667
 20
2489.485917
 30
0.0
 40
1.368899
  1
THE DIRECTOR OF STRUCTURES DIVISION.
 41
0.999974
  7
MONOTXT
210
0.0
220
0.0
230
1.0
100
AcDbText
  0
POINT
  5
1FC
100
AcDbEntity
  8
7
  6
CONTINUOUS
 62
     7
100
AcDbPoint
 10
828.98625
 20
2490.550333
 30
0.0
  0
POINT
  5
1FD
100
AcDbEntity
  8
7
  6
CONTINUOUS
 62
     7
100
AcDbPoint
 10
828.98625
 20
2493.288167
 30
0.0
  0
LINE
  5
1FE
100
AcDbEntity
  8
7
  6
CONTINUOUS
 62
   150
100
AcDbLine
 10
815.784667
 20
2505.856583
 30
0.0
 11
823.271167
 21
2505.856583
 31
0.0
  0
TEXT
  5
1FF
100
AcDbEntity
  8
21
  6
CONTINUOUS
 62
   103
100
AcDbText
 10
819.272083
 20
2479.071833
 30
0.0
 40
1.368916
  1
5. THIS SHEET TO BE USED WITH STANDARD SHEET NUMBERS BR-1 OR BR-1A, BR-S12A, BR-B100,
  7
MONOTXT
 11
819.272083
 21
2479.756333
 31
0.0
210
0.0
220
0.0
230
1.0
100
AcDbText
 73
     2
  0
TEXT
  5
200
100
AcDbEntity
  8
21
  6
CONTINUOUS
 62
   103
100
AcDbText
 10
819.722
 20
2474.19975
 30
0.0
 40
1.369999
  1
6. MAXIMUM BEAM SKEW SHALL BE 30 DEGREES.
  7
MONOTXT
210
0.0
220
0.0
230
1.0
100
AcDbText
  0
TEXT
  5
201
100
AcDbEntity
  8
21
  6
CONTINUOUS
 62
   103
100
AcDbText
 10
822.157417
 20
2463.896583
 30
0.0
 40
1.369999
  1
TOTAL BEARING ON THE PADS AND A LEVEL TOP BEAM SURFACE.  METHOD SHALL BE A PRE-APPROVED
  7
MONOTXT
210
0.0
220
0.0
230
1.0
100
AcDbText
  0
TEXT
  5
202
100
AcDbEntity
  8
21
  6
CONTINUOUS
 62
   103
100
AcDbText
 10
819.500583
 20
2458.2465
 30
0.0
 40
1.369999
  1
8. BEAM FABRICATOR SHALL NOTIFY CONTRACTOR THAT BEAM ENDS ARE TWISTED PRIOR TO SHIPPING OF BEAMS.
  7
MONOTXT
210
0.0
220
0.0
230
1.0
100
AcDbText
  0
TEXT
  5
203
100
AcDbEntity
  8
20
  6
CONTINUOUS
 62
   231
100
AcDbText
 10
913.762583
 20
2636.721083
 30
0.0
 40
1.37
  1
21 & 22
  7
ROMANS
 72
     4
 11
918.239333
 21
2637.406083
 31
0.0
210
0.0
220
0.0
230
1.0
100
AcDbText
  0
TEXT
  5
204
100
AcDbEntity
  8
20
  6
CONTINUOUS
 62
   231
100
AcDbText
 10
959.714917
 20
2642.5385
 30
0.0
 40
1.37
  1
1,2,7,8,
  7
ROMANS
 72
     4
 11
964.736417
 21
2643.2235
 31
0.0
210
0.0
220
0.0
230
1.0
100
AcDbText
  0
TEXT
  5
205
100
AcDbEntity
  8
20
  6
CONTINUOUS
 62
   231
100
AcDbText
 10
961.34025
 20
2639.479917
 30
0.0
 40
1.37
  1
15,16,
  7
ROMANS
 72
     4
 11
965.002583
 21
2640.164917
 31
0.0
210
0.0
220
0.0
230
1.0
100
AcDbText
  0
TEXT
  5
206
100
AcDbEntity
  8
20
  6
CONTINUOUS
 62
   231
100
AcDbText
 10
975.170333
 20
2642.5385
 30
0.0
 40
1.37
  1
1,2,7,8,
  7
ROMANS
 72
     4
 11
980.191833
 21
2643.2235
 31
0.0
210
0.0
220
0.0
230
1.0
100
AcDbText
  0
TEXT
  5
207
100
AcDbEntity
  8
20
  6
CONTINUOUS
 62
   231
100
AcDbText
 10
991.218
 20
2642.5385
 30
0.0
 40
1.37
  1
1,2,7,8,
  7
ROMANS
 72
     4
 11
996.2395
 21
2643.2235
 31
0.0
210
0.0
220
0.0
230
1.0
100
AcDbText
  0
TEXT
  5
208
100
AcDbEntity
  8
20
  6
CONTINUOUS
 62
   231
100
AcDbText
 10
1007.023417
 20
2642.5385
 30
0.0
 40
1.37
  1
1,2,5,6,
  7
ROMANS
 72
     4
 11
1012.044917
 21
2643.2235
 31
0.0
210
0.0
220
0.0
230
1.0
100
AcDbText
  0
TEXT
  5
209
100
AcDbEntity
  8
20
  6
CONTINUOUS
 62
   231
100
AcDbText
 10
1024.9745
 20
2624.11775
 30
0.0
 40
1.37
  1
329
  7
ROMANS
 72
     4
 11
1026.732833
 21
2624.80275
 31
0.0
210
0.0
220
0.0
230
1.0
100
AcDbText
  0
TEXT
  5
20A
100
AcDbEntity
  8
20
  6
CONTINUOUS
 62
   231
100
AcDbText
 10
995.824583
 20
2586.783333
 30
0.0
 40
1.37
  1
-
  7
ROMANS
 72
     4
 11
996.337
 21
2587.468333
 31
0.0
210
0.0
220
0.0
230
1.0
100
AcDbText
  0
TEXT
  5
20B
100
AcDbEntity
  8
20
  6
CONTINUOUS
 62
   231
100
AcDbText
 10
1027.132667
 20
2586.783333
 30
0.0
 40
1.37
  1
-
  7
ROMANS
 72
     4
 11
1027.645083
 21
2587.468333
 31
0.0
210
0.0
220
0.0
230
1.0
100
AcDbText
  0
TEXT
  5
20C
100
AcDbEntity
  8
20
  6
CONTINUOUS
 62
     7
100
AcDbText
 10
930.632917
 20
2516.334917
 30
0.0
 40
1.369917
  1
2'-4 1/2 "
  7
MONOTXT
 72
     1
 11
934.273417
 21
2516.334917
 31
0.0
210
0.0
220
0.0
230
1.0
100
AcDbText
  0
TEXT
  5
20D
100
AcDbEntity
  8
14
  6
CONTINUOUS
 62
   100
100
AcDbText
 10
1163.146917
 20
2481.242167
 30
0.0
 40
1.124834
  1
ANK/    
  7
ROMANS
 72
     1
 11
1167.610833
 21
2481.242167
 31
0.0
210
0.0
220
0.0
230
1.0
100
AcDbText
  0
TEXT
  5
20E
100
AcDbEntity
  8
14
  6
CONTINUOUS
 62
   100
100
AcDbText
 10
1163.544083
 20
2477.367167
 30
0.0
 40
1.124834
  1
  DWW/  
  7
ROMANS
 72
     1
 11
1168.008
 21
2477.367167
 31
0.0
210
0.0
220
0.0
230
1.0
100
AcDbText
  0
TEXT
  5
20F
100
AcDbEntity
  8
21
  6
CONTINUOUS
 62
   103
100
AcDbText
 10
819.722
 20
2470.765333
 30
0.0
 40
1.37
  1
7. DESIGNER, FABRICATOR AND ERECTOR SHALL BE AWARE THAT SKEWED BEAM ENDS MAY TWIST OR WARP,
  7
MONOTXT
210
0.0
220
0.0
230
1.0
100
AcDbText
  0
TEXT
  5
210
100
AcDbEntity
  8
21
  6
CONTINUOUS
 62
   103
100
AcDbText
 10
822.378833
 20
2468.549583
 30
0.0
 40
1.37
  1
CAUSING UNEVEN BEAM SEATING AT THE BEARINGS.  CONTRACTOR IS REQUIRED TO CORRECT AT THE TIME
  7
MONOTXT
210
0.0
220
0.0
230
1.0
100
AcDbText
  0
TEXT
  5
211
100
AcDbEntity
  8
21
  6
CONTINUOUS
 62
   103
100
AcDbText
 10
822.268167
 20
2466.223083
 30
0.0
 40
1.37
  1
OF BEAM ERECTION, BEFORE BEAMS ARE SECURED IN PLACE.  METHOD OF CORRECTION SHALL PROVIDE EVEN,
  7
MONOTXT
210
0.0
220
0.0
230
1.0
100
AcDbText
  0
TEXT
  5
212
100
AcDbEntity
  8
21
  6
CONTINUOUS
 62
   103
100
AcDbText
 10
822.157417
 20
2461.570083
 30
0.0
 40
1.37
  1
METHOD BY DIRECTOR OF STRUCTURES DIVISION.
  7
MONOTXT
210
0.0
220
0.0
230
1.0
100
AcDbText
  0
TEXT
  5
213
100
AcDbEntity
  8
20
  6
CONTINUOUS
 62
   231
100
AcDbText
 10
880.499167
 20
2642.27675
 30
0.0
 40
1.37
  1
1,2,11,12,
  7
ROMANS
 72
     4
 11
886.879917
 21
2642.96175
 31
0.0
210
0.0
220
0.0
230
1.0
100
AcDbText
  0
TEXT
  5
214
100
AcDbEntity
  8
20
  6
CONTINUOUS
 62
   231
100
AcDbText
 10
896.578333
 20
2642.27675
 30
0.0
 40
1.37
  1
1,2,9,10,
  7
ROMANS
 72
     4
 11
902.2795
 21
2642.96175
 31
0.0
210
0.0
220
0.0
230
1.0
100
AcDbText
  0
TEXT
  5
215
100
AcDbEntity
  8
20
  6
CONTINUOUS
 62
   231
100
AcDbText
 10
899.047083
 20
2639.479917
 30
0.0
 40
1.37
  1
17,18,
  7
ROMANS
 72
     4
 11
902.709417
 21
2640.164917
 31
0.0
210
0.0
220
0.0
230
1.0
100
AcDbText
  0
TEXT
  5
216
100
AcDbEntity
  8
20
  6
CONTINUOUS
 62
   231
100
AcDbText
 10
898.01775
 20
2636.721083
 30
0.0
 40
1.37
  1
21 & 22
  7
ROMANS
 72
     4
 11
902.4945
 21
2637.406083
 31
0.0
210
0.0
220
0.0
230
1.0
100
AcDbText
  0
TEXT
  5
217
100
AcDbEntity
  8
20
  6
CONTINUOUS
 62
   231
100
AcDbText
 10
880.579333
 20
2639.479917
 30
0.0
 40
1.37
  1
21,22 & 23
  7
ROMANS
 72
     4
 11
887.094917
 21
2640.164917
 31
0.0
210
0.0
220
0.0
230
1.0
100
AcDbText
  0
TEXT
  5
218
100
AcDbEntity
  8
20
  6
CONTINUOUS
 62
   231
100
AcDbText
 10
912.323167
 20
2642.27675
 30
0.0
 40
1.37
  1
1,2,9,10,
  7
ROMANS
 72
     4
 11
918.024333
 21
2642.96175
 31
0.0
210
0.0
220
0.0
230
1.0
100
AcDbText
  0
TEXT
  5
219
100
AcDbEntity
  8
20
  6
CONTINUOUS
 62
   231
100
AcDbText
 10
915.033833
 20
2639.479917
 30
0.0
 40
1.37
  1
17,18
  7
ROMANS
 72
     4
 11
918.151333
 21
2640.164917
 31
0.0
210
0.0
220
0.0
230
1.0
100
AcDbText
  0
TEXT
  5
21A
100
AcDbEntity
  8
20
  6
CONTINUOUS
 62
   231
100
AcDbText
 10
927.474583
 20
2642.27675
 30
0.0
 40
1.37
  1
1,2,9,10,
  7
ROMANS
 72
     4
 11
933.17575
 21
2642.96175
 31
0.0
210
0.0
220
0.0
230
1.0
100
AcDbText
  0
TEXT
  5
21B
100
AcDbEntity
  8
20
  6
CONTINUOUS
 62
   231
100
AcDbText
 10
930.103
 20
2639.479917
 30
0.0
 40
1.37
  1
17,18
  7
ROMANS
 72
     4
 11
933.2205
 21
2640.164917
 31
0.0
210
0.0
220
0.0
230
1.0
100
AcDbText
  0
TEXT
  5
21C
100
AcDbEntity
  8
20
  6
CONTINUOUS
 62
   231
100
AcDbText
 10
928.996417
 20
2636.721083
 30
0.0
 40
1.37
  1
21 & 22
  7
ROMANS
 72
     4
 11
933.473167
 21
2637.406083
 31
0.0
210
0.0
220
0.0
230
1.0
100
AcDbText
  0
TEXT
  5
21D
100
AcDbEntity
  8
20
  6
CONTINUOUS
 62
   231
100
AcDbText
 10
943.120083
 20
2642.27675
 30
0.0
 40
1.37
  1
1,2,9,10,
  7
ROMANS
 72
     4
 11
948.82125
 21
2642.96175
 31
0.0
210
0.0
220
0.0
230
1.0
100
AcDbText
  0
TEXT
  5
21E
100
AcDbEntity
  8
20
  6
CONTINUOUS
 62
   231
100
AcDbText
 10
945.7485
 20
2639.479917
 30
0.0
 40
1.37
  1
17,18
  7
ROMANS
 72
     4
 11
948.866
 21
2640.164917
 31
0.0
210
0.0
220
0.0
230
1.0
100
AcDbText
  0
TEXT
  5
21F
100
AcDbEntity
  8
20
  6
CONTINUOUS
 62
   231
100
AcDbText
 10
944.641917
 20
2636.721083
 30
0.0
 40
1.37
  1
21 & 22
  7
ROMANS
 72
     4
 11
949.118667
 21
2637.406083
 31
0.0
210
0.0
220
0.0
230
1.0
100
AcDbText
  0
TEXT
  5
220
100
AcDbEntity
  8
20
  6
CONTINUOUS
 62
   231
100
AcDbText
 10
958.514333
 20
2636.682917
 30
0.0
 40
1.37
  1
21,22 & 23
  7
ROMANS
 72
     4
 11
965.029917
 21
2637.367917
 31
0.0
210
0.0
220
0.0
230
1.0
100
AcDbText
  0
TEXT
  5
221
100
AcDbEntity
  8
20
  6
CONTINUOUS
 62
   231
100
AcDbText
 10
976.409333
 20
2639.479917
 30
0.0
 40
1.37
  1
15,16,
  7
ROMANS
 72
     4
 11
980.071667
 21
2640.164917
 31
0.0
210
0.0
220
0.0
230
1.0
100
AcDbText
  0
TEXT
  5
222
100
AcDbEntity
  8
20
  6
CONTINUOUS
 62
   231
100
AcDbText
 10
973.995167
 20
2636.682917
 30
0.0
 40
1.37
  1
21,22 & 23
  7
ROMANS
 72
     4
 11
980.51075
 21
2637.367917
 31
0.0
210
0.0
220
0.0
230
1.0
100
AcDbText
  0
TEXT
  5
223
100
AcDbEntity
  8
20
  6
CONTINUOUS
 62
   231
100
AcDbText
 10
990.427667
 20
2639.479917
 30
0.0
 40
1.37
  1
13,14,19,
  7
ROMANS
 72
     4
 11
996.128833
 21
2640.164917
 31
0.0
210
0.0
220
0.0
230
1.0
100
AcDbText
  0
TEXT
  5
224
100
AcDbEntity
  8
20
  6
CONTINUOUS
 62
   231
100
AcDbText
 10
989.822417
 20
2636.682917
 30
0.0
 40
1.37
  1
20,21 & 22
  7
ROMANS
 72
     4
 11
996.338
 21
2637.367917
 31
0.0
210
0.0
220
0.0
230
1.0
100
AcDbText
  0
TEXT
  5
225
100
AcDbEntity
  8
20
  6
CONTINUOUS
 62
   231
100
AcDbText
 10
1006.073167
 20
2639.479917
 30
0.0
 40
1.37
  1
13,14,19,
  7
ROMANS
 72
     4
 11
1011.774333
 21
2640.164917
 31
0.0
210
0.0
220
0.0
230
1.0
100
AcDbText
  0
TEXT
  5
226
100
AcDbEntity
  8
20
  6
CONTINUOUS
 62
   231
100
AcDbText
 10
1005.1385
 20
2636.682917
 30
0.0
 40
1.37
  1
20,21 & 22
  7
ROMANS
 72
     4
 11
1011.654083
 21
2637.367917
 31
0.0
210
0.0
220
0.0
230
1.0
100
AcDbText
  0
TEXT
  5
227
100
AcDbEntity
  8
20
  6
CONTINUOUS
 62
   231
100
AcDbText
 10
1022.355917
 20
2642.5385
 30
0.0
 40
1.37
  1
1,2,7,8,
  7
ROMANS
 72
     4
 11
1027.377417
 21
2643.2235
 31
0.0
210
0.0
220
0.0
230
1.0
100
AcDbText
  0
TEXT
  5
228
100
AcDbEntity
  8
20
  6
CONTINUOUS
 62
   231
100
AcDbText
 10
1021.67625
 20
2639.44775
 30
0.0
 40
1.37
  1
13,14,19,
  7
ROMANS
 72
     4
 11
1027.377417
 21
2640.13275
 31
0.0
210
0.0
220
0.0
230
1.0
100
AcDbText
  0
TEXT
  5
229
100
AcDbEntity
  8
20
  6
CONTINUOUS
 62
   231
100
AcDbText
 10
1023.774583
 20
2636.570917
 30
0.0
 40
1.37
  1
20,21,
  7
ROMANS
 72
     4
 11
1027.436917
 21
2637.255917
 31
0.0
210
0.0
220
0.0
230
1.0
100
AcDbText
  0
TEXT
  5
22A
100
AcDbEntity
  8
20
  6
CONTINUOUS
 62
   231
100
AcDbText
 10
1022.987583
 20
2634.319333
 30
0.0
 40
1.37
  1
22 & 23
  7
ROMANS
 72
     4
 11
1027.464333
 21
2635.004333
 31
0.0
210
0.0
220
0.0
230
1.0
100
AcDbText
  0
POINT
  5
22B
100
AcDbEntity
  8
20
  6
CONTINUOUS
 62
     7
100
AcDbPoint
 10
1043.019917
 20
2659.073917
 30
0.0
  0
POINT
  5
22C
100
AcDbEntity
  8
20
  6
CONTINUOUS
 62
     7
100
AcDbPoint
 10
1043.019917
 20
2653.594083
 30
0.0
  0
TEXT
  5
22D
100
AcDbEntity
  8
20
  6
CONTINUOUS
 62
     7
100
AcDbText
 10
1041.633917
 20
2659.073917
 30
0.0
 40
1.37
  1
20'
  7
MONOTXT
 72
     1
 11
1043.020083
 21
2659.073917
 31
0.0
210
0.0
220
0.0
230
1.0
100
AcDbText
  0
TEXT
  5
22E
100
AcDbEntity
  8
20
  6
CONTINUOUS
 62
     7
100
AcDbText
 10
1040.177583
 20
2653.594083
 30
0.0
 40
1.37
  1
21'-6"
  7
MONOTXT
 72
     1
 11
1043.020083
 21
2653.594083
 31
0.0
210
0.0
220
0.0
230
1.0
100
AcDbText
  0
TEXT
  5
22F
100
AcDbEntity
  8
20
  6
CONTINUOUS
 62
   231
100
AcDbText
 10
1042.042583
 20
2647.917083
 30
0.0
 40
1.37
  1
12
  7
MONOTXT
 72
     4
 11
1042.889417
 21
2648.602083
 31
0.0
210
0.0
220
0.0
230
1.0
100
AcDbText
  0
TEXT
  5
230
100
AcDbEntity
  8
20
  6
CONTINUOUS
 62
   231
100
AcDbText
 10
1040.537667
 20
2615.76275
 30
0.0
 40
1.37
  1
324
  7
ROMANS
 72
     4
 11
1042.296
 21
2616.44775
 31
0.0
210
0.0
220
0.0
230
1.0
100
AcDbText
  0
TEXT
  5
231
100
AcDbEntity
  8
20
  6
CONTINUOUS
 62
   231
100
AcDbText
 10
1040.53775
 20
2609.198333
 30
0.0
 40
1.37
  1
255
  7
ROMANS
 72
     4
 11
1042.296083
 21
2609.883333
 31
0.0
210
0.0
220
0.0
230
1.0
100
AcDbText
  0
TEXT
  5
232
100
AcDbEntity
  8
20
  6
CONTINUOUS
 62
   231
100
AcDbText
 10
1041.1185
 20
2603.628333
 30
0.0
 40
1.37
  1
288
  7
ROMANS
 72
     4
 11
1042.876833
 21
2604.313333
 31
0.0
210
0.0
220
0.0
230
1.0
100
AcDbText
  0
TEXT
  5
233
100
AcDbEntity
  8
20
  6
CONTINUOUS
 62
   231
100
AcDbText
 10
1040.537667
 20
2624.11775
 30
0.0
 40
1.37
  1
358
  7
ROMANS
 72
     4
 11
1042.296
 21
2624.80275
 31
0.0
210
0.0
220
0.0
230
1.0
100
AcDbText
  0
TEXT
  5
234
100
AcDbEntity
  8
20
  6
CONTINUOUS
 62
   231
100
AcDbText
 10
1037.919083
 20
2642.5385
 30
0.0
 40
1.37
  1
1,2,5,6,
  7
ROMANS
 72
     4
 11
1042.940583
 21
2643.2235
 31
0.0
210
0.0
220
0.0
230
1.0
100
AcDbText
  0
TEXT
  5
235
100
AcDbEntity
  8
20
  6
CONTINUOUS
 62
   231
100
AcDbText
 10
1038.55075
 20
2634.319333
 30
0.0
 40
1.37
  1
21 & 22
  7
ROMANS
 72
     4
 11
1043.0275
 21
2635.004333
 31
0.0
210
0.0
220
0.0
230
1.0
100
AcDbText
  0
POINT
  5
236
100
AcDbEntity
  8
20
  6
CONTINUOUS
 62
     7
100
AcDbPoint
 10
1058.994833
 20
2659.073917
 30
0.0
  0
POINT
  5
237
100
AcDbEntity
  8
20
  6
CONTINUOUS
 62
     7
100
AcDbPoint
 10
1058.994833
 20
2653.594083
 30
0.0
  0
TEXT
  5
238
100
AcDbEntity
  8
20
  6
CONTINUOUS
 62
     7
100
AcDbText
 10
1057.900083
 20
2659.073917
 30
0.0
 40
1.37
  1
21'
  7
MONOTXT
 72
     1
 11
1058.994917
 21
2659.073917
 31
0.0
210
0.0
220
0.0
230
1.0
100
AcDbText
  0
TEXT
  5
239
100
AcDbEntity
  8
20
  6
CONTINUOUS
 62
     7
100
AcDbText
 10
1055.86125
 20
2653.594083
 30
0.0
 40
1.37
  1
22'-6"
  7
MONOTXT
 72
     1
 11
1058.994917
 21
2653.594083
 31
0.0
210
0.0
220
0.0
230
1.0
100
AcDbText
  0
TEXT
  5
23A
100
AcDbEntity
  8
20
  6
CONTINUOUS
 62
   231
100
AcDbText
 10
1058.0175
 20
2647.917083
 30
0.0
 40
1.37
  1
12
  7
MONOTXT
 72
     4
 11
1058.864333
 21
2648.602083
 31
0.0
210
0.0
220
0.0
230
1.0
100
AcDbText
  0
TEXT
  5
23B
100
AcDbEntity
  8
20
  6
CONTINUOUS
 62
   231
100
AcDbText
 10
1056.512583
 20
2615.76275
 30
0.0
 40
1.37
  1
325
  7
ROMANS
 72
     4
 11
1058.270917
 21
2616.44775
 31
0.0
210
0.0
220
0.0
230
1.0
100
AcDbText
  0
TEXT
  5
23C
100
AcDbEntity
  8
20
  6
CONTINUOUS
 62
   231
100
AcDbText
 10
1056.458667
 20
2609.198333
 30
0.0
 40
1.37
  1
270
  7
ROMANS
 72
     4
 11
1058.271
 21
2609.883333
 31
0.0
210
0.0
220
0.0
230
1.0
100
AcDbText
  0
TEXT
  5
23D
100
AcDbEntity
  8
20
  6
CONTINUOUS
 62
   231
100
AcDbText
 10
1057.093417
 20
2603.628333
 30
0.0
 40
1.37
  1
288
  7
ROMANS
 72
     4
 11
1058.85175
 21
2604.313333
 31
0.0
210
0.0
220
0.0
230
1.0
100
AcDbText
  0
TEXT
  5
23E
100
AcDbEntity
  8
20
  6
CONTINUOUS
 62
   231
100
AcDbText
 10
1056.512583
 20
2624.11775
 30
0.0
 40
1.37
  1
358
  7
ROMANS
 72
     4
 11
1058.270917
 21
2624.80275
 31
0.0
210
0.0
220
0.0
230
1.0
100
AcDbText
  0
POINT
  5
23F
100
AcDbEntity
  8
20
  6
CONTINUOUS
 62
     7
100
AcDbPoint
 10
1074.542
 20
2659.073917
 30
0.0
  0
POINT
  5
240
100
AcDbEntity
  8
20
  6
CONTINUOUS
 62
     7
100
AcDbPoint
 10
1074.542
 20
2653.594083
 30
0.0
  0
TEXT
  5
241
100
AcDbEntity
  8
20
  6
CONTINUOUS
 62
     7
100
AcDbText
 10
1073.156
 20
2659.073917
 30
0.0
 40
1.37
  1
22'
  7
MONOTXT
 72
     1
 11
1074.542167
 21
2659.073917
 31
0.0
210
0.0
220
0.0
230
1.0
100
AcDbText
  0
TEXT
  5
242
100
AcDbEntity
  8
20
  6
CONTINUOUS
 62
     7
100
AcDbText
 10
1071.408417
 20
2653.594083
 30
0.0
 40
1.37
  1
23'-6"
  7
MONOTXT
 72
     1
 11
1074.542083
 21
2653.594083
 31
0.0
210
0.0
220
0.0
230
1.0
100
AcDbText
  0
TEXT
  5
243
100
AcDbEntity
  8
20
  6
CONTINUOUS
 62
   231
100
AcDbText
 10
1073.564667
 20
2647.917083
 30
0.0
 40
1.37
  1
13
  7
MONOTXT
 72
     4
 11
1074.4115
 21
2648.602083
 31
0.0
210
0.0
220
0.0
230
1.0
100
AcDbText
  0
TEXT
  5
244
100
AcDbEntity
  8
20
  6
CONTINUOUS
 62
   231
100
AcDbText
 10
1072.05975
 20
2615.76275
 30
0.0
 40
1.37
  1
349
  7
ROMANS
 72
     4
 11
1073.818083
 21
2616.44775
 31
0.0
210
0.0
220
0.0
230
1.0
100
AcDbText
  0
TEXT
  5
245
100
AcDbEntity
  8
20
  6
CONTINUOUS
 62
   231
100
AcDbText
 10
1072.059833
 20
2609.198333
 30
0.0
 40
1.37
  1
285
  7
ROMANS
 72
     4
 11
1073.818167
 21
2609.883333
 31
0.0
210
0.0
220
0.0
230
1.0
100
AcDbText
  0
TEXT
  5
246
100
AcDbEntity
  8
20
  6
CONTINUOUS
 62
   231
100
AcDbText
 10
1072.586583
 20
2603.628333
 30
0.0
 40
1.37
  1
310
  7
ROMANS
 72
     4
 11
1074.398917
 21
2604.313333
 31
0.0
210
0.0
220
0.0
230
1.0
100
AcDbText
  0
TEXT
  5
247
100
AcDbEntity
  8
20
  6
CONTINUOUS
 62
   231
100
AcDbText
 10
1072.027333
 20
2624.11775
 30
0.0
 40
1.37
  1
386
  7
ROMANS
 72
     4
 11
1073.818
 21
2624.80275
 31
0.0
210
0.0
220
0.0
230
1.0
100
AcDbText
  0
TEXT
  5
248
100
AcDbEntity
  8
20
  6
CONTINUOUS
 62
   231
100
AcDbText
 10
1035.88025
 20
2639.44775
 30
0.0
 40
1.37
  1
9,10,13,14,
  7
ROMANS
 72
     4
 11
1042.940583
 21
2640.13275
 31
0.0
210
0.0
220
0.0
230
1.0
100
AcDbText
  0
TEXT
  5
249
100
AcDbEntity
  8
20
  6
CONTINUOUS
 62
   231
100
AcDbText
 10
1039.33775
 20
2636.570917
 30
0.0
 40
1.37
  1
17,18,
  7
ROMANS
 72
     4
 11
1043.000083
 21
2637.255917
 31
0.0
210
0.0
220
0.0
230
1.0
100
AcDbText
  0
TEXT
  5
24A
100
AcDbEntity
  8
20
  6
CONTINUOUS
 62
   231
100
AcDbText
 10
1053.399917
 20
2642.5385
 30
0.0
 40
1.37
  1
1,2,5,6,
  7
ROMANS
 72
     4
 11
1058.421417
 21
2643.2235
 31
0.0
210
0.0
220
0.0
230
1.0
100
AcDbText
  0
TEXT
  5
24B
100
AcDbEntity
  8
20
  6
CONTINUOUS
 62
   231
100
AcDbText
 10
1051.52575
 20
2639.44775
 30
0.0
 40
1.37
  1
9,10,13,14,
  7
ROMANS
 72
     4
 11
1058.586083
 21
2640.13275
 31
0.0
210
0.0
220
0.0
230
1.0
100
AcDbText
  0
TEXT
  5
24C
100
AcDbEntity
  8
20
  6
CONTINUOUS
 62
   231
100
AcDbText
 10
1055.148
 20
2636.570917
 30
0.0
 40
1.37
  1
17,18,
  7
ROMANS
 72
     4
 11
1058.810333
 21
2637.255917
 31
0.0
210
0.0
220
0.0
230
1.0
100
AcDbText
  0
TEXT
  5
24D
100
AcDbEntity
  8
20
  6
CONTINUOUS
 62
   231
100
AcDbText
 10
1054.19625
 20
2634.319333
 30
0.0
 40
1.37
  1
21 & 22
  7
ROMANS
 72
     4
 11
1058.673
 21
2635.004333
 31
0.0
210
0.0
220
0.0
230
1.0
100
AcDbText
  0
TEXT
  5
24E
100
AcDbEntity
  8
20
  6
CONTINUOUS
 62
   231
100
AcDbText
 10
1069.045417
 20
2642.5385
 30
0.0
 40
1.37
  1
1,2,5,6,
  7
ROMANS
 72
     4
 11
1074.066917
 21
2643.2235
 31
0.0
210
0.0
220
0.0
230
1.0
100
AcDbText
  0
TEXT
  5
24F
100
AcDbEntity
  8
20
  6
CONTINUOUS
 62
   231
100
AcDbText
 10
1067.418333
 20
2639.44775
 30
0.0
 40
1.37
  1
9,10,13,14,
  7
ROMANS
 72
     4
 11
1074.478667
 21
2640.13275
 31
0.0
210
0.0
220
0.0
230
1.0
100
AcDbText
  0
TEXT
  5
250
100
AcDbEntity
  8
20
  6
CONTINUOUS
 62
   231
100
AcDbText
 10
1071.617
 20
2636.570917
 30
0.0
 40
1.37
  1
17,18,
  7
ROMANS
 72
     4
 11
1075.279333
 21
2637.255917
 31
0.0
210
0.0
220
0.0
230
1.0
100
AcDbText
  0
TEXT
  5
251
100
AcDbEntity
  8
20
  6
CONTINUOUS
 62
   231
100
AcDbText
 10
1072.024417
 20
2634.319333
 30
0.0
 40
1.37
  1
21,22
  7
ROMANS
 72
     4
 11
1075.141917
 21
2635.004333
 31
0.0
210
0.0
220
0.0
230
1.0
100
AcDbText
  0
TEXT
  5
252
100
AcDbEntity
  8
20
  6
CONTINUOUS
 62
   231
100
AcDbText
 10
1072.704083
 20
2631.847083
 30
0.0
 40
1.37
  1
& 23
  7
ROMANS
 72
     4
 11
1075.142
 21
2632.532083
 31
0.0
210
0.0
220
0.0
230
1.0
100
AcDbText
  0
TEXT
  5
253
100
AcDbEntity
  8
20
  6
CONTINUOUS
 62
   231
100
AcDbText
 10
1042.365833
 20
2598.257417
 30
0.0
 40
1.37
  1
-
  7
ROMANS
 72
     4
 11
1042.87825
 21
2598.942417
 31
0.0
210
0.0
220
0.0
230
1.0
100
AcDbText
  0
TEXT
  5
254
100
AcDbEntity
  8
20
  6
CONTINUOUS
 62
   231
100
AcDbText
 10
1058.423083
 20
2598.257417
 30
0.0
 40
1.37
  1
-
  7
ROMANS
 72
     4
 11
1058.9355
 21
2598.942417
 31
0.0
210
0.0
220
0.0
230
1.0
100
AcDbText
  0
TEXT
  5
255
100
AcDbEntity
  8
20
  6
CONTINUOUS
 62
   231
100
AcDbText
 10
1073.739167
 20
2598.257417
 30
0.0
 40
1.37
  1
-
  7
ROMANS
 72
     4
 11
1074.251583
 21
2598.942417
 31
0.0
210
0.0
220
0.0
230
1.0
100
AcDbText
  0
TEXT
  5
256
100
AcDbEntity
  8
20
  6
CONTINUOUS
 62
   231
100
AcDbText
 10
1073.739167
 20
2586.720333
 30
0.0
 40
1.37
  1
-
  7
ROMANS
 72
     4
 11
1074.251583
 21
2587.405333
 31
0.0
210
0.0
220
0.0
230
1.0
100
AcDbText
  0
TEXT
  5
257
100
AcDbEntity
  8
20
  6
CONTINUOUS
 62
   231
100
AcDbText
 10
1058.423083
 20
2586.720333
 30
0.0
 40
1.37
  1
-
  7
ROMANS
 72
     4
 11
1058.9355
 21
2587.405333
 31
0.0
210
0.0
220
0.0
230
1.0
100
AcDbText
  0
TEXT
  5
258
100
AcDbEntity
  8
20
  6
CONTINUOUS
 62
   231
100
AcDbText
 10
1042.448167
 20
2586.720333
 30
0.0
 40
1.37
  1
-
  7
ROMANS
 72
     4
 11
1042.960583
 21
2587.405333
 31
0.0
210
0.0
220
0.0
230
1.0
100
AcDbText
  0
TEXT
  5
259
100
AcDbEntity
  8
20
  6
CONTINUOUS
 62
   231
100
AcDbText
 10
1042.448167
 20
2569.826667
 30
0.0
 40
1.37
  1
-
  7
ROMANS
 72
     4
 11
1042.960583
 21
2570.511667
 31
0.0
210
0.0
220
0.0
230
1.0
100
AcDbText
  0
TEXT
  5
25A
100
AcDbEntity
  8
20
  6
CONTINUOUS
 62
   231
100
AcDbText
 10
1058.258333
 20
2569.826667
 30
0.0
 40
1.37
  1
-
  7
ROMANS
 72
     4
 11
1058.77075
 21
2570.511667
 31
0.0
210
0.0
220
0.0
230
1.0
100
AcDbText
  0
TEXT
  5
25B
100
AcDbEntity
  8
20
  6
CONTINUOUS
 62
   231
100
AcDbText
 10
1073.903917
 20
2569.826667
 30
0.0
 40
1.37
  1
-
  7
ROMANS
 72
     4
 11
1074.416333
 21
2570.511667
 31
0.0
210
0.0
220
0.0
230
1.0
100
AcDbText
  0
TEXT
  5
25C
100
AcDbEntity
  8
20
  6
CONTINUOUS
 62
   231
100
AcDbText
 10
898.06125
 20
2561.032667
 30
0.0
 40
1.37
  1
 3-#4
  7
ROMANS
210
0.0
220
0.0
230
1.0
100
AcDbText
  0
TEXT
  5
25D
100
AcDbEntity
  8
20
  6
CONTINUOUS
 62
   231
100
AcDbText
 10
898.06125
 20
2558.1785
 30
0.0
 40
1.37
  1
x 3'-0"
  7
ROMANS
210
0.0
220
0.0
230
1.0
100
AcDbText
  0
TEXT
  5
25E
100
AcDbEntity
  8
20
  6
CONTINUOUS
 62
   231
100
AcDbText
 10
913.542083
 20
2561.032667
 30
0.0
 40
1.37
  1
 3-#4
  7
ROMANS
210
0.0
220
0.0
230
1.0
100
AcDbText
  0
TEXT
  5
25F
100
AcDbEntity
  8
20
  6
CONTINUOUS
 62
   231
100
AcDbText
 10
913.542083
 20
2558.1785
 30
0.0
 40
1.37
  1
x 3'-0"
  7
ROMANS
210
0.0
220
0.0
230
1.0
100
AcDbText
  0
TEXT
  5
260
100
AcDbEntity
  8
20
  6
CONTINUOUS
 62
   231
100
AcDbText
 10
929.022917
 20
2561.032667
 30
0.0
 40
1.37
  1
 3-#4
  7
ROMANS
210
0.0
220
0.0
230
1.0
100
AcDbText
  0
TEXT
  5
261
100
AcDbEntity
  8
20
  6
CONTINUOUS
 62
   231
100
AcDbText
 10
929.022917
 20
2558.1785
 30
0.0
 40
1.37
  1
x 3'-0"
  7
ROMANS
210
0.0
220
0.0
230
1.0
100
AcDbText
  0
TEXT
  5
262
100
AcDbEntity
  8
20
  6
CONTINUOUS
 62
   231
100
AcDbText
 10
991.7455
 20
2561.147333
 30
0.0
 40
1.37
  1
 3-#4
  7
ROMANS
210
0.0
220
0.0
230
1.0
100
AcDbText
  0
TEXT
  5
263
100
AcDbEntity
  8
20
  6
CONTINUOUS
 62
   231
100
AcDbText
 10
991.7455
 20
2558.293167
 30
0.0
 40
1.37
  1
x 4'-0"
  7
ROMANS
210
0.0
220
0.0
230
1.0
100
AcDbText
  0
TEXT
  5
264
100
AcDbEntity
  8
20
  6
CONTINUOUS
 62
   231
100
AcDbText
 10
1006.896917
 20
2561.147333
 30
0.0
 40
1.37
  1
 3-#4
  7
ROMANS
210
0.0
220
0.0
230
1.0
100
AcDbText
  0
TEXT
  5
265
100
AcDbEntity
  8
20
  6
CONTINUOUS
 62
   231
100
AcDbText
 10
1006.896917
 20
2558.293167
 30
0.0
 40
1.37
  1
x 4'-0"
  7
ROMANS
210
0.0
220
0.0
230
1.0
100
AcDbText
  0
TEXT
  5
266
100
AcDbEntity
  8
20
  6
CONTINUOUS
 62
   231
100
AcDbText
 10
1038.4465
 20
2560.978333
 30
0.0
 40
1.37
  1
 3-#4
  7
ROMANS
210
0.0
220
0.0
230
1.0
100
AcDbText
  0
TEXT
  5
267
100
AcDbEntity
  8
20
  6
CONTINUOUS
 62
   231
100
AcDbText
 10
1038.4465
 20
2558.124167
 30
0.0
 40
1.37
  1
x 4'-6"
  7
ROMANS
210
0.0
220
0.0
230
1.0
100
AcDbText
  0
TEXT
  5
268
100
AcDbEntity
  8
20
  6
CONTINUOUS
 62
   231
100
AcDbText
 10
1070.3025
 20
2561.147333
 30
0.0
 40
1.37
  1
 3-#4
  7
ROMANS
210
0.0
220
0.0
230
1.0
100
AcDbText
  0
TEXT
  5
269
100
AcDbEntity
  8
20
  6
CONTINUOUS
 62
   231
100
AcDbText
 10
1070.3025
 20
2558.293167
 30
0.0
 40
1.37
  1
x 5'-0"
  7
ROMANS
210
0.0
220
0.0
230
1.0
100
AcDbText
  0
TEXT
  5
26A
100
AcDbEntity
  8
20
  6
CONTINUOUS
 62
   231
100
AcDbText
 10
1054.49225
 20
2561.147333
 30
0.0
 40
1.37
  1
 3-#4
  7
ROMANS
210
0.0
220
0.0
230
1.0
100
AcDbText
  0
TEXT
  5
26B
100
AcDbEntity
  8
20
  6
CONTINUOUS
 62
   231
100
AcDbText
 10
1054.49225
 20
2558.293167
 30
0.0
 40
1.37
  1
x 5'-0"
  7
ROMANS
210
0.0
220
0.0
230
1.0
100
AcDbText
  0
TEXT
  5
26C
100
AcDbEntity
  8
20
  6
CONTINUOUS
 62
     7
100
AcDbText
 10
898.19875
 20
2516.334917
 30
0.0
 40
1.369917
  1
2'-11 1/4 "
 41
1.000061
  7
MONOTXT
 72
     1
 11
901.904167
 21
2516.334917
 31
0.0
210
0.0
220
0.0
230
1.0
100
AcDbText
  0
TEXT
  5
26D
100
AcDbEntity
  8
20
  6
CONTINUOUS
 62
     7
100
AcDbText
 10
914.2525
 20
2516.334917
 30
0.0
 40
1.369917
  1
1'-10 1/2 "
 41
1.000061
  7
MONOTXT
 72
     1
 11
917.957917
 21
2516.334917
 31
0.0
210
0.0
220
0.0
230
1.0
100
AcDbText
  0
TEXT
  5
26E
100
AcDbEntity
  8
20
  6
CONTINUOUS
 62
     7
100
AcDbText
 10
945.283917
 20
2516.334917
 30
0.0
 40
1.369917
  1
2'-10 1/2 "
 41
1.000061
  7
MONOTXT
 72
     1
 11
949.280583
 21
2516.334917
 31
0.0
210
0.0
220
0.0
230
1.0
100
AcDbText
  0
TEXT
  5
26F
100
AcDbEntity
  8
20
  6
CONTINUOUS
 62
     7
100
AcDbText
 10
992.819417
 20
2516.334917
 30
0.0
 40
1.369917
  1
2'-9 3/4 "
 41
1.000061
  7
MONOTXT
 72
     1
 11
996.395417
 21
2516.334917
 31
0.0
210
0.0
220
0.0
230
1.0
100
AcDbText
  0
TEXT
  5
270
100
AcDbEntity
  8
20
  6
CONTINUOUS
 62
     7
100
AcDbText
 10
1009.501667
 20
2516.334917
 30
0.0
 40
1.369917
  1
1'-9"
 41
1.000061
  7
MONOTXT
 72
     1
 11
1011.6645
 21
2516.334917
 31
0.0
210
0.0
220
0.0
230
1.0
100
AcDbText
  0
TEXT
  5
271
100
AcDbEntity
  8
20
  6
CONTINUOUS
 62
   231
100
AcDbText
 10
1024.474833
 20
2554.62025
 30
0.0
 40
1.37
  1
0.15
  7
ROMANS
 72
     4
 11
1026.91275
 21
2555.30525
 31
0.0
210
0.0
220
0.0
230
1.0
100
AcDbText
  0
POINT
  5
272
100
AcDbEntity
  8
20
  6
CONTINUOUS
 62
     7
100
AcDbPoint
 10
1042.4435
 20
2533.03625
 30
0.0
  0
POINT
  5
273
100
AcDbEntity
  8
20
  6
CONTINUOUS
 62
     7
100
AcDbPoint
 10
1042.4435
 20
2526.186333
 30
0.0
  0
POINT
  5
274
100
AcDbEntity
  8
20
  6
CONTINUOUS
 62
     7
100
AcDbPoint
 10
1042.4435
 20
2516.596667
 30
0.0
  0
TEXT
  5
275
100
AcDbEntity
  8
20
  6
CONTINUOUS
 62
     7
100
AcDbText
 10
1041.985417
 20
2533.03625
 30
0.0
 40
1.37
  1
7
  7
MONOTXT
 72
     1
 11
1042.44925
 21
2533.03625
 31
0.0
210
0.0
220
0.0
230
1.0
100
AcDbText
  0
POINT
  5
276
100
AcDbEntity
  8
20
  6
CONTINUOUS
 62
     7
100
AcDbPoint
 10
1042.4435
 20
2526.186333
 30
0.0
  0
TEXT
  5
277
100
AcDbEntity
  8
20
  6
CONTINUOUS
 62
     7
100
AcDbText
 10
1040.280833
 20
2526.186333
 30
0.0
 40
1.37
  1
1'-9"
 41
0.999916
  7
MONOTXT
 72
     1
 11
1042.4435
 21
2526.186333
 31
0.0
210
0.0
220
0.0
230
1.0
100
AcDbText
  0
TEXT
  5
278
100
AcDbEntity
  8
20
  6
CONTINUOUS
 62
   231
100
AcDbText
 10
1039.634167
 20
2549.050417
 30
0.0
 40
1.37
  1
0.31
  7
ROMANS
 72
     4
 11
1041.8995
 21
2549.735417
 31
0.0
210
0.0
220
0.0
230
1.0
100
AcDbText
  0
TEXT
  5
279
100
AcDbEntity
  8
20
  6
CONTINUOUS
 62
   231
100
AcDbText
 10
1040.0255
 20
2543.67925
 30
0.0
 40
1.37
  1
0.36
  7
ROMANS
 72
     4
 11
1042.495833
 21
2544.36425
 31
0.0
210
0.0
220
0.0
230
1.0
100
AcDbText
  0
TEXT
  5
27A
100
AcDbEntity
  8
20
  6
CONTINUOUS
 62
   231
100
AcDbText
 10
1040.474667
 20
2537.525167
 30
0.0
 40
1.37
  1
6.3
  7
ROMANS
 72
     4
 11
1042.233
 21
2538.210167
 31
0.0
210
0.0
220
0.0
230
1.0
100
AcDbText
  0
TEXT
  5
27B
100
AcDbEntity
  8
20
  6
CONTINUOUS
 62
     7
100
AcDbText
 10
1039.989333
 20
2516.596667
 30
0.0
 40
1.369917
  1
2'-9"
 41
1.000061
  7
MONOTXT
 72
     1
 11
1042.443417
 21
2516.596667
 31
0.0
210
0.0
220
0.0
230
1.0
100
AcDbText
  0
TEXT
  5
27C
100
AcDbEntity
  8
20
  6
CONTINUOUS
 62
   231
100
AcDbText
 10
1039.461583
 20
2554.62025
 30
0.0
 40
1.37
  1
0.19
  7
ROMANS
 72
     4
 11
1041.8995
 21
2555.30525
 31
0.0
210
0.0
220
0.0
230
1.0
100
AcDbText
  0
POINT
  5
27D
100
AcDbEntity
  8
20
  6
CONTINUOUS
 62
     7
100
AcDbPoint
 10
1058.583083
 20
2533.03625
 30
0.0
  0
POINT
  5
27E
100
AcDbEntity
  8
20
  6
CONTINUOUS
 62
     7
100
AcDbPoint
 10
1058.583083
 20
2526.186333
 30
0.0
  0
POINT
  5
27F
100
AcDbEntity
  8
20
  6
CONTINUOUS
 62
     7
100
AcDbPoint
 10
1058.583083
 20
2516.596667
 30
0.0
  0
TEXT
  5
280
100
AcDbEntity
  8
20
  6
CONTINUOUS
 62
     7
100
AcDbText
 10
1058.130333
 20
2533.03625
 30
0.0
 40
1.37
  1
8
  7
MONOTXT
 72
     1
 11
1058.588833
 21
2533.03625
 31
0.0
210
0.0
220
0.0
230
1.0
100
AcDbText
  0
POINT
  5
281
100
AcDbEntity
  8
20
  6
CONTINUOUS
 62
     7
100
AcDbPoint
 10
1058.583083
 20
2526.186333
 30
0.0
  0
TEXT
  5
282
100
AcDbEntity
  8
20
  6
CONTINUOUS
 62
     7
100
AcDbText
 10
1056.420417
 20
2526.186333
 30
0.0
 40
1.37
  1
1'-9"
 41
0.999916
  7
MONOTXT
 72
     1
 11
1058.583083
 21
2526.186333
 31
0.0
210
0.0
220
0.0
230
1.0
100
AcDbText
  0
TEXT
  5
283
100
AcDbEntity
  8
20
  6
CONTINUOUS
 62
   231
100
AcDbText
 10
1055.601167
 20
2549.050417
 30
0.0
 40
1.37
  1
0.32
  7
ROMANS
 72
     4
 11
1058.039083
 21
2549.735417
 31
0.0
210
0.0
220
0.0
230
1.0
100
AcDbText
  0
TEXT
  5
284
100
AcDbEntity
  8
20
  6
CONTINUOUS
 62
   231
100
AcDbText
 10
1056.165083
 20
2543.67925
 30
0.0
 40
1.37
  1
0.36
  7
ROMANS
 72
     4
 11
1058.635417
 21
2544.36425
 31
0.0
210
0.0
220
0.0
230
1.0
100
AcDbText
  0
TEXT
  5
285
100
AcDbEntity
  8
20
  6
CONTINUOUS
 62
   231
100
AcDbText
 10
1056.581833
 20
2537.525167
 30
0.0
 40
1.37
  1
6.6
  7
ROMANS
 72
     4
 11
1058.3725
 21
2538.210167
 31
0.0
210
0.0
220
0.0
230
1.0
100
AcDbText
  0
TEXT
  5
286
100
AcDbEntity
  8
20
  6
CONTINUOUS
 62
     7
100
AcDbText
 10
1055.265917
 20
2516.596667
 30
0.0
 40
1.369917
  1
1'-8 1/4 "
 41
1.000061
  7
MONOTXT
 72
     1
 11
1058.583
 21
2516.596667
 31
0.0
210
0.0
220
0.0
230
1.0
100
AcDbText
  0
TEXT
  5
287
100
AcDbEntity
  8
20
  6
CONTINUOUS
 62
   231
100
AcDbText
 10
1055.547167
 20
2554.62025
 30
0.0
 40
1.37
  1
0.20
  7
ROMANS
 72
     4
 11
1058.039
 21
2555.30525
 31
0.0
210
0.0
220
0.0
230
1.0
100
AcDbText
  0
POINT
  5
288
100
AcDbEntity
  8
20
  6
CONTINUOUS
 62
     7
100
AcDbPoint
 10
1074.640333
 20
2533.03625
 30
0.0
  0
POINT
  5
289
100
AcDbEntity
  8
20
  6
CONTINUOUS
 62
     7
100
AcDbPoint
 10
1074.640333
 20
2526.186333
 30
0.0
  0
POINT
  5
28A
100
AcDbEntity
  8
20
  6
CONTINUOUS
 62
     7
100
AcDbPoint
 10
1074.640333
 20
2516.596667
 30
0.0
  0
TEXT
  5
28B
100
AcDbEntity
  8
20
  6
CONTINUOUS
 62
     7
100
AcDbText
 10
1074.187583
 20
2533.03625
 30
0.0
 40
1.37
  1
8
  7
MONOTXT
 72
     1
 11
1074.646083
 21
2533.03625
 31
0.0
210
0.0
220
0.0
230
1.0
100
AcDbText
  0
POINT
  5
28C
100
AcDbEntity
  8
20
  6
CONTINUOUS
 62
     7
100
AcDbPoint
 10
1074.640333
 20
2526.186333
 30
0.0
  0
TEXT
  5
28D
100
AcDbEntity
  8
20
  6
CONTINUOUS
 62
     7
100
AcDbText
 10
1072.477667
 20
2526.186333
 30
0.0
 40
1.37
  1
1'-9"
 41
0.999916
  7
MONOTXT
 72
     1
 11
1074.640333
 21
2526.186333
 31
0.0
210
0.0
220
0.0
230
1.0
100
AcDbText
  0
TEXT
  5
28E
100
AcDbEntity
  8
20
  6
CONTINUOUS
 62
   231
100
AcDbText
 10
1071.604417
 20
2549.050417
 30
0.0
 40
1.37
  1
0.40
  7
ROMANS
 72
     4
 11
1074.09625
 21
2549.735417
 31
0.0
210
0.0
220
0.0
230
1.0
100
AcDbText
  0
TEXT
  5
28F
100
AcDbEntity
  8
20
  6
CONTINUOUS
 62
   231
100
AcDbText
 10
1072.25475
 20
2543.67925
 30
0.0
 40
1.37
  1
0.45
  7
ROMANS
 72
     4
 11
1074.692667
 21
2544.36425
 31
0.0
210
0.0
220
0.0
230
1.0
100
AcDbText
  0
TEXT
  5
290
100
AcDbEntity
  8
20
  6
CONTINUOUS
 62
   231
100
AcDbText
 10
1072.6715
 20
2537.525167
 30
0.0
 40
1.37
  1
6.9
  7
ROMANS
 72
     4
 11
1074.429833
 21
2538.210167
 31
0.0
210
0.0
220
0.0
230
1.0
100
AcDbText
  0
TEXT
  5
291
100
AcDbEntity
  8
20
  6
CONTINUOUS
 62
     7
100
AcDbText
 10
1071.031917
 20
2516.596667
 30
0.0
 40
1.369917
  1
2'-2 1/4 "
 41
1.000061
  7
MONOTXT
 72
     1
 11
1074.64025
 21
2516.596667
 31
0.0
210
0.0
220
0.0
230
1.0
100
AcDbText
  0
TEXT
  5
292
100
AcDbEntity
  8
20
  6
CONTINUOUS
 62
   231
100
AcDbText
 10
1071.658417
 20
2554.62025
 30
0.0
 40
1.37
  1
0.25
  7
ROMANS
 72
     4
 11
1074.096333
 21
2555.30525
 31
0.0
210
0.0
220
0.0
230
1.0
100
AcDbText
  0
TEXT
  5
293
100
AcDbEntity
  8
7
  6
CONTINUOUS
 62
     7
100
AcDbText
 10
820.300583
 20
2538.849583
 30
0.0
 40
1.3625
  1
WEIGHT OF TYPICAL BEAM
  7
ROMANS
210
0.0
220
0.0
230
1.0
100
AcDbText
  0
TEXT
  5
294
100
AcDbEntity
  8
7
  6
CONTINUOUS
 62
     7
100
AcDbText
 10
936.317167
 20
2665.187083
 30
0.0
 40
2.75
  1
DESIGN DATA FOR 12" X 4'-0" PLANK BEAM
  7
TXT
 72
     1
 11
978.738833
 21
2665.187083
 31
0.0
210
0.0
220
0.0
230
1.0
100
AcDbText
  0
TEXT
  5
295
100
AcDbEntity
  8
21
  6
CONTINUOUS
 62
   103
100
AcDbText
 10
819.976917
 20
2500.602833
 30
0.0
 40
1.37
  1
1. BEAM WEIGHTS LISTED IN DESIGN TABLES IS APPROXIMATE AND IS BASED ON ZERO SKEW.
  7
MONOTXT
210
0.0
220
0.0
230
1.0
100
AcDbText
  0
TEXT
  5
296
100
AcDbEntity
  8
14
  6
CONTINUOUS
 62
   100
100
AcDbText
 10
1035.2755
 20
2460.829667
 30
0.0
 40
1.362334
  1
     DESIGN TABLE FOR 12" X 4'-0"    
  7
TXT
 72
     1
 11
1054.630583
 21
2460.829667
 31
0.0
210
0.0
220
0.0
230
1.0
100
AcDbText
  0
TEXT
  5
297
100
AcDbEntity
  8
14
  6
CONTINUOUS
 62
   100
100
AcDbText
 10
1036.733583
 20
2458.092167
 30
0.0
 40
1.362334
  1
     PRESTRESSED PLANK BEAM    
  7
TXT
 72
     1
 11
1056.014
 21
2458.092167
 31
0.0
210
0.0
220
0.0
230
1.0
100
AcDbText
  0
TEXT
  5
298
100
AcDbEntity
  8
14
  6
CONTINUOUS
 62
   100
100
AcDbText
 10
1095.29725
 20
2454.292167
 30
0.0
 40
2.349833
  1
   DESIGN TABLE FOR 12" X 4'-0" 
  7
TXT
 72
     1
 11
1124.871917
 21
2454.292167
 31
0.0
210
0.0
220
0.0
230
1.0
100
AcDbText
  0
TEXT
  5
299
100
AcDbEntity
  8
14
  6
CONTINUOUS
 62
   100
100
AcDbText
 10
1098.5185
 20
2449.704667
 30
0.0
 40
2.349833
  1
   PRESTRESSED PLANK BEAM  
  7
TXT
 72
     1
 11
1126.873833
 21
2449.704667
 31
0.0
210
0.0
220
0.0
230
1.0
100
AcDbText
  0
TEXT
  5
29A
100
AcDbEntity
  8
21
  6
CONTINUOUS
 62
   103
100
AcDbText
 10
819.500583
 20
2455.214667
 30
0.0
 40
1.37
  1
9. DEBONDING OF STRANDS IS NOT PERMITTED FOR THIS BEAM SECTION.
  7
MONOTXT
210
0.0
220
0.0
230
1.0
100
AcDbText
  0
TEXT
  5
29B
100
AcDbEntity
  8
1
  6
CONTINUOUS
 62
     7
100
AcDbText
 10
1033.915833
 20
2474.629667
 30
0.0
 40
0.7375
  1
APPROVED
 41
1.04339
  7
TXT
 11
1033.915833
 21
2475.367167
 31
0.0
210
0.0
220
0.0
230
1.0
100
AcDbText
 73
     3
  0
TEXT
  5
29C
100
AcDbEntity
  8
1
  6
CONTINUOUS
 62
     7
100
AcDbText
 10
1077.382417
 20
2474.629667
 30
0.0
 40
0.7375
  1
DATE
 41
1.04339
  7
TXT
 11
1077.382417
 21
2475.367167
 31
0.0
210
0.0
220
0.0
230
1.0
100
AcDbText
 73
     3
  0
TEXT
  5
29D
100
AcDbEntity
  8
21
  6
CONTINUOUS
 62
   103
100
AcDbText
 10
822.031583
 20
2477.087083
 30
0.0
 40
1.368916
  1
BR-B101,  BR-B102, BR-B103, AND BR-B104.
  7
MONOTXT
 11
822.031583
 21
2477.771583
 31
0.0
210
0.0
220
0.0
230
1.0
100
AcDbText
 73
     2
  0
LINE
  5
29E
100
AcDbEntity
  8
7
  6
CONTINUOUS
 62
   100
100
AcDbLine
 10
1113.375583
 20
2510.787083
 30
0.0
 11
1113.375583
 21
2662.237083
 31
0.0
  0
LINE
  5
29F
100
AcDbEntity
  8
7
  6
CONTINUOUS
 62
   100
100
AcDbLine
 10
1129.000583
 20
2510.787083
 30
0.0
 11
1129.000583
 21
2662.237083
 31
0.0
  0
LINE
  5
2A0
100
AcDbEntity
  8
7
  6
CONTINUOUS
 62
   100
100
AcDbLine
 10
1144.625583
 20
2510.787083
 30
0.0
 11
1144.625583
 21
2662.237083
 31
0.0
  0
LINE
  5
2A1
100
AcDbEntity
  8
7
  6
CONTINUOUS
 62
   100
100
AcDbLine
 10
1097.750583
 20
2510.787083
 30
0.0
 11
1097.750583
 21
2662.237083
 31
0.0
  0
TEXT
  5
2A2
100
AcDbEntity
  8
21
  6
CONTINUOUS
 62
   103
100
AcDbText
 10
1105.353167
 20
2663.807583
 30
0.0
 40
1.37
  1
(4)
  7
MONOTXT
 72
     1
 11
1106.674583
 21
2663.807583
 31
0.0
210
0.0
220
0.0
230
1.0
100
AcDbText
  0
TEXT
  5
2A3
100
AcDbEntity
  8
21
  6
CONTINUOUS
 62
   103
100
AcDbText
 10
1120.3575
 20
2663.807583
 30
0.0
 40
1.37
  1
(4)
  7
MONOTXT
 72
     1
 11
1121.678917
 21
2663.807583
 31
0.0
210
0.0
220
0.0
230
1.0
100
AcDbText
  0
TEXT
  5
2A4
100
AcDbEntity
  8
21
  6
CONTINUOUS
 62
   103
100
AcDbText
 10
1135.83075
 20
2663.807583
 30
0.0
 40
1.37
  1
(4)
  7
MONOTXT
 72
     1
 11
1137.152167
 21
2663.807583
 31
0.0
210
0.0
220
0.0
230
1.0
100
AcDbText
  0
ENDSEC
  0
SECTION
  2
OBJECTS
  0
DICTIONARY
  5
19
100
AcDbDictionary
  3
ACAD_GROUP
350
1A
  3
ACAD_MLINESTYLE
350
1B
  0
DICTIONARY
  5
1A
102
{ACAD_REACTORS
330
19
102
}
100
AcDbDictionary
  0
DICTIONARY
  5
1B
102
{ACAD_REACTORS
330
19
102
}
100
AcDbDictionary
  3
STANDARD
350
1C
  0
MLINESTYLE
  5
1C
102
{ACAD_REACTORS
330
1B
102
}
100
AcDbMlineStyle
  2
STANDARD
 70
     0
  3

 62
     0
 51
90.0
 52
90.0
 71
     2
 49
0.5
 62
   256
  6
BYLAYER
 49
-0.5
 62
   256
  6
BYLAYER
  0
ENDSEC
  0
EOF
