  0
SECTION
  2
HEADER
  9
$ACADVER
  1
AC1009
  9
$INSBASE
 10
0.0
 20
0.0
 30
0.0
  9
$EXTMIN
 10
-1.490083
 20
-0.416083
 30
0.0
  9
$EXTMAX
 10
678.589917
 20
439.623917
 30
0.0
  9
$LIMMIN
 10
0.0
 20
0.0
  9
$LIMMAX
 10
12.0
 20
9.0
  9
$ORTHOMODE
 70
     0
  9
$REGENMODE
 70
     1
  9
$FILLMODE
 70
     1
  9
$QTEXTMODE
 70
     0
  9
$MIRRTEXT
 70
     1
  9
$DRAGMODE
 70
     2
  9
$LTSCALE
 40
1.0
  9
$OSMODE
 70
     0
  9
$ATTMODE
 70
     1
  9
$TEXTSIZE
 40
0.2
  9
$TRACEWID
 40
0.05
  9
$TEXTSTYLE
  7
STANDARD
  9
$CLAYER
  8
0
  9
$CELTYPE
  6
CONTINUOUS
  9
$CECOLOR
 62
   256
  9
$DIMSCALE
 40
1.0
  9
$DIMASZ
 40
0.18
  9
$DIMEXO
 40
0.0625
  9
$DIMDLI
 40
0.38
  9
$DIMRND
 40
0.0
  9
$DIMDLE
 40
0.0
  9
$DIMEXE
 40
0.18
  9
$DIMTP
 40
0.0
  9
$DIMTM
 40
0.0
  9
$DIMTXT
 40
0.18
  9
$DIMCEN
 40
0.09
  9
$DIMTSZ
 40
0.0
  9
$DIMTOL
 70
     0
  9
$DIMLIM
 70
     0
  9
$DIMTIH
 70
     1
  9
$DIMTOH
 70
     1
  9
$DIMSE1
 70
     0
  9
$DIMSE2
 70
     0
  9
$DIMTAD
 70
     0
  9
$DIMZIN
 70
     0
  9
$DIMBLK
  1

  9
$DIMASO
 70
     1
  9
$DIMSHO
 70
     1
  9
$DIMPOST
  1

  9
$DIMAPOST
  1

  9
$DIMALT
 70
     0
  9
$DIMALTD
 70
     2
  9
$DIMALTF
 40
25.4
  9
$DIMLFAC
 40
1.0
  9
$DIMTOFL
 70
     0
  9
$DIMTVP
 40
0.0
  9
$DIMTIX
 70
     0
  9
$DIMSOXD
 70
     0
  9
$DIMSAH
 70
     0
  9
$DIMBLK1
  1

  9
$DIMBLK2
  1

  9
$DIMSTYLE
  2
STANDARD
  9
$DIMCLRD
 70
     0
  9
$DIMCLRE
 70
     0
  9
$DIMCLRT
 70
     0
  9
$DIMTFAC
 40
1.0
  9
$DIMGAP
 40
0.09
  9
$LUNITS
 70
     2
  9
$LUPREC
 70
     4
  9
$AXISMODE
 70
     0
  9
$AXISUNIT
 10
0.0
 20
0.0
  9
$SKETCHINC
 40
0.1
  9
$FILLETRAD
 40
0.0
  9
$AUNITS
 70
     0
  9
$AUPREC
 70
     0
  9
$MENU
  1
acad
  9
$ELEVATION
 40
0.0
  9
$PELEVATION
 40
0.0
  9
$THICKNESS
 40
0.0
  9
$LIMCHECK
 70
     0
  9
$BLIPMODE
 70
     1
  9
$CHAMFERA
 40
0.0
  9
$CHAMFERB
 40
0.0
  9
$SKPOLY
 70
     0
  9
$TDCREATE
 40
2451803.423981482
  9
$TDUPDATE
 40
2451803.423981482
  9
$TDINDWG
 40
0.0000000000
  9
$TDUSRTIMER
 40
0.0000000000
  9
$USRTIMER
 70
     1
  9
$ANGBASE
 50
0.0
  9
$ANGDIR
 70
     0
  9
$PDMODE
 70
     0
  9
$PDSIZE
 40
0.0
  9
$PLINEWID
 40
0.0
  9
$COORDS
 70
     0
  9
$SPLFRAME
 70
     0
  9
$SPLINETYPE
 70
     6
  9
$SPLINESEGS
 70
    10
  9
$ATTDIA
 70
     0
  9
$ATTREQ
 70
     1
  9
$HANDLING
 70
     1
  9
$HANDSEED
  5
391
  9
$SURFTAB1
 70
     6
  9
$SURFTAB2
 70
     6
  9
$SURFTYPE
 70
     6
  9
$SURFU
 70
     6
  9
$SURFV
 70
     6
  9
$UCSNAME
  2

  9
$UCSORG
 10
0.0
 20
0.0
 30
0.0
  9
$UCSXDIR
 10
1.0
 20
0.0
 30
0.0
  9
$UCSYDIR
 10
0.0
 20
1.0
 30
0.0
  9
$PUCSNAME
  2

  9
$PUCSORG
 10
0.0
 20
0.0
 30
0.0
  9
$PUCSXDIR
 10
1.0
 20
0.0
 30
0.0
  9
$PUCSYDIR
 10
0.0
 20
1.0
 30
0.0
  9
$USERI1
 70
     0
  9
$USERI2
 70
     0
  9
$USERI3
 70
     0
  9
$USERI4
 70
     0
  9
$USERI5
 70
     0
  9
$USERR1
 40
0.0
  9
$USERR2
 40
0.0
  9
$USERR3
 40
0.0
  9
$USERR4
 40
0.0
  9
$USERR5
 40
0.0
  9
$WORLDVIEW
 70
     1
  9
$SHADEDGE
 70
     3
  9
$SHADEDIF
 70
    70
  9
$TILEMODE
 70
     1
  9
$MAXACTVP
 70
    16
  9
$PINSBASE
 10
0.0
 20
0.0
 30
0.0
  9
$PLIMCHECK
 70
     0
  9
$PEXTMIN
 10
-1.000000E+20
 20
-1.000000E+20
 30
-1.000000E+20
  9
$PEXTMAX
 10
-1.000000E+20
 20
-1.000000E+20
 30
-1.000000E+20
  9
$PLIMMIN
 10
0.0
 20
0.0
  9
$PLIMMAX
 10
12.0
 20
9.0
  9
$UNITMODE
 70
     0
  9
$VISRETAIN
 70
     0
  9
$PLINEGEN
 70
     1
  9
$PSLTSCALE
 70
     0
  9
$TREEDEPTH
 70
  3020
  9
$DWGCODEPAGE
  3
ansi_1252
  0
ENDSEC
  0
SECTION
  2
TABLES
  0
TABLE
  2
VPORT
 70
     1
  0
VPORT
  2
*ACTIVE
 70
     0
 10
0.0
 20
0.0
 11
1.0
 21
1.0
 12
0.0
 22
0.0
 13
0.0
 23
0.0
 14
0.0
 24
0.0
 15
0.0
 25
0.0
 16
0.0
 26
0.0
 36
1.0
 17
175.574224
 27
170.833792
 37
0.0
 40
708.904083
 41
1.795122
 42
50.0
 43
0.084167
 44
0.0
 50
0.0
 51
0.0
 71
     0
 72
   100
 73
     1
 74
     0
 75
     0
 76
     0
 77
     0
 78
     0
  0
ENDTAB
  0
TABLE
  2
LTYPE
 70
     7
  0
LTYPE
  2
CONTINUOUS
 70
     0
  3
Solid line
 72
    65
 73
     0
 40
0.0
  0
LTYPE
  2
DOT
 70
    64
  3
. . . . . . . . . . . . . . . . . . . . . . . . . . . . . . . . .
 72
    65
 73
     2
 40
0.25
 49
0.0
 49
-0.25
  0
LTYPE
  2
HIDDEN
 70
    64
  3
__ __ __ __ __ __ __ __ __ __ __ __ __ __ __ __ __ __ __ __ __ 
 72
    65
 73
     2
 40
0.375
 49
0.25
 49
-0.125
  0
LTYPE
  2
DASHED
 70
    64
  3
__ __ __ __ __ __ __ __ __ __ __ __ __ __ __ __ __ __ __ __ __
 72
    65
 73
     2
 40
0.75
 49
0.5
 49
-0.25
  0
LTYPE
  2
DASHDOT
 70
    64
  3
__ . __ . __ . __ . __ . __ . __ . __ . __ . __ . __ . __ . _
 72
    65
 73
     4
 40
1.0
 49
0.5
 49
-0.25
 49
0.0
 49
-0.25
  0
LTYPE
  2
DIVIDE
 70
    64
  3
____ . . ____ . . ____ . . ____ . . ____ . . ____ . . ____ . .
 72
    65
 73
     6
 40
1.25
 49
0.5
 49
-0.25
 49
0.0
 49
-0.25
 49
0.0
 49
-0.25
  0
LTYPE
  2
CENTER
 70
    64
  3
____ _ ____ _ ____ _ ____ _ ____ _ ____ _ ____ _ ____ _ ____ _
 72
    65
 73
     4
 40
2.0
 49
1.25
 49
-0.25
 49
0.25
 49
-0.25
  0
ENDTAB
  0
TABLE
  2
LAYER
 70
     5
  0
LAYER
  2
0
 70
     0
 62
     7
  6
CONTINUOUS
  0
LAYER
  2
CONSTRUCTION_CLASS
 70
     0
 62
     7
  6
CONTINUOUS
  0
LAYER
  2
PATTERN_CLASS
 70
     0
 62
     7
  6
CONTINUOUS
  0
LAYER
  2
61
 70
    64
 62
     7
  6
CONTINUOUS
  0
LAYER
  2
1
 70
    64
 62
     7
  6
CONTINUOUS
  0
ENDTAB
  0
TABLE
  2
STYLE
 70
     4
  0
STYLE
  2
STANDARD
 70
     0
 40
0.0
 41
1.0
 50
0.0
 71
     0
 42
0.0
  3
txt
  4

  0
STYLE
  2
MONOTXT
 70
     0
 40
0.2
 41
1.0
 50
0.0
 71
     0
 42
0.2
  3
MONOTXT
  4

  0
STYLE
  2
txt
 70
     0
 40
0.2
 41
1.0
 50
0.0
 71
     0
 42
0.2
  3
TXT
  4

  0
STYLE
  2
ROMANT
 70
     0
 40
0.2
 41
1.0
 50
0.0
 71
     0
 42
0.2
  3
ROMANT
  4

  0
ENDTAB
  0
TABLE
  2
VIEW
 70
     0
  0
ENDTAB
  0
TABLE
  2
UCS
 70
     0
  0
ENDTAB
  0
TABLE
  2
APPID
 70
     1
  0
APPID
  2
ACAD
 70
     0
  0
ENDTAB
  0
TABLE
  2
DIMSTYLE
 70
     1
  0
DIMSTYLE
  2
STANDARD
 70
     0
  3

  4

  5

  6

  7

 40
1.0
 41
0.18
 42
0.0625
 43
0.38
 44
0.18
 45
0.0
 46
0.0
 47
0.0
 48
0.0
140
0.18
141
0.09
142
0.0
143
25.4
144
1.0
145
0.0
146
1.0
147
0.09
 71
     0
 72
     0
 73
     1
 74
     1
 75
     0
 76
     0
 77
     0
 78
     0
170
     0
171
     2
172
     0
173
     0
174
     0
175
     0
176
     0
177
     0
178
     0
  0
ENDTAB
  0
ENDSEC
  0
SECTION
  2
BLOCKS
  0
BLOCK
  8
1
  6
CONTINUOUS
 62
     1
  5
AE
  2
LDR
 70
     0
 10
0.0
 20
0.0
 30
0.0
  3
LNR
  0
POLYLINE
  8
1
  6
CONTINUOUS
 62
     1
  5
AF
 66
     1
 10
0.0
 20
0.0
 30
0.0
210
0.0
220
0.0
230
1.0
  0
VERTEX
  8
1
  6
CONTINUOUS
 62
     1
  5
B0
 10
-0.011987
 20
-0.001802
 30
0.0
 42
-0.265147
  0
VERTEX
  8
1
  6
CONTINUOUS
 62
     1
  5
B1
 10
-0.011849
 20
-0.001604
 30
0.0
 42
-0.064653
  0
VERTEX
  8
1
  6
CONTINUOUS
 62
     1
  5
B2
 10
-0.011407
 20
-0.001387
 30
0.0
 42
-0.025822
  0
VERTEX
  8
1
  6
CONTINUOUS
 62
     1
  5
B3
 10
-0.010681
 20
-0.00116
 30
0.0
 42
-0.014504
  0
VERTEX
  8
1
  6
CONTINUOUS
 62
     1
  5
B4
 10
-0.0097
 20
-0.000933
 30
0.0
 42
-0.009896
  0
VERTEX
  8
1
  6
CONTINUOUS
 62
     1
  5
B5
 10
-0.008505
 20
-0.000715
 30
0.0
 42
-0.007708
  0
VERTEX
  8
1
  6
CONTINUOUS
 62
     1
  5
B6
 10
-0.007146
 20
-0.000515
 30
0.0
 42
-0.006655
  0
VERTEX
  8
1
  6
CONTINUOUS
 62
     1
  5
B7
 10
-0.005679
 20
-0.000342
 30
0.0
 42
-0.006278
  0
VERTEX
  8
1
  6
CONTINUOUS
 62
     1
  5
B8
 10
-0.004164
 20
-0.000202
 30
0.0
 42
-0.006439
  0
VERTEX
  8
1
  6
CONTINUOUS
 62
     1
  5
B9
 10
-0.002666
 20
-0.000101
 30
0.0
 42
-0.007196
  0
VERTEX
  8
1
  6
CONTINUOUS
 62
     1
  5
BA
 10
-0.001246
 20
-0.000044
 30
0.0
 42
-0.008852
  0
VERTEX
  8
1
  6
CONTINUOUS
 62
     1
  5
BB
 10
0.000037
 20
-0.000034
 30
0.0
 42
-0.008852
  0
SEQEND
  8
1
  6
CONTINUOUS
 62
     1
  5
BC
  0
POLYLINE
  8
1
  6
CONTINUOUS
 62
     1
  5
BD
 66
     1
 10
0.0
 20
0.0
 30
0.0
210
0.0
220
0.0
230
1.0
  0
VERTEX
  8
1
  6
CONTINUOUS
 62
     1
  5
BE
 10
0.000039
 20
0.000014
 30
0.0
 42
-0.005019
  0
VERTEX
  8
1
  6
CONTINUOUS
 62
     1
  5
BF
 10
-0.001103
 20
0.000071
 30
0.0
 42
-0.004038
  0
VERTEX
  8
1
  6
CONTINUOUS
 62
     1
  5
C0
 10
-0.002373
 20
0.000158
 30
0.0
 42
-0.003548
  0
VERTEX
  8
1
  6
CONTINUOUS
 62
     1
  5
C1
 10
-0.003725
 20
0.00027
 30
0.0
 42
-0.003367
  0
VERTEX
  8
1
  6
CONTINUOUS
 62
     1
  5
C2
 10
-0.005111
 20
0.000405
 30
0.0
 42
-0.003436
  0
VERTEX
  8
1
  6
CONTINUOUS
 62
     1
  5
C3
 10
-0.006481
 20
0.000556
 30
0.0
 42
-0.003778
  0
VERTEX
  8
1
  6
CONTINUOUS
 62
     1
  5
C4
 10
-0.007786
 20
0.00072
 30
0.0
 42
-0.00451
  0
VERTEX
  8
1
  6
CONTINUOUS
 62
     1
  5
C5
 10
-0.008979
 20
0.000889
 30
0.0
 42
-0.00594
  0
VERTEX
  8
1
  6
CONTINUOUS
 62
     1
  5
C6
 10
-0.010018
 20
0.001058
 30
0.0
 42
-0.008921
  0
VERTEX
  8
1
  6
CONTINUOUS
 62
     1
  5
C7
 10
-0.010864
 20
0.00122
 30
0.0
 42
-0.016392
  0
VERTEX
  8
1
  6
CONTINUOUS
 62
     1
  5
C8
 10
-0.011488
 20
0.001371
 30
0.0
 42
-0.04458
  0
VERTEX
  8
1
  6
CONTINUOUS
 62
     1
  5
C9
 10
-0.011867
 20
0.001503
 30
0.0
 42
-0.317392
  0
VERTEX
  8
1
  6
CONTINUOUS
 62
     1
  5
CA
 10
-0.011987
 20
0.001614
 30
0.0
 42
-0.317392
  0
SEQEND
  8
1
  6
CONTINUOUS
 62
     1
  5
CB
  0
ENDBLK
  8
1
  6
CONTINUOUS
 62
     1
  5
CC
  0
ENDSEC
  0
SECTION
  2
ENTITIES
  0
LINE
  8
61
  6
CONTINUOUS
 62
     1
  5
29
 10
667.609917
 20
429.623917
 30
0.0
 11
28.569917
 21
429.623917
 31
0.0
  0
LINE
  8
61
  6
CONTINUOUS
 62
     1
  5
2A
 10
28.569917
 20
429.623917
 30
0.0
 11
28.569917
 21
9.603917
 31
0.0
  0
LINE
  8
61
  6
CONTINUOUS
 62
     1
  5
2B
 10
667.629917
 20
9.583917
 30
0.0
 11
28.569917
 21
9.603917
 31
0.0
  0
LINE
  8
61
  6
CONTINUOUS
 62
     1
  5
2C
 10
667.609917
 20
429.623917
 30
0.0
 11
667.629917
 21
9.583917
 31
0.0
  0
LINE
  8
61
  6
CONTINUOUS
 62
     7
  5
2D
 10
661.509917
 20
424.883917
 30
0.0
 11
553.529917
 21
424.863917
 31
0.0
  0
LINE
  8
61
  6
CONTINUOUS
 62
     7
  5
2E
 10
553.529917
 20
424.863917
 30
0.0
 11
553.529917
 21
404.863917
 31
0.0
  0
LINE
  8
61
  6
CONTINUOUS
 62
     7
  5
2F
 10
661.509917
 20
424.883917
 30
0.0
 11
661.509917
 21
404.883917
 31
0.0
  0
LINE
  8
61
  6
CONTINUOUS
 62
     7
  5
30
 10
661.509917
 20
404.883917
 30
0.0
 11
553.529917
 21
404.863917
 31
0.0
  0
LINE
  8
61
  6
CONTINUOUS
 62
     7
  5
31
 10
661.529917
 20
414.843917
 30
0.0
 11
553.509917
 21
414.863917
 31
0.0
  0
LINE
  8
61
  6
CONTINUOUS
 62
     7
  5
32
 10
563.529917
 20
424.863917
 30
0.0
 11
563.529917
 21
404.863917
 31
0.0
  0
LINE
  8
61
  6
CONTINUOUS
 62
     7
  5
33
 10
573.529917
 20
424.863917
 30
0.0
 11
573.529917
 21
404.863917
 31
0.0
  0
LINE
  8
61
  6
CONTINUOUS
 62
     7
  5
34
 10
587.209917
 20
424.863917
 30
0.0
 11
587.209917
 21
404.863917
 31
0.0
  0
LINE
  8
61
  6
CONTINUOUS
 62
     7
  5
35
 10
651.509917
 20
424.883917
 30
0.0
 11
651.509917
 21
404.883917
 31
0.0
  0
LINE
  8
61
  6
CONTINUOUS
 62
     7
  5
36
 10
641.509917
 20
424.883917
 30
0.0
 11
641.509917
 21
404.883917
 31
0.0
  0
LINE
  8
61
  6
CONTINUOUS
 62
     7
  5
37
 10
619.529917
 20
424.863917
 30
0.0
 11
619.529917
 21
404.863917
 31
0.0
  0
LINE
  8
61
  6
CONTINUOUS
 62
     7
  5
38
 10
609.529917
 20
424.863917
 30
0.0
 11
609.529917
 21
404.863917
 31
0.0
  0
TEXT
  8
61
  6
CONTINUOUS
 62
     7
  5
3A
 10
555.569917
 20
421.843917
 30
0.0
 40
1.20075
  1
PUBLIC
 50
0.033272
 41
1.001804
  7
MONOTXT
210
0.0
220
0.0
230
1.0
  0
TEXT
  8
61
  6
CONTINUOUS
 62
     7
  5
3B
 10
555.649917
 20
419.323917
 30
0.0
 40
1.20075
  1
ROADS
 50
0.124322
 41
0.996877
  7
MONOTXT
210
0.0
220
0.0
230
1.0
  0
TEXT
  8
61
  6
CONTINUOUS
 62
     7
  5
3C
 10
556.849917
 20
416.823917
 30
0.0
 40
1.20075
  1
DIV.
 50
359.931522
 41
0.994864
  7
MONOTXT
210
0.0
220
0.0
230
1.0
  0
TEXT
  8
61
  6
CONTINUOUS
 62
     7
  5
3D
 10
565.729917
 20
421.903917
 30
0.0
 40
1.20075
  1
STATE
 50
0.058969
 41
0.998196
  7
MONOTXT
210
0.0
220
0.0
230
1.0
  0
TEXT
  8
61
  6
CONTINUOUS
 62
     7
  5
3E
 10
566.609917
 20
419.403917
 30
0.0
 40
1.20075
  1
DIST.
 50
0.055889
 41
0.999584
  7
MONOTXT
210
0.0
220
0.0
230
1.0
  0
TEXT
  8
61
  6
CONTINUOUS
 62
     7
  5
3F
 10
567.189917
 20
416.883917
 30
0.0
 40
1.20075
  1
NO.
 50
359.852072
 41
0.997779
  7
MONOTXT
210
0.0
220
0.0
230
1.0
  0
TEXT
  8
61
  6
CONTINUOUS
 62
     7
  5
40
 10
577.729917
 20
421.843917
 30
0.0
 40
1.20075
  1
STATE
 50
0.058969
 41
0.998196
  7
MONOTXT
210
0.0
220
0.0
230
1.0
  0
TEXT
  8
61
  6
CONTINUOUS
 62
     7
  5
41
 10
576.649917
 20
419.423917
 30
0.0
 40
1.20075
  1
PROJECT
 50
359.908431
 41
1.000069
  7
MONOTXT
210
0.0
220
0.0
230
1.0
  0
TEXT
  8
61
  6
CONTINUOUS
 62
     7
  5
42
 10
579.389917
 20
416.883917
 30
0.0
 40
1.20075
  1
NO.
 50
0.225453
 41
0.993546
  7
MONOTXT
210
0.0
220
0.0
230
1.0
  0
TEXT
  8
61
  6
CONTINUOUS
 62
     7
  5
43
 10
595.029917
 20
420.723917
 30
0.0
 40
1.20075
  1
FEDERAL
 50
0.006714
 41
0.998543
  7
MONOTXT
210
0.0
220
0.0
230
1.0
  0
TEXT
  8
61
  6
CONTINUOUS
 62
     7
  5
44
 10
593.489917
 20
418.063917
 30
0.0
 40
1.20075
  1
PROJECT NO.
 50
359.921531
 41
1.000694
  7
MONOTXT
210
0.0
220
0.0
230
1.0
  0
TEXT
  8
61
  6
CONTINUOUS
 62
     7
  5
45
 10
611.769917
 20
420.663917
 30
0.0
 40
1.20075
  1
FISCAL
 50
359.941939
 41
0.998959
  7
MONOTXT
210
0.0
220
0.0
230
1.0
  0
TEXT
  8
61
  6
CONTINUOUS
 62
     7
  5
46
 10
612.289917
 20
417.763917
 30
0.0
 40
1.20075
  1
YEAR
 50
0.104606
 41
0.993268
  7
MONOTXT
210
0.0
220
0.0
230
1.0
  0
TEXT
  8
61
  6
CONTINUOUS
 62
     7
  5
47
 10
626.389917
 20
419.123917
 30
0.0
 40
1.20075
  1
COUNTY
 50
0.068575
 41
1.001874
  7
MONOTXT
210
0.0
220
0.0
230
1.0
  0
TEXT
  8
61
  6
CONTINUOUS
 62
     7
  5
48
 10
644.029917
 20
420.783917
 30
0.0
 40
1.20075
  1
SHEET
 50
0.058969
 41
0.997571
  7
MONOTXT
210
0.0
220
0.0
230
1.0
  0
TEXT
  8
61
  6
CONTINUOUS
 62
     7
  5
49
 10
645.449917
 20
418.063917
 30
0.0
 40
1.20075
  1
NO.
 50
359.852072
 41
0.997779
  7
MONOTXT
210
0.0
220
0.0
230
1.0
  0
TEXT
  8
61
  6
CONTINUOUS
 62
     7
  5
4A
 10
653.769917
 20
420.643917
 30
0.0
 40
1.20075
  1
TOTAL
 50
359.926039
 41
0.998543
  7
MONOTXT
210
0.0
220
0.0
230
1.0
  0
TEXT
  8
61
  6
CONTINUOUS
 62
     7
  5
4B
 10
653.309917
 20
417.943917
 30
0.0
 40
1.20075
  1
SHEETS
 50
359.958675
  7
MONOTXT
210
0.0
220
0.0
230
1.0
  0
TEXT
  8
61
  6
CONTINUOUS
 62
     7
  5
4C
 10
566.129917
 20
409.063917
 30
0.0
 40
2.401333
  1
  
 50
0.029406
 41
0.996495
  7
MONOTXT
210
0.0
220
0.0
230
1.0
  0
TEXT
  8
61
  6
CONTINUOUS
 62
     7
  5
4D
 10
643.309917
 20
408.783917
 30
0.0
 40
2.401333
  1
   
 50
0.011508
 41
1.001006
  7
MONOTXT
210
0.0
220
0.0
230
1.0
  0
TEXT
  8
61
  6
CONTINUOUS
 62
     7
  5
4E
 10
653.189917
 20
408.763917
 30
0.0
 40
2.401333
  1
   
 50
359.922128
 41
1.000555
  7
MONOTXT
210
0.0
220
0.0
230
1.0
  0
TEXT
  8
61
  6
CONTINUOUS
 62
     7
  5
4F
 10
576.569917
 20
412.163917
 30
0.0
 40
2.00675
  1
    
 50
0.054383
 41
0.993729
  7
MONOTXT
210
0.0
220
0.0
230
1.0
  0
TEXT
  8
61
  6
CONTINUOUS
 62
     7
  5
50
 10
573.649917
 20
409.143917
 30
0.0
 40
1.989583
  1
       
 50
0.064678
 41
1.000963
  7
MONOTXT
210
0.0
220
0.0
230
1.0
  0
TEXT
  8
61
  6
CONTINUOUS
 62
     7
  5
51
 10
574.609917
 20
406.243917
 30
0.0
 40
1.989583
  1
      
 50
359.958053
 41
1.000293
  7
MONOTXT
210
0.0
220
0.0
230
1.0
  0
TEXT
  8
61
  6
CONTINUOUS
 62
     7
  5
52
 10
585.569917
 20
410.883917
 30
0.0
 40
2.401333
  1
           
 50
0.011508
 41
0.998751
  7
MONOTXT
210
0.0
220
0.0
230
1.0
  0
TEXT
  8
61
  6
CONTINUOUS
 62
     7
  5
53
 10
585.449917
 20
407.223917
 30
0.0
 40
2.401333
  1
           
 50
0.011508
 41
0.999584
  7
MONOTXT
210
0.0
220
0.0
230
1.0
  0
TEXT
  8
61
  6
CONTINUOUS
 62
     7
  5
54
 10
620.789917
 20
408.963917
 30
0.0
 40
2.00675
  1
          
 50
0.009222
 41
0.992774
  7
MONOTXT
210
0.0
220
0.0
230
1.0
  0
ARC
  8
61
  6
CONTINUOUS
 62
     3
  5
55
 10
10.267673
 20
340.865212
 30
0.0
 40
2.499998
 50
323.130094
 51
316.232156
210
0.0
220
0.0
230
1.0
  0
ARC
  8
61
  6
CONTINUOUS
 62
     3
  5
56
 10
10.267673
 20
285.865212
 30
0.0
 40
2.499998
 50
323.130094
 51
315.375767
210
0.0
220
0.0
230
1.0
  0
ARC
  8
61
  6
CONTINUOUS
 62
     3
  5
57
 10
9.987673
 20
137.425212
 30
0.0
 40
2.499998
 50
322.671753
 51
321.716147
210
0.0
220
0.0
230
1.0
  0
ARC
  8
61
  6
CONTINUOUS
 62
     3
  5
58
 10
9.987673
 20
82.425212
 30
0.0
 40
2.499998
 50
323.130094
 51
312.314392
210
0.0
220
0.0
230
1.0
  0
LINE
  8
61
  6
CONTINUOUS
 62
     2
  5
59
 10
12.289917
 20
340.863917
 30
0.0
 11
20.269917
 21
340.883917
 31
0.0
  0
LINE
  8
61
  6
CONTINUOUS
 62
     2
  5
5A
 10
12.269917
 20
285.863917
 30
0.0
 11
20.269917
 21
285.863917
 31
0.0
  0
LINE
  8
61
  6
CONTINUOUS
 62
     2
  5
5B
 10
11.989917
 20
137.443917
 30
0.0
 11
19.989917
 21
137.443917
 31
0.0
  0
LINE
  8
61
  6
CONTINUOUS
 62
     2
  5
5C
 10
12.009917
 20
82.423917
 30
0.0
 11
19.989917
 21
82.423917
 31
0.0
  0
LINE
  8
61
  6
DASHED
 62
     1
  5
5D
 10
-1.430083
 20
439.623917
 30
0.0
 11
678.589917
 21
439.623917
 31
0.0
  0
LINE
  8
61
  6
DASHED
 62
     1
  5
5E
 10
678.569917
 20
-0.396083
 30
0.0
 11
-1.490083
 21
-0.416083
 31
0.0
  0
TEXT
  8
61
  6
CONTINUOUS
 62
     7
  5
5F
 10
654.409917
 20
384.963917
 30
0.0
 40
2.401333
  1
     
 41
1.001388
  7
MONOTXT
210
0.0
220
0.0
230
1.0
  0
LINE
  8
1
  6
HIDDEN
 62
     1
  5
61
 10
678.589917
 20
439.623917
 30
0.0
 11
678.569917
 21
-0.396083
 31
0.0
  0
LINE
  8
1
  6
HIDDEN
 62
     1
  5
62
 10
-1.430083
 20
439.623917
 30
0.0
 11
-1.490083
 21
-0.416083
 31
0.0
  0
TEXT
  8
1
  6
CONTINUOUS
 62
     1
  5
64
 10
633.349917
 20
7.083917
 30
0.0
 40
1.2
  1
TRAFFIC ENGINEERING DIVISION
  7
txt
210
0.0
220
0.0
230
1.0
  0
LINE
  8
1
  6
CONTINUOUS
 62
     7
  5
65
 10
495.969917
 20
9.583917
 30
0.0
 11
495.969917
 21
101.163917
 31
0.0
  0
LINE
  8
1
  6
CONTINUOUS
 62
     7
  5
66
 10
495.969917
 20
101.163917
 30
0.0
 11
667.629917
 21
101.163917
 31
0.0
  0
LINE
  8
1
  6
CONTINUOUS
 62
     7
  5
67
 10
530.969917
 20
9.543917
 30
0.0
 11
530.969917
 21
54.503917
 31
0.0
  0
LINE
  8
1
  6
CONTINUOUS
 62
     7
  5
68
 10
530.969917
 20
54.503917
 30
0.0
 11
495.989917
 21
54.503917
 31
0.0
  0
LINE
  8
1
  6
CONTINUOUS
 62
     7
  5
69
 10
530.969917
 20
50.023917
 30
0.0
 11
495.989917
 21
50.023917
 31
0.0
  0
LINE
  8
1
  6
CONTINUOUS
 62
     7
  5
6A
 10
530.969917
 20
45.523917
 30
0.0
 11
495.989917
 21
45.523917
 31
0.0
  0
LINE
  8
1
  6
CONTINUOUS
 62
     7
  5
6B
 10
530.969917
 20
41.023917
 30
0.0
 11
495.989917
 21
41.023917
 31
0.0
  0
LINE
  8
1
  6
CONTINUOUS
 62
     7
  5
6C
 10
530.969917
 20
36.503917
 30
0.0
 11
495.989917
 21
36.503917
 31
0.0
  0
LINE
  8
1
  6
CONTINUOUS
 62
     7
  5
6D
 10
530.969917
 20
32.023917
 30
0.0
 11
495.989917
 21
32.023917
 31
0.0
  0
LINE
  8
1
  6
CONTINUOUS
 62
     7
  5
6E
 10
530.969917
 20
27.543917
 30
0.0
 11
495.989917
 21
27.543917
 31
0.0
  0
LINE
  8
1
  6
CONTINUOUS
 62
     7
  5
6F
 10
530.969917
 20
23.043917
 30
0.0
 11
495.989917
 21
23.043917
 31
0.0
  0
LINE
  8
1
  6
CONTINUOUS
 62
     7
  5
70
 10
530.969917
 20
18.543917
 30
0.0
 11
495.989917
 21
18.543917
 31
0.0
  0
LINE
  8
1
  6
CONTINUOUS
 62
     7
  5
71
 10
530.969917
 20
14.023917
 30
0.0
 11
495.989917
 21
14.023917
 31
0.0
  0
TEXT
  8
1
  6
CONTINUOUS
 62
     7
  5
72
 10
506.249917
 20
51.503917
 30
0.0
 40
1.99775
  1
REVISIONS
  7
MONOTXT
210
0.0
220
0.0
230
1.0
  0
TEXT
  8
1
  6
CONTINUOUS
 62
     7
  5
73
 10
497.929917
 20
55.503917
 30
0.0
 40
1.99775
  1
PREPARED: 09/02/75
  7
MONOTXT
210
0.0
220
0.0
230
1.0
  0
TEXT
  8
1
  6
CONTINUOUS
 62
     7
  5
75
 10
528.589917
 20
92.563917
 30
0.0
 40
4.794833
  1
WEST VIRGINIA DIVISION OF HIGHWAYS
  7
ROMANT
 72
     1
 11
582.560167
 21
97.35875
 31
0.0
210
0.0
220
0.0
230
1.0
 73
     3
  0
TEXT
  8
1
  6
CONTINUOUS
 62
     7
  5
76
 10
539.349917
 20
81.403917
 30
0.0
 40
6.992667
  1
STANDARD DETAIL
  7
txt
 72
     1
 11
583.84
 21
88.396583
 31
0.0
210
0.0
220
0.0
230
1.0
 73
     3
  0
TEXT
  8
1
  6
CONTINUOUS
 62
     7
  5
77
 10
534.809917
 20
13.623917
 30
0.0
 40
6.992667
  1
STANDARD SHEET TEL-22
  7
txt
210
0.0
220
0.0
230
1.0
  0
TEXT
  8
1
  6
CONTINUOUS
 62
     1
  5
78
 10
505.092417
 20
42.043917
 30
0.0
 40
2.0
  1
12-03-80 
  7
MONOTXT
 72
     1
 11
512.919167
 21
44.043917
 31
0.0
210
0.0
220
0.0
230
1.0
 73
     3
  0
TEXT
  8
1
  6
CONTINUOUS
 62
     1
  5
79
 10
505.345
 20
37.684917
 30
0.0
 40
2.0
  1
07-03-89
  7
MONOTXT
 72
     1
 11
512.581333
 21
39.684917
 31
0.0
210
0.0
220
0.0
230
1.0
 73
     3
  0
TEXT
  8
1
  6
CONTINUOUS
 62
     1
  5
7A
 10
506.199083
 20
33.243917
 30
0.0
 40
2.0
  1
01-26-93
  7
MONOTXT
 72
     1
 11
512.947083
 21
35.243917
 31
0.0
210
0.0
220
0.0
230
1.0
 73
     3
  0
TEXT
  8
1
  6
CONTINUOUS
 62
     1
  5
7B
 10
505.109917
 20
28.643917
 30
0.0
 40
2.0
  1
        
  7
MONOTXT
 72
     1
 11
512.77675
 21
30.643917
 31
0.0
210
0.0
220
0.0
230
1.0
 73
     3
  0
TEXT
  8
1
  6
CONTINUOUS
 62
     1
  5
7C
 10
505.269917
 20
24.163917
 30
0.0
 40
2.0
  1
        
  7
MONOTXT
 72
     1
 11
512.93675
 21
26.163917
 31
0.0
210
0.0
220
0.0
230
1.0
 73
     3
  0
TEXT
  8
1
  6
CONTINUOUS
 62
     1
  5
7D
 10
505.169917
 20
19.563917
 30
0.0
 40
2.0
  1
        
  7
MONOTXT
 72
     1
 11
512.83675
 21
21.563917
 31
0.0
210
0.0
220
0.0
230
1.0
 73
     3
  0
TEXT
  8
1
  6
CONTINUOUS
 62
     1
  5
7E
 10
505.269917
 20
14.983917
 30
0.0
 40
2.0
  1
        
  7
MONOTXT
 72
     1
 11
512.93675
 21
16.983917
 31
0.0
210
0.0
220
0.0
230
1.0
 73
     3
  0
TEXT
  8
1
  6
CONTINUOUS
 62
     1
  5
7F
 10
505.269917
 20
10.963917
 30
0.0
 40
2.0
  1
        
  7
MONOTXT
 72
     1
 11
512.93675
 21
12.963917
 31
0.0
210
0.0
220
0.0
230
1.0
 73
     3
  0
LINE
  8
1
  6
CONTINUOUS
 62
     3
  5
80
 10
72.709417
 20
348.182
 30
0.0
 11
72.709417
 21
146.182
 31
0.0
  0
LINE
  8
1
  6
CONTINUOUS
 62
     3
  5
81
 10
248.709417
 20
348.182
 30
0.0
 11
248.709417
 21
146.182
 31
0.0
  0
LINE
  8
1
  6
CONTINUOUS
 62
     3
  5
82
 10
72.709417
 20
348.182
 30
0.0
 11
248.709417
 21
348.182
 31
0.0
  0
LINE
  8
1
  6
CONTINUOUS
 62
     3
  5
83
 10
72.709417
 20
146.182
 30
0.0
 11
248.709417
 21
146.182
 31
0.0
  0
LINE
  8
1
  6
CONTINUOUS
 62
     3
  5
84
 10
88.709417
 20
380.10175
 30
0.0
 11
88.709417
 21
215.182
 31
0.0
  0
LINE
  8
1
  6
CONTINUOUS
 62
     3
  5
85
 10
95.209417
 20
380.036667
 30
0.0
 11
95.209417
 21
220.182
 31
0.0
  0
LINE
  8
1
  6
CONTINUOUS
 62
     3
  5
86
 10
84.709417
 20
350.432
 30
0.0
 11
99.209417
 21
350.432
 31
0.0
  0
LINE
  8
1
  6
CONTINUOUS
 62
     3
  5
87
 10
84.709417
 20
345.932
 30
0.0
 11
99.209417
 21
345.932
 31
0.0
  0
LINE
  8
1
  6
CONTINUOUS
 62
     3
  5
88
 10
86.709417
 20
353.432
 30
0.0
 11
97.209417
 21
353.432
 31
0.0
  0
LINE
  8
1
  6
CONTINUOUS
 62
     3
  5
89
 10
86.709417
 20
342.932
 30
0.0
 11
97.209417
 21
342.932
 31
0.0
  0
LINE
  8
1
  6
CONTINUOUS
 62
     3
  5
8A
 10
84.709417
 20
350.432
 30
0.0
 11
84.709417
 21
345.932
 31
0.0
  0
LINE
  8
1
  6
CONTINUOUS
 62
     3
  5
8B
 10
99.209417
 20
350.432
 30
0.0
 11
99.209417
 21
345.932
 31
0.0
  0
LINE
  8
1
  6
CONTINUOUS
 62
     3
  5
8C
 10
86.709417
 20
353.432
 30
0.0
 11
86.709417
 21
350.432
 31
0.0
  0
LINE
  8
1
  6
CONTINUOUS
 62
     3
  5
8D
 10
97.209417
 20
353.432
 30
0.0
 11
97.209417
 21
350.432
 31
0.0
  0
LINE
  8
1
  6
CONTINUOUS
 62
     3
  5
8E
 10
86.709417
 20
342.932
 30
0.0
 11
86.709417
 21
345.932
 31
0.0
  0
LINE
  8
1
  6
CONTINUOUS
 62
     3
  5
8F
 10
97.209417
 20
342.932
 30
0.0
 11
97.209417
 21
345.932
 31
0.0
  0
LINE
  8
1
  6
CONTINUOUS
 62
     3
  5
90
 10
91.959417
 20
364.69825
 30
0.0
 11
91.959417
 21
379.19825
 31
0.0
  0
CIRCLE
  8
1
  6
CONTINUOUS
 62
     3
  5
91
 10
92.01575
 20
385.698
 30
0.0
 40
6.5
210
0.0
220
0.0
230
1.0
  0
LINE
  8
1
  6
CONTINUOUS
 62
     3
  5
92
 10
90.209417
 20
364.69825
 30
0.0
 11
93.709417
 21
364.69825
 31
0.0
  0
LINE
  8
1
  6
CONTINUOUS
 62
     3
  5
93
 10
90.584417
 20
364.19825
 30
0.0
 11
93.334417
 21
364.19825
 31
0.0
  0
LINE
  8
1
  6
CONTINUOUS
 62
     3
  5
94
 10
91.084417
 20
363.69825
 30
0.0
 11
92.834417
 21
363.69825
 31
0.0
  0
LINE
  8
1
  6
CONTINUOUS
 62
     3
  5
95
 10
91.459417
 20
363.19825
 30
0.0
 11
92.459417
 21
363.19825
 31
0.0
  0
LINE
  8
1
  6
CONTINUOUS
 62
     3
  5
96
 10
91.709417
 20
362.69825
 30
0.0
 11
92.209417
 21
362.69825
 31
0.0
  0
LINE
  8
1
  6
CONTINUOUS
 62
     3
  5
97
 10
88.709417
 20
215.182
 30
0.0
 11
124.709417
 21
215.182
 31
0.0
  0
LINE
  8
1
  6
CONTINUOUS
 62
     3
  5
98
 10
95.209417
 20
220.182
 30
0.0
 11
118.209417
 21
220.182
 31
0.0
  0
LINE
  8
1
  6
CONTINUOUS
 62
     3
  5
99
 10
118.209417
 20
220.182
 30
0.0
 11
118.209417
 21
256.682
 31
0.0
  0
LINE
  8
1
  6
CONTINUOUS
 62
     3
  5
9A
 10
124.709417
 20
215.182
 30
0.0
 11
124.709417
 21
253.182
 31
0.0
  0
LINE
  8
1
  6
CONTINUOUS
 62
     3
  5
9B
 10
118.209417
 20
256.682
 30
0.0
 11
134.709417
 21
256.682
 31
0.0
  0
LINE
  8
1
  6
CONTINUOUS
 62
     3
  5
9C
 10
124.709417
 20
253.182
 30
0.0
 11
128.709417
 21
253.182
 31
0.0
  0
LINE
  8
1
  6
CONTINUOUS
 62
     3
  5
9D
 10
127.209417
 20
249.932
 30
0.0
 11
128.709417
 21
249.932
 31
0.0
  0
LINE
  8
1
  6
CONTINUOUS
 62
     3
  5
9E
 10
127.209417
 20
246.682
 30
0.0
 11
128.709417
 21
246.682
 31
0.0
  0
LINE
  8
1
  6
CONTINUOUS
 62
     3
  5
9F
 10
127.209417
 20
243.432
 30
0.0
 11
128.709417
 21
243.432
 31
0.0
  0
LINE
  8
1
  6
CONTINUOUS
 62
     3
  5
A0
 10
127.209417
 20
240.182
 30
0.0
 11
128.709417
 21
240.182
 31
0.0
  0
ARC
  8
1
  6
CONTINUOUS
 62
     3
  5
A1
 10
128.639796
 20
251.557
 30
0.0
 40
1.626491
 50
272.453244
 51
87.546753
210
0.0
220
0.0
230
1.0
  0
ARC
  8
1
  6
CONTINUOUS
 62
     3
  5
A2
 10
128.639796
 20
248.307
 30
0.0
 40
1.626491
 50
272.453244
 51
87.546753
210
0.0
220
0.0
230
1.0
  0
ARC
  8
1
  6
CONTINUOUS
 62
     3
  5
A3
 10
128.639796
 20
245.057
 30
0.0
 40
1.626491
 50
272.453244
 51
87.546753
210
0.0
220
0.0
230
1.0
  0
ARC
  8
1
  6
CONTINUOUS
 62
     3
  5
A4
 10
128.639796
 20
241.807
 30
0.0
 40
1.626491
 50
272.453244
 51
87.546753
210
0.0
220
0.0
230
1.0
  0
LINE
  8
1
  6
CONTINUOUS
 62
     3
  5
A5
 10
127.209417
 20
240.182
 30
0.0
 11
127.209417
 21
237.182
 31
0.0
  0
LINE
  8
1
  6
CONTINUOUS
 62
     3
  5
A6
 10
126.709417
 20
235.682
 30
0.0
 11
127.709417
 21
235.682
 31
0.0
  0
LINE
  8
1
  6
CONTINUOUS
 62
     3
  5
A7
 10
125.459417
 20
237.182
 30
0.0
 11
128.959417
 21
237.182
 31
0.0
  0
LINE
  8
1
  6
CONTINUOUS
 62
     3
  5
A8
 10
125.834417
 20
236.682
 30
0.0
 11
128.584417
 21
236.682
 31
0.0
  0
LINE
  8
1
  6
CONTINUOUS
 62
     3
  5
A9
 10
126.334417
 20
236.182
 30
0.0
 11
128.084417
 21
236.182
 31
0.0
  0
LINE
  8
1
  6
CONTINUOUS
 62
     3
  5
AA
 10
126.959417
 20
235.182
 30
0.0
 11
127.459417
 21
235.182
 31
0.0
  0
CIRCLE
  8
1
  6
CONTINUOUS
 62
     3
  5
AB
 10
134.709417
 20
256.682
 30
0.0
 40
0.75
210
0.0
220
0.0
230
1.0
  0
LINE
  8
1
  6
CONTINUOUS
 62
     3
  5
AC
 10
134.709417
 20
257.432
 30
0.0
 11
134.709417
 21
266.682
 31
0.0
  0
INSERT
  8
1
  6
CONTINUOUS
 62
     1
  5
CD
  2
LDR
 10
134.709417
 20
266.682
 30
0.0
 41
240.0
 42
240.0
 50
90.0
210
0.0
220
0.0
230
1.0
  0
INSERT
  8
1
  6
CONTINUOUS
 62
     1
  5
CE
  2
LDR
 10
134.709417
 20
257.432
 30
0.0
 41
240.0
 42
240.0
 50
270.0
210
0.0
220
0.0
230
1.0
  0
LINE
  8
1
  6
CONTINUOUS
 62
     3
  5
CF
 10
144.209417
 20
262.057
 30
0.0
 11
134.709417
 21
262.057
 31
0.0
  0
CIRCLE
  8
1
  6
CONTINUOUS
 62
     3
  5
D0
 10
144.209417
 20
262.057
 30
0.0
 40
0.75
210
0.0
220
0.0
230
1.0
  0
LINE
  8
1
  6
CONTINUOUS
 62
     3
  5
D1
 10
144.209417
 20
262.057
 30
0.0
 11
144.209417
 21
245.057
 31
0.0
  0
LINE
  8
1
  6
CONTINUOUS
 62
     3
  5
D2
 10
144.209417
 20
245.057
 30
0.0
 11
134.709417
 21
245.057
 31
0.0
  0
LINE
  8
1
  6
CONTINUOUS
 62
     3
  5
D3
 10
134.709417
 20
239.057
 30
0.0
 11
134.709417
 21
251.057
 31
0.0
  0
INSERT
  8
1
  6
CONTINUOUS
 62
     1
  5
D4
  2
LDR
 10
134.709417
 20
251.057
 30
0.0
 41
240.0
 42
240.0
 50
90.0
210
0.0
220
0.0
230
1.0
  0
INSERT
  8
1
  6
CONTINUOUS
 62
     1
  5
D5
  2
LDR
 10
134.709417
 20
239.057
 30
0.0
 41
240.0
 42
240.0
 50
270.0
210
0.0
220
0.0
230
1.0
  0
CIRCLE
  8
1
  6
CONTINUOUS
 62
     3
  5
D6
 10
134.64
 20
238.285833
 30
0.0
 40
0.75
210
0.0
220
0.0
230
1.0
  0
CIRCLE
  8
1
  6
CONTINUOUS
 62
     3
  5
D7
 10
144.209417
 20
245.057
 30
0.0
 40
0.75
210
0.0
220
0.0
230
1.0
  0
LINE
  8
1
  6
CONTINUOUS
 62
     3
  5
D8
 10
154.209417
 20
253.557
 30
0.0
 11
145.709417
 21
253.557
 31
0.0
  0
LINE
  8
1
  6
CONTINUOUS
 62
     3
  5
D9
 10
142.709417
 20
253.557
 30
0.0
 11
134.209417
 21
253.557
 31
0.0
  0
ARC
  8
1
  6
CONTINUOUS
 62
     3
  5
DA
 10
144.209417
 20
255.125669
 30
0.0
 40
2.17042
 50
313.718078
 51
226.281922
210
0.0
220
0.0
230
1.0
  0
CIRCLE
  8
1
  6
CONTINUOUS
 62
     3
  5
DB
 10
134.209417
 20
253.557
 30
0.0
 40
0.75
210
0.0
220
0.0
230
1.0
  0
CIRCLE
  8
1
  6
CONTINUOUS
 62
     3
  5
DC
 10
154.209417
 20
253.557
 30
0.0
 40
0.75
210
0.0
220
0.0
230
1.0
  0
LINE
  8
1
  6
CONTINUOUS
 62
     3
  5
DD
 10
154.209417
 20
253.557
 30
0.0
 11
154.209417
 21
270.057
 31
0.0
  0
LINE
  8
1
  6
CONTINUOUS
 62
     3
  5
DE
 10
154.209417
 20
270.057
 30
0.0
 11
145.709417
 21
270.057
 31
0.0
  0
LINE
  8
1
  6
CONTINUOUS
 62
     3
  5
DF
 10
142.709417
 20
270.057
 30
0.0
 11
134.209417
 21
270.057
 31
0.0
  0
ARC
  8
1
  6
CONTINUOUS
 62
     3
  5
E0
 10
144.209417
 20
271.625669
 30
0.0
 40
2.17042
 50
313.718078
 51
226.281922
210
0.0
220
0.0
230
1.0
  0
CIRCLE
  8
1
  6
CONTINUOUS
 62
     3
  5
E1
 10
134.209417
 20
270.057
 30
0.0
 40
0.75
210
0.0
220
0.0
230
1.0
  0
LINE
  8
1
  6
CONTINUOUS
 62
     3
  5
E2
 10
144.209417
 20
262.057
 30
0.0
 11
144.209417
 21
288.557
 31
0.0
  0
CIRCLE
  8
1
  6
CONTINUOUS
 62
     3
  5
E3
 10
154.209417
 20
270.057
 30
0.0
 40
0.75
210
0.0
220
0.0
230
1.0
  0
LINE
  8
1
  6
CONTINUOUS
 62
     3
  5
E4
 10
144.209417
 20
281.307
 30
0.0
 11
135.209417
 21
281.307
 31
0.0
  0
CIRCLE
  8
1
  6
CONTINUOUS
 62
     3
  5
E5
 10
135.209417
 20
281.307
 30
0.0
 40
0.75
210
0.0
220
0.0
230
1.0
  0
LINE
  8
1
  6
CONTINUOUS
 62
     3
  5
E6
 10
135.209417
 20
281.307
 30
0.0
 11
128.552
 21
283.470083
 31
0.0
  0
LINE
  8
1
  6
CONTINUOUS
 62
     3
  5
E7
 10
128.209417
 20
281.307
 30
0.0
 11
123.209417
 21
281.307
 31
0.0
  0
CIRCLE
  8
1
  6
CONTINUOUS
 62
     3
  5
E8
 10
128.209417
 20
281.307
 30
0.0
 40
0.75
210
0.0
220
0.0
230
1.0
  0
CIRCLE
  8
1
  6
CONTINUOUS
 62
     3
  5
E9
 10
123.209417
 20
281.307
 30
0.0
 40
0.75
210
0.0
220
0.0
230
1.0
  0
LINE
  8
1
  6
CONTINUOUS
 62
     3
  5
EA
 10
123.209417
 20
281.307
 30
0.0
 11
123.209417
 21
276.307
 31
0.0
  0
LINE
  8
1
  6
CONTINUOUS
 62
     3
  5
EB
 10
123.209417
 20
276.307
 30
0.0
 11
127.209417
 21
276.307
 31
0.0
  0
LINE
  8
1
  6
CONTINUOUS
 62
     3
  5
EC
 10
125.709417
 20
273.057
 30
0.0
 11
127.209417
 21
273.057
 31
0.0
  0
LINE
  8
1
  6
CONTINUOUS
 62
     3
  5
ED
 10
125.709417
 20
269.807
 30
0.0
 11
127.209417
 21
269.807
 31
0.0
  0
LINE
  8
1
  6
CONTINUOUS
 62
     3
  5
EE
 10
125.709417
 20
266.557
 30
0.0
 11
127.209417
 21
266.557
 31
0.0
  0
LINE
  8
1
  6
CONTINUOUS
 62
     3
  5
EF
 10
125.709417
 20
263.307
 30
0.0
 11
127.209417
 21
263.307
 31
0.0
  0
ARC
  8
1
  6
CONTINUOUS
 62
     3
  5
F0
 10
127.139796
 20
274.682
 30
0.0
 40
1.626491
 50
272.453244
 51
87.546753
210
0.0
220
0.0
230
1.0
  0
ARC
  8
1
  6
CONTINUOUS
 62
     3
  5
F1
 10
127.139796
 20
271.432
 30
0.0
 40
1.626491
 50
272.453244
 51
87.546753
210
0.0
220
0.0
230
1.0
  0
ARC
  8
1
  6
CONTINUOUS
 62
     3
  5
F2
 10
127.139796
 20
268.182
 30
0.0
 40
1.626491
 50
272.453244
 51
87.546753
210
0.0
220
0.0
230
1.0
  0
ARC
  8
1
  6
CONTINUOUS
 62
     3
  5
F3
 10
127.139796
 20
264.932
 30
0.0
 40
1.626491
 50
272.453244
 51
87.546753
210
0.0
220
0.0
230
1.0
  0
LINE
  8
1
  6
CONTINUOUS
 62
     3
  5
F4
 10
125.709417
 20
263.307
 30
0.0
 11
125.709417
 21
260.307
 31
0.0
  0
LINE
  8
1
  6
CONTINUOUS
 62
     3
  5
F5
 10
125.209417
 20
258.807
 30
0.0
 11
126.209417
 21
258.807
 31
0.0
  0
LINE
  8
1
  6
CONTINUOUS
 62
     3
  5
F6
 10
123.959417
 20
260.307
 30
0.0
 11
127.459417
 21
260.307
 31
0.0
  0
LINE
  8
1
  6
CONTINUOUS
 62
     3
  5
F7
 10
124.334417
 20
259.807
 30
0.0
 11
127.084417
 21
259.807
 31
0.0
  0
LINE
  8
1
  6
CONTINUOUS
 62
     3
  5
F8
 10
124.834417
 20
259.307
 30
0.0
 11
126.584417
 21
259.307
 31
0.0
  0
LINE
  8
1
  6
CONTINUOUS
 62
     3
  5
F9
 10
125.459417
 20
258.307
 30
0.0
 11
125.959417
 21
258.307
 31
0.0
  0
LINE
  8
1
  6
CONTINUOUS
 62
     3
  5
FA
 10
144.209417
 20
297.557
 30
0.0
 11
144.209417
 21
303.557
 31
0.0
  0
LINE
  8
1
  6
CONTINUOUS
 62
     3
  5
FB
 10
144.209417
 20
303.557
 30
0.0
 11
168.209417
 21
303.557
 31
0.0
  0
CIRCLE
  8
1
  6
CONTINUOUS
 62
     3
  5
FC
 10
168.209417
 20
303.557
 30
0.0
 40
0.75
210
0.0
220
0.0
230
1.0
  0
ARC
  8
1
  6
CONTINUOUS
 62
     3
  5
FD
 10
140.873121
 20
293.057
 30
0.0
 40
5.419037
 50
323.148894
 51
36.851106
210
0.0
220
0.0
230
1.0
  0
LINE
  8
1
  6
HIDDEN
 62
     3
  5
FE
 10
141.209417
 20
287.307
 30
0.0
 11
147.209417
 21
287.307
 31
0.0
  0
LINE
  8
1
  6
HIDDEN
 62
     3
  5
FF
 10
141.209417
 20
298.807
 30
0.0
 11
147.209417
 21
298.807
 31
0.0
  0
LINE
  8
1
  6
HIDDEN
 62
     3
  5
100
 10
141.209417
 20
298.807
 30
0.0
 11
141.209417
 21
287.307
 31
0.0
  0
LINE
  8
1
  6
HIDDEN
 62
     3
  5
101
 10
147.209417
 20
298.807
 30
0.0
 11
147.209417
 21
287.307
 31
0.0
  0
LINE
  8
1
  6
CONTINUOUS
 62
     3
  5
102
 10
168.209417
 20
314.682
 30
0.0
 11
168.209417
 21
206.557
 31
0.0
  0
LINE
  8
1
  6
HIDDEN
 62
     3
  5
103
 10
125.709417
 20
278.307
 30
0.0
 11
125.709417
 21
284.307
 31
0.0
  0
LINE
  8
1
  6
HIDDEN
 62
     3
  5
104
 10
137.209417
 20
278.307
 30
0.0
 11
137.209417
 21
284.307
 31
0.0
  0
LINE
  8
1
  6
HIDDEN
 62
     3
  5
105
 10
125.709417
 20
284.307
 30
0.0
 11
137.209417
 21
284.307
 31
0.0
  0
LINE
  8
1
  6
HIDDEN
 62
     3
  5
106
 10
125.709417
 20
278.307
 30
0.0
 11
137.209417
 21
278.307
 31
0.0
  0
LINE
  8
1
  6
CONTINUOUS
 62
     3
  5
107
 10
154.209417
 20
253.557
 30
0.0
 11
154.209417
 21
224.557
 31
0.0
  0
LINE
  8
1
  6
CONTINUOUS
 62
     3
  5
108
 10
154.209417
 20
224.557
 30
0.0
 11
168.209417
 21
224.557
 31
0.0
  0
CIRCLE
  8
1
  6
CONTINUOUS
 62
     3
  5
109
 10
154.209417
 20
224.557
 30
0.0
 40
0.75
210
0.0
220
0.0
230
1.0
  0
ARC
  8
1
  6
CONTINUOUS
 62
     3
  5
10A
 10
168.639796
 20
213.182
 30
0.0
 40
1.626491
 50
272.453244
 51
87.546753
210
0.0
220
0.0
230
1.0
  0
LINE
  8
1
  6
CONTINUOUS
 62
     3
  5
10B
 10
168.209417
 20
224.557
 30
0.0
 11
168.709417
 21
224.557
 31
0.0
  0
LINE
  8
1
  6
CONTINUOUS
 62
     3
  5
10C
 10
167.209417
 20
221.307
 30
0.0
 11
168.709417
 21
221.307
 31
0.0
  0
LINE
  8
1
  6
CONTINUOUS
 62
     3
  5
10D
 10
167.209417
 20
218.057
 30
0.0
 11
168.709417
 21
218.057
 31
0.0
  0
LINE
  8
1
  6
CONTINUOUS
 62
     3
  5
10E
 10
167.209417
 20
214.807
 30
0.0
 11
168.709417
 21
214.807
 31
0.0
  0
LINE
  8
1
  6
CONTINUOUS
 62
     3
  5
10F
 10
148.709417
 20
211.557
 30
0.0
 11
168.709417
 21
211.557
 31
0.0
  0
ARC
  8
1
  6
CONTINUOUS
 62
     3
  5
110
 10
168.639796
 20
222.932
 30
0.0
 40
1.626491
 50
272.453244
 51
87.546753
210
0.0
220
0.0
230
1.0
  0
ARC
  8
1
  6
CONTINUOUS
 62
     3
  5
111
 10
168.639796
 20
219.682
 30
0.0
 40
1.626491
 50
272.453244
 51
87.546753
210
0.0
220
0.0
230
1.0
  0
ARC
  8
1
  6
CONTINUOUS
 62
     3
  5
112
 10
168.639796
 20
216.432
 30
0.0
 40
1.626491
 50
272.453244
 51
87.546753
210
0.0
220
0.0
230
1.0
  0
LINE
  8
1
  6
CONTINUOUS
 62
     3
  5
113
 10
147.834417
 20
208.057
 30
0.0
 11
149.584417
 21
208.057
 31
0.0
  0
LINE
  8
1
  6
CONTINUOUS
 62
     3
  5
114
 10
148.709417
 20
211.557
 30
0.0
 11
148.709417
 21
209.057
 31
0.0
  0
LINE
  8
1
  6
CONTINUOUS
 62
     3
  5
115
 10
148.209417
 20
207.557
 30
0.0
 11
149.209417
 21
207.557
 31
0.0
  0
LINE
  8
1
  6
CONTINUOUS
 62
     3
  5
116
 10
146.959417
 20
209.057
 30
0.0
 11
150.459417
 21
209.057
 31
0.0
  0
LINE
  8
1
  6
CONTINUOUS
 62
     3
  5
117
 10
147.334417
 20
208.557
 30
0.0
 11
150.084417
 21
208.557
 31
0.0
  0
LINE
  8
1
  6
CONTINUOUS
 62
     3
  5
118
 10
148.459417
 20
207.057
 30
0.0
 11
148.959417
 21
207.057
 31
0.0
  0
CIRCLE
  8
1
  6
CONTINUOUS
 62
     3
  5
119
 10
168.209417
 20
315.432
 30
0.0
 40
0.75
210
0.0
220
0.0
230
1.0
  0
CIRCLE
  8
1
  6
CONTINUOUS
 62
     3
  5
11A
 10
168.209417
 20
323.557
 30
0.0
 40
0.75
210
0.0
220
0.0
230
1.0
  0
ARC
  8
1
  6
CONTINUOUS
 62
     3
  5
11B
 10
161.19453
 20
319.4945
 30
0.0
 40
9.136517
 50
338.742742
 51
21.257258
210
0.0
220
0.0
230
1.0
  0
LINE
  8
1
  6
CONTINUOUS
 62
     3
  5
11C
 10
168.209417
 20
341.432
 30
0.0
 11
243.709417
 21
341.432
 31
0.0
  0
LINE
  8
1
  6
CONTINUOUS
 62
     3
  5
11D
 10
198.209417
 20
334.932
 30
0.0
 11
237.709417
 21
334.932
 31
0.0
  0
LINE
  8
1
  6
CONTINUOUS
 62
     3
  5
11E
 10
168.209417
 20
324.307
 30
0.0
 11
168.209417
 21
334.932
 31
0.0
  0
LINE
  8
1
  6
CONTINUOUS
 62
     3
  5
11F
 10
168.209417
 20
334.932
 30
0.0
 11
168.209417
 21
341.432
 31
0.0
  0
LINE
  8
1
  6
CONTINUOUS
 62
     3
  5
120
 10
168.209417
 20
201.932
 30
0.0
 11
168.209417
 21
148.682
 31
0.0
  0
CIRCLE
  8
1
  6
CONTINUOUS
 62
     3
  5
121
 10
168.209417
 20
202.682
 30
0.0
 40
0.75
210
0.0
220
0.0
230
1.0
  0
ARC
  8
1
  6
CONTINUOUS
 62
     3
  5
122
 10
168.209417
 20
201.9945
 30
0.0
 40
4.5625
 50
48.887911
 51
131.112092
210
0.0
220
0.0
230
1.0
  0
LINE
  8
1
  6
CONTINUOUS
 62
     3
  5
123
 10
198.209417
 20
324.307
 30
0.0
 11
198.209417
 21
334.932
 31
0.0
  0
LINE
  8
1
  6
CONTINUOUS
 62
     3
  5
124
 10
198.209417
 20
314.682
 30
0.0
 11
198.209417
 21
206.557
 31
0.0
  0
CIRCLE
  8
1
  6
CONTINUOUS
 62
     3
  5
125
 10
198.209417
 20
315.432
 30
0.0
 40
0.75
210
0.0
220
0.0
230
1.0
  0
CIRCLE
  8
1
  6
CONTINUOUS
 62
     3
  5
126
 10
198.209417
 20
323.557
 30
0.0
 40
0.75
210
0.0
220
0.0
230
1.0
  0
ARC
  8
1
  6
CONTINUOUS
 62
     3
  5
127
 10
191.19453
 20
319.4945
 30
0.0
 40
9.136517
 50
338.742742
 51
21.257258
210
0.0
220
0.0
230
1.0
  0
LINE
  8
1
  6
CONTINUOUS
 62
     3
  5
128
 10
198.209417
 20
201.932
 30
0.0
 11
198.209417
 21
148.682
 31
0.0
  0
CIRCLE
  8
1
  6
CONTINUOUS
 62
     3
  5
129
 10
198.209417
 20
202.682
 30
0.0
 40
0.75
210
0.0
220
0.0
230
1.0
  0
ARC
  8
1
  6
CONTINUOUS
 62
     3
  5
12A
 10
198.209417
 20
201.9945
 30
0.0
 40
4.5625
 50
48.887911
 51
131.112092
210
0.0
220
0.0
230
1.0
  0
LINE
  8
1
  6
CONTINUOUS
 62
     3
  5
12B
 10
237.709417
 20
334.932
 30
0.0
 11
237.709417
 21
139.682
 31
0.0
  0
LINE
  8
1
  6
CONTINUOUS
 62
     3
  5
12C
 10
243.709417
 20
341.432
 30
0.0
 11
243.709417
 21
139.682
 31
0.0
  0
LINE
  8
1
  6
CONTINUOUS
 62
     3
  5
12D
 10
235.709417
 20
137.682
 30
0.0
 11
245.709417
 21
137.682
 31
0.0
  0
LINE
  8
1
  6
CONTINUOUS
 62
     3
  5
12E
 10
240.709417
 20
163.182
 30
0.0
 11
240.709417
 21
139.682
 31
0.0
  0
LINE
  8
1
  6
CONTINUOUS
 62
     3
  5
12F
 10
245.709417
 20
137.682
 30
0.0
 11
245.709417
 21
139.682
 31
0.0
  0
LINE
  8
1
  6
CONTINUOUS
 62
     3
  5
130
 10
235.709417
 20
137.682
 30
0.0
 11
235.709417
 21
139.682
 31
0.0
  0
LINE
  8
1
  6
CONTINUOUS
 62
     3
  5
131
 10
240.709417
 20
163.182
 30
0.0
 11
239.459417
 21
163.182
 31
0.0
  0
LINE
  8
1
  6
CONTINUOUS
 62
     3
  5
132
 10
228.209417
 20
163.182
 30
0.0
 11
235.959417
 21
163.182
 31
0.0
  0
LINE
  8
1
  6
CONTINUOUS
 62
     3
  5
133
 10
228.209417
 20
163.182
 30
0.0
 11
228.209417
 21
158.682
 31
0.0
  0
ARC
  8
1
  6
CONTINUOUS
 62
     3
  5
134
 10
237.709417
 20
163.201115
 30
0.0
 40
1.750104
 50
180.625817
 51
359.374183
210
0.0
220
0.0
230
1.0
  0
LINE
  8
1
  6
CONTINUOUS
 62
     3
  5
135
 10
225.86875
 20
158.682
 30
0.0
 11
236.86875
 21
158.682
 31
0.0
  0
LINE
  8
1
  6
CONTINUOUS
 62
     3
  5
136
 10
225.86875
 20
156.182
 30
0.0
 11
236.86875
 21
156.182
 31
0.0
  0
LINE
  8
1
  6
CONTINUOUS
 62
     3
  5
137
 10
225.86875
 20
158.682
 30
0.0
 11
225.86875
 21
156.182
 31
0.0
  0
LINE
  8
1
  6
CONTINUOUS
 62
     3
  5
138
 10
236.86875
 20
158.682
 30
0.0
 11
236.86875
 21
156.182
 31
0.0
  0
CIRCLE
  8
1
  6
CONTINUOUS
 62
     3
  5
139
 10
226.86875
 20
157.432
 30
0.0
 40
0.5
210
0.0
220
0.0
230
1.0
  0
CIRCLE
  8
1
  6
CONTINUOUS
 62
     3
  5
13A
 10
228.86875
 20
157.432
 30
0.0
 40
0.5
210
0.0
220
0.0
230
1.0
  0
CIRCLE
  8
1
  6
CONTINUOUS
 62
     3
  5
13B
 10
230.86875
 20
157.432
 30
0.0
 40
0.5
210
0.0
220
0.0
230
1.0
  0
CIRCLE
  8
1
  6
CONTINUOUS
 62
     3
  5
13C
 10
232.86875
 20
157.432
 30
0.0
 40
0.5
210
0.0
220
0.0
230
1.0
  0
CIRCLE
  8
1
  6
CONTINUOUS
 62
     3
  5
13D
 10
234.86875
 20
157.432
 30
0.0
 40
0.5
210
0.0
220
0.0
230
1.0
  0
LINE
  8
1
  6
CONTINUOUS
 62
     3
  5
13E
 10
228.209417
 20
156.182
 30
0.0
 11
228.209417
 21
152.682
 31
0.0
  0
LINE
  8
1
  6
CONTINUOUS
 62
     3
  5
13F
 10
227.334417
 20
151.682
 30
0.0
 11
229.084417
 21
151.682
 31
0.0
  0
LINE
  8
1
  6
CONTINUOUS
 62
     3
  5
140
 10
227.709417
 20
151.182
 30
0.0
 11
228.709417
 21
151.182
 31
0.0
  0
LINE
  8
1
  6
CONTINUOUS
 62
     3
  5
141
 10
226.459417
 20
152.682
 30
0.0
 11
229.959417
 21
152.682
 31
0.0
  0
LINE
  8
1
  6
CONTINUOUS
 62
     3
  5
142
 10
226.834417
 20
152.182
 30
0.0
 11
229.584417
 21
152.182
 31
0.0
  0
LINE
  8
1
  6
CONTINUOUS
 62
     3
  5
143
 10
227.959417
 20
150.682
 30
0.0
 11
228.459417
 21
150.682
 31
0.0
  0
LINE
  8
1
  6
CONTINUOUS
 62
     3
  5
144
 10
170.331083
 20
319.4945
 30
0.0
 11
177.831083
 21
319.4945
 31
0.0
  0
LINE
  8
1
  6
CONTINUOUS
 62
     3
  5
145
 10
178.831083
 20
319.4945
 30
0.0
 11
187.831083
 21
319.4945
 31
0.0
  0
LINE
  8
1
  6
CONTINUOUS
 62
     3
  5
146
 10
188.831083
 20
319.4945
 30
0.0
 11
199.331083
 21
319.4945
 31
0.0
  0
LINE
  8
1
  6
DASHED
 62
     3
  5
147
 10
163.209417
 20
329.4945
 30
0.0
 11
203.209417
 21
329.4945
 31
0.0
  0
LINE
  8
1
  6
DASHED
 62
     3
  5
148
 10
163.209417
 20
309.4945
 30
0.0
 11
203.209417
 21
309.4945
 31
0.0
  0
LINE
  8
1
  6
DASHED
 62
     3
  5
149
 10
163.209417
 20
329.4945
 30
0.0
 11
163.209417
 21
309.4945
 31
0.0
  0
LINE
  8
1
  6
DASHED
 62
     3
  5
14A
 10
203.209417
 20
329.4945
 30
0.0
 11
203.209417
 21
309.4945
 31
0.0
  0
LINE
  8
1
  6
DASHED
 62
     3
  5
14B
 10
115.959417
 20
307.057
 30
0.0
 11
157.459417
 21
307.057
 31
0.0
  0
LINE
  8
1
  6
DASHED
 62
     3
  5
14C
 10
115.959417
 20
231.057
 30
0.0
 11
157.459417
 21
231.057
 31
0.0
  0
LINE
  8
1
  6
DASHED
 62
     3
  5
14D
 10
115.959417
 20
307.057
 30
0.0
 11
115.959417
 21
231.057
 31
0.0
  0
LINE
  8
1
  6
DASHED
 62
     3
  5
14E
 10
157.459417
 20
307.057
 30
0.0
 11
157.459417
 21
231.057
 31
0.0
  0
LINE
  8
1
  6
DASHED
 62
     3
  5
14F
 10
143.459417
 20
227.557
 30
0.0
 11
222.959417
 21
227.557
 31
0.0
  0
LINE
  8
1
  6
DASHED
 62
     3
  5
150
 10
143.459417
 20
227.557
 30
0.0
 11
143.459417
 21
197.557
 31
0.0
  0
LINE
  8
1
  6
DASHED
 62
     3
  5
151
 10
222.959417
 20
227.557
 30
0.0
 11
222.959417
 21
197.557
 31
0.0
  0
LINE
  8
1
  6
CONTINUOUS
 62
     3
  5
152
 10
224.959417
 20
185.057
 30
0.0
 11
224.959417
 21
139.682
 31
0.0
  0
LINE
  8
1
  6
CONTINUOUS
 62
     3
  5
153
 10
141.459417
 20
185.057
 30
0.0
 11
141.459417
 21
139.682
 31
0.0
  0
LINE
  8
1
  6
CONTINUOUS
 62
     3
  5
154
 10
141.459417
 20
185.057
 30
0.0
 11
161.209417
 21
185.057
 31
0.0
  0
LINE
  8
1
  6
CONTINUOUS
 62
     3
  5
155
 10
154.459417
 20
173.057
 30
0.0
 11
161.209417
 21
173.057
 31
0.0
  0
LINE
  8
1
  6
CONTINUOUS
 62
     3
  5
156
 10
205.209417
 20
179.057
 30
0.0
 11
217.959417
 21
179.057
 31
0.0
  0
LINE
  8
1
  6
CONTINUOUS
 62
     3
  5
157
 10
205.209417
 20
167.057
 30
0.0
 11
206.959417
 21
167.057
 31
0.0
  0
CIRCLE
  8
1
  6
CONTINUOUS
 62
     3
  5
158
 10
168.209417
 20
185.057
 30
0.0
 40
0.75
210
0.0
220
0.0
230
1.0
  0
CIRCLE
  8
1
  6
CONTINUOUS
 62
     3
  5
159
 10
168.209417
 20
173.057
 30
0.0
 40
0.75
210
0.0
220
0.0
230
1.0
  0
CIRCLE
  8
1
  6
CONTINUOUS
 62
     3
  5
15A
 10
198.209417
 20
167.057
 30
0.0
 40
0.75
210
0.0
220
0.0
230
1.0
  0
CIRCLE
  8
1
  6
CONTINUOUS
 62
     3
  5
15B
 10
198.209417
 20
179.057
 30
0.0
 40
0.75
210
0.0
220
0.0
230
1.0
  0
CIRCLE
  8
1
  6
CONTINUOUS
 62
     3
  5
15C
 10
165.209417
 20
185.057
 30
0.0
 40
0.75
210
0.0
220
0.0
230
1.0
  0
CIRCLE
  8
1
  6
CONTINUOUS
 62
     3
  5
15D
 10
165.209417
 20
173.057
 30
0.0
 40
0.75
210
0.0
220
0.0
230
1.0
  0
CIRCLE
  8
1
  6
CONTINUOUS
 62
     3
  5
15E
 10
201.209417
 20
179.057
 30
0.0
 40
0.75
210
0.0
220
0.0
230
1.0
  0
CIRCLE
  8
1
  6
CONTINUOUS
 62
     3
  5
15F
 10
201.209417
 20
167.057
 30
0.0
 40
0.75
210
0.0
220
0.0
230
1.0
  0
LINE
  8
1
  6
CONTINUOUS
 62
     3
  5
160
 10
148.459417
 20
179.057
 30
0.0
 11
161.209417
 21
179.057
 31
0.0
  0
LINE
  8
1
  6
CONTINUOUS
 62
     3
  5
161
 10
165.209417
 20
179.057
 30
0.0
 11
201.209417
 21
179.057
 31
0.0
  0
LINE
  8
1
  6
CONTINUOUS
 62
     3
  5
162
 10
159.459417
 20
167.057
 30
0.0
 11
161.209417
 21
167.057
 31
0.0
  0
LINE
  8
1
  6
CONTINUOUS
 62
     3
  5
163
 10
165.209417
 20
167.057
 30
0.0
 11
201.209417
 21
167.057
 31
0.0
  0
LINE
  8
1
  6
CONTINUOUS
 62
     3
  5
164
 10
165.209417
 20
173.057
 30
0.0
 11
201.209417
 21
173.057
 31
0.0
  0
LINE
  8
1
  6
CONTINUOUS
 62
     3
  5
165
 10
205.209417
 20
173.057
 30
0.0
 11
211.959417
 21
173.057
 31
0.0
  0
LINE
  8
1
  6
CONTINUOUS
 62
     3
  5
166
 10
165.209417
 20
185.057
 30
0.0
 11
201.209417
 21
185.057
 31
0.0
  0
LINE
  8
1
  6
CONTINUOUS
 62
     3
  5
167
 10
205.209417
 20
185.057
 30
0.0
 11
224.959417
 21
185.057
 31
0.0
  0
CIRCLE
  8
1
  6
CONTINUOUS
 62
     3
  5
168
 10
165.209417
 20
179.057
 30
0.0
 40
0.75
210
0.0
220
0.0
230
1.0
  0
CIRCLE
  8
1
  6
CONTINUOUS
 62
     3
  5
169
 10
165.209417
 20
167.057
 30
0.0
 40
0.75
210
0.0
220
0.0
230
1.0
  0
CIRCLE
  8
1
  6
CONTINUOUS
 62
     3
  5
16A
 10
201.209417
 20
185.057
 30
0.0
 40
0.75
210
0.0
220
0.0
230
1.0
  0
CIRCLE
  8
1
  6
CONTINUOUS
 62
     3
  5
16B
 10
201.209417
 20
173.057
 30
0.0
 40
0.75
210
0.0
220
0.0
230
1.0
  0
LINE
  8
1
  6
DASHED
 62
     3
  5
16C
 10
143.459417
 20
197.557
 30
0.0
 11
168.209417
 21
197.557
 31
0.0
  0
LINE
  8
1
  6
DASHED
 62
     3
  5
16D
 10
168.209417
 20
197.557
 30
0.0
 11
198.209417
 21
197.557
 31
0.0
  0
LINE
  8
1
  6
DASHED
 62
     3
  5
16E
 10
198.209417
 20
197.557
 30
0.0
 11
222.959417
 21
197.557
 31
0.0
  0
LINE
  8
1
  6
CONTINUOUS
 62
     3
  5
16F
 10
148.459417
 20
179.057
 30
0.0
 11
148.459417
 21
139.682
 31
0.0
  0
LINE
  8
1
  6
CONTINUOUS
 62
     3
  5
170
 10
217.959417
 20
179.057
 30
0.0
 11
217.959417
 21
139.682
 31
0.0
  0
LINE
  8
1
  6
CONTINUOUS
 62
     3
  5
171
 10
154.459417
 20
173.057
 30
0.0
 11
154.459417
 21
139.682
 31
0.0
  0
LINE
  8
1
  6
CONTINUOUS
 62
     3
  5
172
 10
211.959417
 20
173.057
 30
0.0
 11
211.959417
 21
139.682
 31
0.0
  0
LINE
  8
1
  6
CONTINUOUS
 62
     3
  5
173
 10
159.459417
 20
167.057
 30
0.0
 11
159.459417
 21
139.682
 31
0.0
  0
LINE
  8
1
  6
CONTINUOUS
 62
     3
  5
174
 10
206.959417
 20
167.057
 30
0.0
 11
206.959417
 21
139.682
 31
0.0
  0
LINE
  8
1
  6
CONTINUOUS
 62
     3
  5
175
 10
139.459417
 20
137.682
 30
0.0
 11
161.459417
 21
137.682
 31
0.0
  0
LINE
  8
1
  6
CONTINUOUS
 62
     3
  5
176
 10
204.959417
 20
137.682
 30
0.0
 11
226.959417
 21
137.682
 31
0.0
  0
LINE
  8
1
  6
CONTINUOUS
 62
     3
  5
177
 10
139.459417
 20
137.682
 30
0.0
 11
139.459417
 21
139.682
 31
0.0
  0
LINE
  8
1
  6
CONTINUOUS
 62
     3
  5
178
 10
161.459417
 20
137.682
 30
0.0
 11
161.459417
 21
139.682
 31
0.0
  0
LINE
  8
1
  6
CONTINUOUS
 62
     3
  5
179
 10
204.959417
 20
137.682
 30
0.0
 11
204.959417
 21
139.682
 31
0.0
  0
LINE
  8
1
  6
CONTINUOUS
 62
     3
  5
17A
 10
226.959417
 20
137.682
 30
0.0
 11
226.959417
 21
139.682
 31
0.0
  0
CIRCLE
  8
1
  6
CONTINUOUS
 62
     3
  5
17B
 10
161.209417
 20
185.057
 30
0.0
 40
0.75
210
0.0
220
0.0
230
1.0
  0
CIRCLE
  8
1
  6
CONTINUOUS
 62
     3
  5
17C
 10
161.209417
 20
179.057
 30
0.0
 40
0.75
210
0.0
220
0.0
230
1.0
  0
CIRCLE
  8
1
  6
CONTINUOUS
 62
     3
  5
17D
 10
161.209417
 20
173.057
 30
0.0
 40
0.75
210
0.0
220
0.0
230
1.0
  0
CIRCLE
  8
1
  6
CONTINUOUS
 62
     3
  5
17E
 10
161.209417
 20
167.057
 30
0.0
 40
0.75
210
0.0
220
0.0
230
1.0
  0
CIRCLE
  8
1
  6
CONTINUOUS
 62
     3
  5
17F
 10
205.209417
 20
185.057
 30
0.0
 40
0.75
210
0.0
220
0.0
230
1.0
  0
CIRCLE
  8
1
  6
CONTINUOUS
 62
     3
  5
180
 10
205.209417
 20
179.057
 30
0.0
 40
0.75
210
0.0
220
0.0
230
1.0
  0
CIRCLE
  8
1
  6
CONTINUOUS
 62
     3
  5
181
 10
205.209417
 20
173.057
 30
0.0
 40
0.75
210
0.0
220
0.0
230
1.0
  0
CIRCLE
  8
1
  6
CONTINUOUS
 62
     3
  5
182
 10
205.209417
 20
167.057
 30
0.0
 40
0.75
210
0.0
220
0.0
230
1.0
  0
ARC
  8
1
  6
CONTINUOUS
 62
     3
  5
183
 10
163.209417
 20
184.031006
 30
0.0
 40
3.145834
 50
53.414164
 51
126.585836
210
0.0
220
0.0
230
1.0
  0
ARC
  8
1
  6
CONTINUOUS
 62
     3
  5
184
 10
163.209417
 20
178.031006
 30
0.0
 40
3.145834
 50
53.414164
 51
126.585836
210
0.0
220
0.0
230
1.0
  0
ARC
  8
1
  6
CONTINUOUS
 62
     3
  5
185
 10
163.209417
 20
172.031006
 30
0.0
 40
3.145834
 50
53.414164
 51
126.585836
210
0.0
220
0.0
230
1.0
  0
ARC
  8
1
  6
CONTINUOUS
 62
     3
  5
186
 10
163.209417
 20
166.031006
 30
0.0
 40
3.145834
 50
53.414164
 51
126.585836
210
0.0
220
0.0
230
1.0
  0
ARC
  8
1
  6
CONTINUOUS
 62
     3
  5
187
 10
203.209417
 20
166.031006
 30
0.0
 40
3.145834
 50
53.414164
 51
126.585836
210
0.0
220
0.0
230
1.0
  0
ARC
  8
1
  6
CONTINUOUS
 62
     3
  5
188
 10
203.209417
 20
172.031006
 30
0.0
 40
3.145834
 50
53.414164
 51
126.585836
210
0.0
220
0.0
230
1.0
  0
ARC
  8
1
  6
CONTINUOUS
 62
     3
  5
189
 10
203.209417
 20
178.031006
 30
0.0
 40
3.145834
 50
53.414164
 51
126.585836
210
0.0
220
0.0
230
1.0
  0
ARC
  8
1
  6
CONTINUOUS
 62
     3
  5
18A
 10
203.209417
 20
184.031006
 30
0.0
 40
3.145834
 50
53.414164
 51
126.585836
210
0.0
220
0.0
230
1.0
  0
LINE
  8
1
  6
CONTINUOUS
 62
     3
  5
18B
 10
163.209417
 20
186.676833
 30
0.0
 11
163.209417
 21
184.676833
 31
0.0
  0
LINE
  8
1
  6
CONTINUOUS
 62
     3
  5
18C
 10
163.209417
 20
183.676833
 30
0.0
 11
163.209417
 21
181.676833
 31
0.0
  0
LINE
  8
1
  6
CONTINUOUS
 62
     3
  5
18D
 10
203.209417
 20
186.676833
 30
0.0
 11
203.209417
 21
184.676833
 31
0.0
  0
LINE
  8
1
  6
CONTINUOUS
 62
     3
  5
18E
 10
203.209417
 20
183.676833
 30
0.0
 11
203.209417
 21
181.676833
 31
0.0
  0
TEXT
  8
1
  6
CONTINUOUS
 62
     7
  5
18F
 10
90.44075
 20
383.825833
 30
0.0
 40
4.0
  1
P
  7
txt
210
0.0
220
0.0
230
1.0
  0
LINE
  8
1
  6
CONTINUOUS
 62
     7
  5
190
 10
98.07975
 20
388.038583
 30
0.0
 11
141.795167
 21
417.7355
 31
0.0
  0
LINE
  8
1
  6
CONTINUOUS
 62
     7
  5
191
 10
141.795167
 20
417.7355
 30
0.0
 11
157.99525
 21
417.7355
 31
0.0
  0
LINE
  8
1
  6
CONTINUOUS
 62
     7
  5
192
 10
97.209417
 20
353.432
 30
0.0
 11
123.975
 21
367.498833
 31
0.0
  0
LINE
  8
1
  6
CONTINUOUS
 62
     7
  5
193
 10
123.975
 20
367.498833
 30
0.0
 11
140.499083
 21
367.498833
 31
0.0
  0
LINE
  8
1
  6
CONTINUOUS
 62
     7
  5
194
 10
148.964333
 20
307.057
 30
0.0
 11
145.035167
 21
322.123833
 31
0.0
  0
LINE
  8
1
  6
CONTINUOUS
 62
     7
  5
195
 10
145.035167
 20
322.123833
 30
0.0
 11
135.639083
 21
322.123833
 31
0.0
  0
LINE
  8
1
  6
CONTINUOUS
 62
     7
  5
196
 10
203.209417
 20
316.289917
 30
0.0
 11
215.667583
 21
316.289917
 31
0.0
  0
LINE
  8
1
  6
CONTINUOUS
 62
     7
  5
197
 10
132.379417
 20
282.2265
 30
0.0
 11
139.527083
 21
293.9265
 31
0.0
  0
LINE
  8
1
  6
CONTINUOUS
 62
     7
  5
198
 10
139.527083
 20
293.9265
 30
0.0
 11
128.948917
 21
293.9265
 31
0.0
  0
LINE
  8
1
  6
CONTINUOUS
 62
     7
  5
199
 10
125.595
 20
269.294333
 30
0.0
 11
51.398583
 21
253.089
 31
0.0
  0
LINE
  8
1
  6
CONTINUOUS
 62
     7
  5
19A
 10
51.398583
 20
253.089
 30
0.0
 11
127.539083
 21
246.28275
 31
0.0
  0
LINE
  8
1
  6
CONTINUOUS
 62
     7
  5
19B
 10
200.933833
 20
227.845333
 30
0.0
 11
204.094583
 21
243.654083
 31
0.0
  0
LINE
  8
1
  6
CONTINUOUS
 62
     7
  5
19C
 10
204.094583
 20
243.654083
 30
0.0
 11
209.602583
 21
243.654083
 31
0.0
  0
INSERT
  8
1
  6
CONTINUOUS
 62
     1
  5
19D
  2
LDR
 10
98.07975
 20
388.038583
 30
0.0
 41
239.999999
 42
239.999999
 50
214.189195
210
0.0
220
0.0
230
1.0
  0
INSERT
  8
1
  6
CONTINUOUS
 62
     1
  5
19E
  2
LDR
 10
97.209417
 20
353.432
 30
0.0
 41
239.999997
 42
239.999997
 50
207.724475
210
0.0
220
0.0
230
1.0
  0
INSERT
  8
1
  6
CONTINUOUS
 62
     1
  5
19F
  2
LDR
 10
97.209417
 20
353.432
 30
0.0
 41
239.999997
 42
239.999997
 50
207.724475
210
0.0
220
0.0
230
1.0
  0
INSERT
  8
1
  6
CONTINUOUS
 62
     1
  5
1A0
  2
LDR
 10
148.964333
 20
307.057
 30
0.0
 41
240.000001
 42
240.000001
 50
284.616204
210
0.0
220
0.0
230
1.0
  0
INSERT
  8
1
  6
CONTINUOUS
 62
     1
  5
1A1
  2
LDR
 10
148.964333
 20
307.057
 30
0.0
 41
240.000001
 42
240.000001
 50
284.616204
210
0.0
220
0.0
230
1.0
  0
INSERT
  8
1
  6
CONTINUOUS
 62
     1
  5
1A2
  2
LDR
 10
132.379417
 20
282.2265
 30
0.0
 41
239.999999
 42
239.999999
 50
238.578754
210
0.0
220
0.0
230
1.0
  0
INSERT
  8
1
  6
CONTINUOUS
 62
     1
  5
1A3
  2
LDR
 10
132.379417
 20
282.2265
 30
0.0
 41
239.999999
 42
239.999999
 50
238.578754
210
0.0
220
0.0
230
1.0
  0
INSERT
  8
1
  6
CONTINUOUS
 62
     1
  5
1A4
  2
LDR
 10
203.209417
 20
316.289917
 30
0.0
 41
240.0
 42
240.0
 50
180.0
210
0.0
220
0.0
230
1.0
  0
INSERT
  8
1
  6
CONTINUOUS
 62
     1
  5
1A5
  2
LDR
 10
203.209417
 20
316.289917
 30
0.0
 41
240.0
 42
240.0
 50
180.0
210
0.0
220
0.0
230
1.0
  0
TEXT
  8
1
  6
CONTINUOUS
 62
     7
  5
1A6
 10
158.905833
 20
416.708333
 30
0.0
 40
2.5
  1
PHOTOCELL
  7
MONOTXT
210
0.0
220
0.0
230
1.0
  0
TEXT
  8
1
  6
CONTINUOUS
 62
     7
  5
1A7
 10
141.36525
 20
366.632417
 30
0.0
 40
2.5
  1
MEYERS HUB
  7
MONOTXT
210
0.0
220
0.0
230
1.0
  0
TEXT
  8
1
  6
CONTINUOUS
 62
     7
  5
1A8
 10
111.605417
 20
320.562417
 30
0.0
 40
2.5
  1
PHOTO-CELL
  7
MONOTXT
 11
111.605417
 21
323.062417
 31
0.0
210
0.0
220
0.0
230
1.0
 73
     3
  0
TEXT
  8
1
  6
CONTINUOUS
 62
     7
  5
1A9
 10
111.605417
 20
316.062417
 30
0.0
 40
2.5
  1
ISOLATION
  7
MONOTXT
 11
111.605417
 21
318.562417
 31
0.0
210
0.0
220
0.0
230
1.0
 73
     3
  0
TEXT
  8
1
  6
CONTINUOUS
 62
     7
  5
1AA
 10
111.605417
 20
311.562417
 30
0.0
 40
2.5
  1
SYSTEM
  7
MONOTXT
 11
111.605417
 21
314.062417
 31
0.0
210
0.0
220
0.0
230
1.0
 73
     3
  0
TEXT
  8
1
  6
CONTINUOUS
 62
     7
  5
1AB
 10
216.651833
 20
315.04225
 30
0.0
 40
2.5
  1
MAIN
  7
MONOTXT
 11
216.651833
 21
317.54225
 31
0.0
210
0.0
220
0.0
230
1.0
 73
     3
  0
TEXT
  8
1
  6
CONTINUOUS
 62
     7
  5
1AC
 10
216.651833
 20
310.54225
 30
0.0
 40
2.5
  1
BREAKER
  7
MONOTXT
 11
216.651833
 21
313.04225
 31
0.0
210
0.0
220
0.0
230
1.0
 73
     3
  0
TEXT
  8
1
  6
CONTINUOUS
 62
     7
  5
1AD
 10
118.7005
 20
292.764417
 30
0.0
 40
2.5
  1
HAND
  7
MONOTXT
 11
118.7005
 21
295.264417
 31
0.0
210
0.0
220
0.0
230
1.0
 73
     3
  0
TEXT
  8
1
  6
CONTINUOUS
 62
     7
  5
1AE
 10
118.7005
 20
288.264417
 30
0.0
 40
2.5
  1
SWITCH
  7
MONOTXT
 11
118.7005
 21
290.764417
 31
0.0
210
0.0
220
0.0
230
1.0
 73
     3
  0
INSERT
  8
1
  6
CONTINUOUS
 62
     1
  5
1AF
  2
LDR
 10
200.933833
 20
227.845333
 30
0.0
 41
239.999999
 42
239.999999
 50
258.693553
210
0.0
220
0.0
230
1.0
  0
TEXT
  8
1
  6
CONTINUOUS
 62
     7
  5
1B0
 10
210.133333
 20
242.633
 30
0.0
 40
2.5
  1
HEAVY DUTY
  7
MONOTXT
 11
210.133333
 21
245.133
 31
0.0
210
0.0
220
0.0
230
1.0
 73
     3
  0
TEXT
  8
1
  6
CONTINUOUS
 62
     7
  5
1B1
 10
210.133333
 20
238.133
 30
0.0
 40
2.5
  1
LIGHTING
  7
MONOTXT
 11
210.133333
 21
240.633
 31
0.0
210
0.0
220
0.0
230
1.0
 73
     3
  0
TEXT
  8
1
  6
CONTINUOUS
 62
     7
  5
1B2
 10
210.133333
 20
233.633
 30
0.0
 40
2.5
  1
CONTACTOR
  7
MONOTXT
 11
210.133333
 21
236.133
 31
0.0
210
0.0
220
0.0
230
1.0
 73
     3
  0
INSERT
  8
1
  6
CONTINUOUS
 62
     1
  5
1B3
  2
LDR
 10
125.595
 20
269.294333
 30
0.0
 41
240.0
 42
240.0
 50
12.320564
210
0.0
220
0.0
230
1.0
  0
INSERT
  8
1
  6
CONTINUOUS
 62
     1
  5
1B4
  2
LDR
 10
125.595
 20
269.294333
 30
0.0
 41
240.0
 42
240.0
 50
12.320564
210
0.0
220
0.0
230
1.0
  0
INSERT
  8
1
  6
CONTINUOUS
 62
     1
  5
1B5
  2
LDR
 10
127.539083
 20
246.28275
 30
0.0
 41
240.000001
 42
240.000001
 50
354.89187
210
0.0
220
0.0
230
1.0
  0
INSERT
  8
1
  6
CONTINUOUS
 62
     1
  5
1B6
  2
LDR
 10
127.539083
 20
246.28275
 30
0.0
 41
240.000001
 42
240.000001
 50
354.89187
210
0.0
220
0.0
230
1.0
  0
LINE
  8
1
  6
CONTINUOUS
 62
     7
  5
1B7
 10
150.301
 20
137.683583
 30
0.0
 11
157.552667
 21
127.978917
 31
0.0
  0
LINE
  8
1
  6
CONTINUOUS
 62
     7
  5
1B8
 10
157.552667
 20
127.978917
 30
0.0
 11
167.548083
 21
127.978917
 31
0.0
  0
INSERT
  8
1
  6
CONTINUOUS
 62
     1
  5
1B9
  2
LDR
 10
150.301
 20
137.683583
 30
0.0
 41
239.999998
 42
239.999998
 50
126.768373
210
0.0
220
0.0
230
1.0
  0
LINE
  8
1
  6
CONTINUOUS
 62
     7
  5
1BA
 10
215.565667
 20
137.683583
 30
0.0
 11
208.314
 21
127.978917
 31
0.0
  0
LINE
  8
1
  6
CONTINUOUS
 62
     7
  5
1BB
 10
208.314
 20
127.978917
 30
0.0
 11
198.318583
 21
127.978917
 31
0.0
  0
INSERT
  8
1
  6
CONTINUOUS
 62
     1
  5
1BC
  2
LDR
 10
215.565667
 20
137.683583
 30
0.0
 41
239.999998
 42
-239.999998
 50
53.231627
210
0.0
220
0.0
230
1.0
  0
TEXT
  8
1
  6
CONTINUOUS
 62
     7
  5
1BD
 10
168.038083
 20
126.65525
 30
0.0
 40
2.5
  1
12OV OR 24OV
  7
MONOTXT
 11
168.038083
 21
129.15525
 31
0.0
210
0.0
220
0.0
230
1.0
 73
     3
  0
TEXT
  8
1
  6
CONTINUOUS
 62
     7
  5
1BE
 10
168.038083
 20
122.15525
 30
0.0
 40
2.5
  1
CIRCUITS AS
  7
MONOTXT
 11
168.038083
 21
124.65525
 31
0.0
210
0.0
220
0.0
230
1.0
 73
     3
  0
TEXT
  8
1
  6
CONTINUOUS
 62
     7
  5
1BF
 10
168.038083
 20
117.65525
 30
0.0
 40
2.5
  1
REQUIRED
  7
MONOTXT
 11
168.038083
 21
120.15525
 31
0.0
210
0.0
220
0.0
230
1.0
 73
     3
  0
LINE
  8
1
  6
CONTINUOUS
 62
     7
  5
1C0
 10
241.0
 20
137.683583
 30
0.0
 11
248.251667
 21
127.978917
 31
0.0
  0
LINE
  8
1
  6
CONTINUOUS
 62
     7
  5
1C1
 10
248.251667
 20
127.978917
 30
0.0
 11
252.893083
 21
127.978917
 31
0.0
  0
INSERT
  8
1
  6
CONTINUOUS
 62
     1
  5
1C2
  2
LDR
 10
241.0
 20
137.683583
 30
0.0
 41
239.999998
 42
239.999998
 50
126.768373
210
0.0
220
0.0
230
1.0
  0
TEXT
  8
1
  6
CONTINUOUS
 62
     7
  5
1C3
 10
252.968083
 20
126.85425
 30
0.0
 40
2.5
  1
120/240V 3-WIRE
  7
MONOTXT
 11
252.968083
 21
129.35425
 31
0.0
210
0.0
220
0.0
230
1.0
 73
     3
  0
TEXT
  8
1
  6
CONTINUOUS
 62
     7
  5
1C4
 10
252.968083
 20
122.35425
 30
0.0
 40
2.5
  1
SINGLE 0 60Hz
  7
MONOTXT
 11
252.968083
 21
124.85425
 31
0.0
210
0.0
220
0.0
230
1.0
 73
     3
  0
TEXT
  8
1
  6
CONTINUOUS
 62
     7
  5
1C5
 10
252.968083
 20
117.85425
 30
0.0
 40
2.5
  1
SERVICE
  7
MONOTXT
 11
252.968083
 21
120.35425
 31
0.0
210
0.0
220
0.0
230
1.0
 73
     3
  0
TEXT
  8
1
  6
CONTINUOUS
 62
     7
  5
1C6
 10
268.4715
 20
122.36925
 30
0.0
 40
2.5
  1
/
  7
MONOTXT
210
0.0
220
0.0
230
1.0
  0
TEXT
  8
1
  6
CONTINUOUS
 62
     7
  5
1C7
 10
280.644
 20
121.963333
 30
0.0
 40
2.5
  1
-
  7
MONOTXT
210
0.0
220
0.0
230
1.0
  0
LINE
  8
1
  6
CONTINUOUS
 62
     3
  5
1C8
 10
312.437667
 20
346.9645
 30
0.0
 11
312.437667
 21
144.9645
 31
0.0
  0
LINE
  8
1
  6
CONTINUOUS
 62
     3
  5
1C9
 10
488.437667
 20
346.9645
 30
0.0
 11
488.437667
 21
144.9645
 31
0.0
  0
LINE
  8
1
  6
CONTINUOUS
 62
     3
  5
1CA
 10
312.437667
 20
346.9645
 30
0.0
 11
488.437667
 21
346.9645
 31
0.0
  0
LINE
  8
1
  6
CONTINUOUS
 62
     3
  5
1CB
 10
312.437667
 20
144.9645
 30
0.0
 11
488.437667
 21
144.9645
 31
0.0
  0
LINE
  8
1
  6
CONTINUOUS
 62
     3
  5
1CC
 10
328.437667
 20
378.88425
 30
0.0
 11
328.437667
 21
213.9645
 31
0.0
  0
LINE
  8
1
  6
CONTINUOUS
 62
     3
  5
1CD
 10
334.937667
 20
378.819167
 30
0.0
 11
334.937667
 21
218.9645
 31
0.0
  0
LINE
  8
1
  6
CONTINUOUS
 62
     3
  5
1CE
 10
324.437667
 20
349.2145
 30
0.0
 11
338.937667
 21
349.2145
 31
0.0
  0
LINE
  8
1
  6
CONTINUOUS
 62
     3
  5
1CF
 10
324.437667
 20
344.7145
 30
0.0
 11
338.937667
 21
344.7145
 31
0.0
  0
LINE
  8
1
  6
CONTINUOUS
 62
     3
  5
1D0
 10
326.437667
 20
352.2145
 30
0.0
 11
336.937667
 21
352.2145
 31
0.0
  0
LINE
  8
1
  6
CONTINUOUS
 62
     3
  5
1D1
 10
326.437667
 20
341.7145
 30
0.0
 11
336.937667
 21
341.7145
 31
0.0
  0
LINE
  8
1
  6
CONTINUOUS
 62
     3
  5
1D2
 10
324.437667
 20
349.2145
 30
0.0
 11
324.437667
 21
344.7145
 31
0.0
  0
LINE
  8
1
  6
CONTINUOUS
 62
     3
  5
1D3
 10
338.937667
 20
349.2145
 30
0.0
 11
338.937667
 21
344.7145
 31
0.0
  0
LINE
  8
1
  6
CONTINUOUS
 62
     3
  5
1D4
 10
326.437667
 20
352.2145
 30
0.0
 11
326.437667
 21
349.2145
 31
0.0
  0
LINE
  8
1
  6
CONTINUOUS
 62
     3
  5
1D5
 10
336.937667
 20
352.2145
 30
0.0
 11
336.937667
 21
349.2145
 31
0.0
  0
LINE
  8
1
  6
CONTINUOUS
 62
     3
  5
1D6
 10
326.437667
 20
341.7145
 30
0.0
 11
326.437667
 21
344.7145
 31
0.0
  0
LINE
  8
1
  6
CONTINUOUS
 62
     3
  5
1D7
 10
336.937667
 20
341.7145
 30
0.0
 11
336.937667
 21
344.7145
 31
0.0
  0
LINE
  8
1
  6
CONTINUOUS
 62
     3
  5
1D8
 10
331.687667
 20
363.48075
 30
0.0
 11
331.687667
 21
377.98075
 31
0.0
  0
CIRCLE
  8
1
  6
CONTINUOUS
 62
     3
  5
1D9
 10
331.744
 20
384.4805
 30
0.0
 40
6.5
210
0.0
220
0.0
230
1.0
  0
LINE
  8
1
  6
CONTINUOUS
 62
     3
  5
1DA
 10
329.937667
 20
363.48075
 30
0.0
 11
333.437667
 21
363.48075
 31
0.0
  0
LINE
  8
1
  6
CONTINUOUS
 62
     3
  5
1DB
 10
330.312667
 20
362.98075
 30
0.0
 11
333.062667
 21
362.98075
 31
0.0
  0
LINE
  8
1
  6
CONTINUOUS
 62
     3
  5
1DC
 10
330.812667
 20
362.48075
 30
0.0
 11
332.562667
 21
362.48075
 31
0.0
  0
LINE
  8
1
  6
CONTINUOUS
 62
     3
  5
1DD
 10
331.187667
 20
361.98075
 30
0.0
 11
332.187667
 21
361.98075
 31
0.0
  0
LINE
  8
1
  6
CONTINUOUS
 62
     3
  5
1DE
 10
331.437667
 20
361.48075
 30
0.0
 11
331.937667
 21
361.48075
 31
0.0
  0
LINE
  8
1
  6
CONTINUOUS
 62
     3
  5
1DF
 10
328.437667
 20
213.9645
 30
0.0
 11
364.437667
 21
213.9645
 31
0.0
  0
LINE
  8
1
  6
CONTINUOUS
 62
     3
  5
1E0
 10
334.937667
 20
218.9645
 30
0.0
 11
357.937667
 21
218.9645
 31
0.0
  0
LINE
  8
1
  6
CONTINUOUS
 62
     3
  5
1E1
 10
357.937667
 20
218.9645
 30
0.0
 11
357.937667
 21
255.4645
 31
0.0
  0
LINE
  8
1
  6
CONTINUOUS
 62
     3
  5
1E2
 10
364.437667
 20
213.9645
 30
0.0
 11
364.437667
 21
251.9645
 31
0.0
  0
LINE
  8
1
  6
CONTINUOUS
 62
     3
  5
1E3
 10
357.937667
 20
255.4645
 30
0.0
 11
374.437667
 21
255.4645
 31
0.0
  0
LINE
  8
1
  6
CONTINUOUS
 62
     3
  5
1E4
 10
364.437667
 20
251.9645
 30
0.0
 11
368.437667
 21
251.9645
 31
0.0
  0
LINE
  8
1
  6
CONTINUOUS
 62
     3
  5
1E5
 10
366.937667
 20
248.7145
 30
0.0
 11
368.437667
 21
248.7145
 31
0.0
  0
LINE
  8
1
  6
CONTINUOUS
 62
     3
  5
1E6
 10
366.937667
 20
245.4645
 30
0.0
 11
368.437667
 21
245.4645
 31
0.0
  0
LINE
  8
1
  6
CONTINUOUS
 62
     3
  5
1E7
 10
366.937667
 20
242.2145
 30
0.0
 11
368.437667
 21
242.2145
 31
0.0
  0
LINE
  8
1
  6
CONTINUOUS
 62
     3
  5
1E8
 10
366.937667
 20
238.9645
 30
0.0
 11
368.437667
 21
238.9645
 31
0.0
  0
ARC
  8
1
  6
CONTINUOUS
 62
     3
  5
1E9
 10
368.368046
 20
250.3395
 30
0.0
 40
1.626491
 50
272.453244
 51
87.546753
210
0.0
220
0.0
230
1.0
  0
ARC
  8
1
  6
CONTINUOUS
 62
     3
  5
1EA
 10
368.368046
 20
247.0895
 30
0.0
 40
1.626491
 50
272.453244
 51
87.546753
210
0.0
220
0.0
230
1.0
  0
ARC
  8
1
  6
CONTINUOUS
 62
     3
  5
1EB
 10
368.368046
 20
243.8395
 30
0.0
 40
1.626491
 50
272.453244
 51
87.546753
210
0.0
220
0.0
230
1.0
  0
ARC
  8
1
  6
CONTINUOUS
 62
     3
  5
1EC
 10
368.368046
 20
240.5895
 30
0.0
 40
1.626491
 50
272.453244
 51
87.546753
210
0.0
220
0.0
230
1.0
  0
LINE
  8
1
  6
CONTINUOUS
 62
     3
  5
1ED
 10
366.937667
 20
238.9645
 30
0.0
 11
366.937667
 21
235.9645
 31
0.0
  0
LINE
  8
1
  6
CONTINUOUS
 62
     3
  5
1EE
 10
366.437667
 20
234.4645
 30
0.0
 11
367.437667
 21
234.4645
 31
0.0
  0
LINE
  8
1
  6
CONTINUOUS
 62
     3
  5
1EF
 10
365.187667
 20
235.9645
 30
0.0
 11
368.687667
 21
235.9645
 31
0.0
  0
LINE
  8
1
  6
CONTINUOUS
 62
     3
  5
1F0
 10
365.562667
 20
235.4645
 30
0.0
 11
368.312667
 21
235.4645
 31
0.0
  0
LINE
  8
1
  6
CONTINUOUS
 62
     3
  5
1F1
 10
366.062667
 20
234.9645
 30
0.0
 11
367.812667
 21
234.9645
 31
0.0
  0
LINE
  8
1
  6
CONTINUOUS
 62
     3
  5
1F2
 10
366.687667
 20
233.9645
 30
0.0
 11
367.187667
 21
233.9645
 31
0.0
  0
CIRCLE
  8
1
  6
CONTINUOUS
 62
     3
  5
1F3
 10
374.437667
 20
255.4645
 30
0.0
 40
0.75
210
0.0
220
0.0
230
1.0
  0
LINE
  8
1
  6
CONTINUOUS
 62
     3
  5
1F4
 10
374.437667
 20
256.2145
 30
0.0
 11
374.437667
 21
265.4645
 31
0.0
  0
INSERT
  8
1
  6
CONTINUOUS
 62
     1
  5
1F5
  2
LDR
 10
374.437667
 20
265.4645
 30
0.0
 41
240.0
 42
240.0
 50
90.0
210
0.0
220
0.0
230
1.0
  0
INSERT
  8
1
  6
CONTINUOUS
 62
     1
  5
1F6
  2
LDR
 10
374.437667
 20
256.2145
 30
0.0
 41
240.0
 42
240.0
 50
270.0
210
0.0
220
0.0
230
1.0
  0
LINE
  8
1
  6
CONTINUOUS
 62
     3
  5
1F7
 10
383.937667
 20
260.8395
 30
0.0
 11
374.437667
 21
260.8395
 31
0.0
  0
CIRCLE
  8
1
  6
CONTINUOUS
 62
     3
  5
1F8
 10
383.937667
 20
260.8395
 30
0.0
 40
0.75
210
0.0
220
0.0
230
1.0
  0
LINE
  8
1
  6
CONTINUOUS
 62
     3
  5
1F9
 10
383.937667
 20
260.8395
 30
0.0
 11
383.937667
 21
243.8395
 31
0.0
  0
LINE
  8
1
  6
CONTINUOUS
 62
     3
  5
1FA
 10
383.937667
 20
243.8395
 30
0.0
 11
374.437667
 21
243.8395
 31
0.0
  0
LINE
  8
1
  6
CONTINUOUS
 62
     3
  5
1FB
 10
374.437667
 20
237.8395
 30
0.0
 11
374.437667
 21
249.8395
 31
0.0
  0
INSERT
  8
1
  6
CONTINUOUS
 62
     1
  5
1FC
  2
LDR
 10
374.437667
 20
249.8395
 30
0.0
 41
240.0
 42
240.0
 50
90.0
210
0.0
220
0.0
230
1.0
  0
INSERT
  8
1
  6
CONTINUOUS
 62
     1
  5
1FD
  2
LDR
 10
374.437667
 20
237.8395
 30
0.0
 41
240.0
 42
240.0
 50
270.0
210
0.0
220
0.0
230
1.0
  0
CIRCLE
  8
1
  6
CONTINUOUS
 62
     3
  5
1FE
 10
374.36825
 20
237.068333
 30
0.0
 40
0.75
210
0.0
220
0.0
230
1.0
  0
CIRCLE
  8
1
  6
CONTINUOUS
 62
     3
  5
1FF
 10
383.937667
 20
243.8395
 30
0.0
 40
0.75
210
0.0
220
0.0
230
1.0
  0
LINE
  8
1
  6
CONTINUOUS
 62
     3
  5
200
 10
393.937667
 20
252.3395
 30
0.0
 11
385.437667
 21
252.3395
 31
0.0
  0
LINE
  8
1
  6
CONTINUOUS
 62
     3
  5
201
 10
382.437667
 20
252.3395
 30
0.0
 11
373.937667
 21
252.3395
 31
0.0
  0
ARC
  8
1
  6
CONTINUOUS
 62
     3
  5
202
 10
383.937667
 20
253.908169
 30
0.0
 40
2.17042
 50
313.718078
 51
226.281922
210
0.0
220
0.0
230
1.0
  0
CIRCLE
  8
1
  6
CONTINUOUS
 62
     3
  5
203
 10
373.937667
 20
252.3395
 30
0.0
 40
0.75
210
0.0
220
0.0
230
1.0
  0
CIRCLE
  8
1
  6
CONTINUOUS
 62
     3
  5
204
 10
393.937667
 20
252.3395
 30
0.0
 40
0.75
210
0.0
220
0.0
230
1.0
  0
LINE
  8
1
  6
CONTINUOUS
 62
     3
  5
205
 10
393.937667
 20
252.3395
 30
0.0
 11
393.937667
 21
268.8395
 31
0.0
  0
LINE
  8
1
  6
CONTINUOUS
 62
     3
  5
206
 10
393.937667
 20
268.8395
 30
0.0
 11
385.437667
 21
268.8395
 31
0.0
  0
LINE
  8
1
  6
CONTINUOUS
 62
     3
  5
207
 10
382.437667
 20
268.8395
 30
0.0
 11
373.937667
 21
268.8395
 31
0.0
  0
ARC
  8
1
  6
CONTINUOUS
 62
     3
  5
208
 10
383.937667
 20
270.408169
 30
0.0
 40
2.17042
 50
313.718078
 51
226.281922
210
0.0
220
0.0
230
1.0
  0
CIRCLE
  8
1
  6
CONTINUOUS
 62
     3
  5
209
 10
373.937667
 20
268.8395
 30
0.0
 40
0.75
210
0.0
220
0.0
230
1.0
  0
LINE
  8
1
  6
CONTINUOUS
 62
     3
  5
20A
 10
383.937667
 20
260.8395
 30
0.0
 11
383.937667
 21
287.3395
 31
0.0
  0
CIRCLE
  8
1
  6
CONTINUOUS
 62
     3
  5
20B
 10
393.937667
 20
268.8395
 30
0.0
 40
0.75
210
0.0
220
0.0
230
1.0
  0
LINE
  8
1
  6
CONTINUOUS
 62
     3
  5
20C
 10
383.937667
 20
280.0895
 30
0.0
 11
374.937667
 21
280.0895
 31
0.0
  0
CIRCLE
  8
1
  6
CONTINUOUS
 62
     3
  5
20D
 10
374.937667
 20
280.0895
 30
0.0
 40
0.75
210
0.0
220
0.0
230
1.0
  0
LINE
  8
1
  6
CONTINUOUS
 62
     3
  5
20E
 10
374.937667
 20
280.0895
 30
0.0
 11
368.28025
 21
282.252583
 31
0.0
  0
LINE
  8
1
  6
CONTINUOUS
 62
     3
  5
20F
 10
367.937667
 20
280.0895
 30
0.0
 11
362.937667
 21
280.0895
 31
0.0
  0
CIRCLE
  8
1
  6
CONTINUOUS
 62
     3
  5
210
 10
367.937667
 20
280.0895
 30
0.0
 40
0.75
210
0.0
220
0.0
230
1.0
  0
CIRCLE
  8
1
  6
CONTINUOUS
 62
     3
  5
211
 10
362.937667
 20
280.0895
 30
0.0
 40
0.75
210
0.0
220
0.0
230
1.0
  0
LINE
  8
1
  6
CONTINUOUS
 62
     3
  5
212
 10
362.937667
 20
280.0895
 30
0.0
 11
362.937667
 21
275.0895
 31
0.0
  0
LINE
  8
1
  6
CONTINUOUS
 62
     3
  5
213
 10
362.937667
 20
275.0895
 30
0.0
 11
366.937667
 21
275.0895
 31
0.0
  0
LINE
  8
1
  6
CONTINUOUS
 62
     3
  5
214
 10
365.437667
 20
271.8395
 30
0.0
 11
366.937667
 21
271.8395
 31
0.0
  0
LINE
  8
1
  6
CONTINUOUS
 62
     3
  5
215
 10
365.437667
 20
268.5895
 30
0.0
 11
366.937667
 21
268.5895
 31
0.0
  0
LINE
  8
1
  6
CONTINUOUS
 62
     3
  5
216
 10
365.437667
 20
265.3395
 30
0.0
 11
366.937667
 21
265.3395
 31
0.0
  0
LINE
  8
1
  6
CONTINUOUS
 62
     3
  5
217
 10
365.437667
 20
262.0895
 30
0.0
 11
366.937667
 21
262.0895
 31
0.0
  0
ARC
  8
1
  6
CONTINUOUS
 62
     3
  5
218
 10
366.868046
 20
273.4645
 30
0.0
 40
1.626491
 50
272.453244
 51
87.546753
210
0.0
220
0.0
230
1.0
  0
ARC
  8
1
  6
CONTINUOUS
 62
     3
  5
219
 10
366.868046
 20
270.2145
 30
0.0
 40
1.626491
 50
272.453244
 51
87.546753
210
0.0
220
0.0
230
1.0
  0
ARC
  8
1
  6
CONTINUOUS
 62
     3
  5
21A
 10
366.868046
 20
266.9645
 30
0.0
 40
1.626491
 50
272.453244
 51
87.546753
210
0.0
220
0.0
230
1.0
  0
ARC
  8
1
  6
CONTINUOUS
 62
     3
  5
21B
 10
366.868046
 20
263.7145
 30
0.0
 40
1.626491
 50
272.453244
 51
87.546753
210
0.0
220
0.0
230
1.0
  0
LINE
  8
1
  6
CONTINUOUS
 62
     3
  5
21C
 10
365.437667
 20
262.0895
 30
0.0
 11
365.437667
 21
259.0895
 31
0.0
  0
LINE
  8
1
  6
CONTINUOUS
 62
     3
  5
21D
 10
364.937667
 20
257.5895
 30
0.0
 11
365.937667
 21
257.5895
 31
0.0
  0
LINE
  8
1
  6
CONTINUOUS
 62
     3
  5
21E
 10
363.687667
 20
259.0895
 30
0.0
 11
367.187667
 21
259.0895
 31
0.0
  0
LINE
  8
1
  6
CONTINUOUS
 62
     3
  5
21F
 10
364.062667
 20
258.5895
 30
0.0
 11
366.812667
 21
258.5895
 31
0.0
  0
LINE
  8
1
  6
CONTINUOUS
 62
     3
  5
220
 10
364.562667
 20
258.0895
 30
0.0
 11
366.312667
 21
258.0895
 31
0.0
  0
LINE
  8
1
  6
CONTINUOUS
 62
     3
  5
221
 10
365.187667
 20
257.0895
 30
0.0
 11
365.687667
 21
257.0895
 31
0.0
  0
LINE
  8
1
  6
CONTINUOUS
 62
     3
  5
222
 10
383.937667
 20
296.3395
 30
0.0
 11
383.937667
 21
302.3395
 31
0.0
  0
LINE
  8
1
  6
CONTINUOUS
 62
     3
  5
223
 10
383.937667
 20
302.3395
 30
0.0
 11
407.937667
 21
302.3395
 31
0.0
  0
CIRCLE
  8
1
  6
CONTINUOUS
 62
     3
  5
224
 10
407.937667
 20
302.3395
 30
0.0
 40
0.75
210
0.0
220
0.0
230
1.0
  0
ARC
  8
1
  6
CONTINUOUS
 62
     3
  5
225
 10
380.601371
 20
291.8395
 30
0.0
 40
5.419037
 50
323.148894
 51
36.851106
210
0.0
220
0.0
230
1.0
  0
LINE
  8
1
  6
HIDDEN
 62
     3
  5
226
 10
380.937667
 20
286.0895
 30
0.0
 11
386.937667
 21
286.0895
 31
0.0
  0
LINE
  8
1
  6
HIDDEN
 62
     3
  5
227
 10
380.937667
 20
297.5895
 30
0.0
 11
386.937667
 21
297.5895
 31
0.0
  0
LINE
  8
1
  6
HIDDEN
 62
     3
  5
228
 10
380.937667
 20
297.5895
 30
0.0
 11
380.937667
 21
286.0895
 31
0.0
  0
LINE
  8
1
  6
HIDDEN
 62
     3
  5
229
 10
386.937667
 20
297.5895
 30
0.0
 11
386.937667
 21
286.0895
 31
0.0
  0
LINE
  8
1
  6
CONTINUOUS
 62
     3
  5
22A
 10
407.937667
 20
313.4645
 30
0.0
 11
407.937667
 21
205.3395
 31
0.0
  0
LINE
  8
1
  6
HIDDEN
 62
     3
  5
22B
 10
365.437667
 20
277.0895
 30
0.0
 11
365.437667
 21
283.0895
 31
0.0
  0
LINE
  8
1
  6
HIDDEN
 62
     3
  5
22C
 10
376.937667
 20
277.0895
 30
0.0
 11
376.937667
 21
283.0895
 31
0.0
  0
LINE
  8
1
  6
HIDDEN
 62
     3
  5
22D
 10
365.437667
 20
283.0895
 30
0.0
 11
376.937667
 21
283.0895
 31
0.0
  0
LINE
  8
1
  6
HIDDEN
 62
     3
  5
22E
 10
365.437667
 20
277.0895
 30
0.0
 11
376.937667
 21
277.0895
 31
0.0
  0
LINE
  8
1
  6
CONTINUOUS
 62
     3
  5
22F
 10
393.937667
 20
252.3395
 30
0.0
 11
393.937667
 21
223.3395
 31
0.0
  0
LINE
  8
1
  6
CONTINUOUS
 62
     3
  5
230
 10
393.937667
 20
223.3395
 30
0.0
 11
407.937667
 21
223.3395
 31
0.0
  0
CIRCLE
  8
1
  6
CONTINUOUS
 62
     3
  5
231
 10
393.937667
 20
223.3395
 30
0.0
 40
0.75
210
0.0
220
0.0
230
1.0
  0
ARC
  8
1
  6
CONTINUOUS
 62
     3
  5
232
 10
408.368046
 20
211.9645
 30
0.0
 40
1.626491
 50
272.453244
 51
87.546753
210
0.0
220
0.0
230
1.0
  0
LINE
  8
1
  6
CONTINUOUS
 62
     3
  5
233
 10
407.937667
 20
223.3395
 30
0.0
 11
408.437667
 21
223.3395
 31
0.0
  0
LINE
  8
1
  6
CONTINUOUS
 62
     3
  5
234
 10
406.937667
 20
220.0895
 30
0.0
 11
408.437667
 21
220.0895
 31
0.0
  0
LINE
  8
1
  6
CONTINUOUS
 62
     3
  5
235
 10
406.937667
 20
216.8395
 30
0.0
 11
408.437667
 21
216.8395
 31
0.0
  0
LINE
  8
1
  6
CONTINUOUS
 62
     3
  5
236
 10
406.937667
 20
213.5895
 30
0.0
 11
408.437667
 21
213.5895
 31
0.0
  0
LINE
  8
1
  6
CONTINUOUS
 62
     3
  5
237
 10
388.437667
 20
210.3395
 30
0.0
 11
408.437667
 21
210.3395
 31
0.0
  0
ARC
  8
1
  6
CONTINUOUS
 62
     3
  5
238
 10
408.368046
 20
221.7145
 30
0.0
 40
1.626491
 50
272.453244
 51
87.546753
210
0.0
220
0.0
230
1.0
  0
ARC
  8
1
  6
CONTINUOUS
 62
     3
  5
239
 10
408.368046
 20
218.4645
 30
0.0
 40
1.626491
 50
272.453244
 51
87.546753
210
0.0
220
0.0
230
1.0
  0
ARC
  8
1
  6
CONTINUOUS
 62
     3
  5
23A
 10
408.368046
 20
215.2145
 30
0.0
 40
1.626491
 50
272.453244
 51
87.546753
210
0.0
220
0.0
230
1.0
  0
LINE
  8
1
  6
CONTINUOUS
 62
     3
  5
23B
 10
387.562667
 20
206.8395
 30
0.0
 11
389.312667
 21
206.8395
 31
0.0
  0
LINE
  8
1
  6
CONTINUOUS
 62
     3
  5
23C
 10
388.437667
 20
210.3395
 30
0.0
 11
388.437667
 21
207.8395
 31
0.0
  0
LINE
  8
1
  6
CONTINUOUS
 62
     3
  5
23D
 10
387.937667
 20
206.3395
 30
0.0
 11
388.937667
 21
206.3395
 31
0.0
  0
LINE
  8
1
  6
CONTINUOUS
 62
     3
  5
23E
 10
386.687667
 20
207.8395
 30
0.0
 11
390.187667
 21
207.8395
 31
0.0
  0
LINE
  8
1
  6
CONTINUOUS
 62
     3
  5
23F
 10
387.062667
 20
207.3395
 30
0.0
 11
389.812667
 21
207.3395
 31
0.0
  0
LINE
  8
1
  6
CONTINUOUS
 62
     3
  5
240
 10
388.187667
 20
205.8395
 30
0.0
 11
388.687667
 21
205.8395
 31
0.0
  0
CIRCLE
  8
1
  6
CONTINUOUS
 62
     3
  5
241
 10
407.937667
 20
314.2145
 30
0.0
 40
0.75
210
0.0
220
0.0
230
1.0
  0
CIRCLE
  8
1
  6
CONTINUOUS
 62
     3
  5
242
 10
407.937667
 20
322.3395
 30
0.0
 40
0.75
210
0.0
220
0.0
230
1.0
  0
ARC
  8
1
  6
CONTINUOUS
 62
     3
  5
243
 10
400.92278
 20
318.277
 30
0.0
 40
9.136517
 50
338.742742
 51
21.257258
210
0.0
220
0.0
230
1.0
  0
LINE
  8
1
  6
CONTINUOUS
 62
     3
  5
244
 10
407.937667
 20
333.987917
 30
0.0
 11
407.937667
 21
337.77225
 31
0.0
  0
LINE
  8
1
  6
CONTINUOUS
 62
     3
  5
245
 10
407.937667
 20
200.7145
 30
0.0
 11
407.937667
 21
147.4645
 31
0.0
  0
CIRCLE
  8
1
  6
CONTINUOUS
 62
     3
  5
246
 10
407.937667
 20
201.4645
 30
0.0
 40
0.75
210
0.0
220
0.0
230
1.0
  0
ARC
  8
1
  6
CONTINUOUS
 62
     3
  5
247
 10
407.937667
 20
200.777
 30
0.0
 40
4.5625
 50
48.887911
 51
131.112092
210
0.0
220
0.0
230
1.0
  0
LINE
  8
1
  6
CONTINUOUS
 62
     3
  5
248
 10
437.937667
 20
323.0895
 30
0.0
 11
437.937667
 21
332.487917
 31
0.0
  0
LINE
  8
1
  6
CONTINUOUS
 62
     3
  5
249
 10
437.937667
 20
313.4645
 30
0.0
 11
437.937667
 21
205.3395
 31
0.0
  0
CIRCLE
  8
1
  6
CONTINUOUS
 62
     3
  5
24A
 10
437.937667
 20
314.2145
 30
0.0
 40
0.75
210
0.0
220
0.0
230
1.0
  0
CIRCLE
  8
1
  6
CONTINUOUS
 62
     3
  5
24B
 10
437.937667
 20
322.3395
 30
0.0
 40
0.75
210
0.0
220
0.0
230
1.0
  0
ARC
  8
1
  6
CONTINUOUS
 62
     3
  5
24C
 10
430.92278
 20
318.277
 30
0.0
 40
9.136517
 50
338.742742
 51
21.257258
210
0.0
220
0.0
230
1.0
  0
LINE
  8
1
  6
CONTINUOUS
 62
     3
  5
24D
 10
437.937667
 20
200.7145
 30
0.0
 11
437.937667
 21
147.4645
 31
0.0
  0
CIRCLE
  8
1
  6
CONTINUOUS
 62
     3
  5
24E
 10
437.937667
 20
201.4645
 30
0.0
 40
0.75
210
0.0
220
0.0
230
1.0
  0
ARC
  8
1
  6
CONTINUOUS
 62
     3
  5
24F
 10
437.937667
 20
200.777
 30
0.0
 40
4.5625
 50
48.887911
 51
131.112092
210
0.0
220
0.0
230
1.0
  0
LINE
  8
1
  6
CONTINUOUS
 62
     3
  5
250
 10
477.437667
 20
332.487917
 30
0.0
 11
477.437667
 21
138.4645
 31
0.0
  0
LINE
  8
1
  6
CONTINUOUS
 62
     3
  5
251
 10
483.437667
 20
337.77225
 30
0.0
 11
483.437667
 21
138.4645
 31
0.0
  0
LINE
  8
1
  6
CONTINUOUS
 62
     3
  5
252
 10
475.437667
 20
136.4645
 30
0.0
 11
485.437667
 21
136.4645
 31
0.0
  0
LINE
  8
1
  6
CONTINUOUS
 62
     3
  5
253
 10
480.437667
 20
161.9645
 30
0.0
 11
480.437667
 21
138.4645
 31
0.0
  0
LINE
  8
1
  6
CONTINUOUS
 62
     3
  5
254
 10
485.437667
 20
136.4645
 30
0.0
 11
485.437667
 21
138.4645
 31
0.0
  0
LINE
  8
1
  6
CONTINUOUS
 62
     3
  5
255
 10
475.437667
 20
136.4645
 30
0.0
 11
475.437667
 21
138.4645
 31
0.0
  0
LINE
  8
1
  6
CONTINUOUS
 62
     3
  5
256
 10
480.437667
 20
161.9645
 30
0.0
 11
479.187667
 21
161.9645
 31
0.0
  0
LINE
  8
1
  6
CONTINUOUS
 62
     3
  5
257
 10
467.937667
 20
161.9645
 30
0.0
 11
475.687667
 21
161.9645
 31
0.0
  0
LINE
  8
1
  6
CONTINUOUS
 62
     3
  5
258
 10
467.937667
 20
190.0895
 30
0.0
 11
467.937667
 21
157.4645
 31
0.0
  0
ARC
  8
1
  6
CONTINUOUS
 62
     3
  5
259
 10
477.437667
 20
161.983615
 30
0.0
 40
1.750104
 50
180.625817
 51
359.374183
210
0.0
220
0.0
230
1.0
  0
LINE
  8
1
  6
CONTINUOUS
 62
     3
  5
25A
 10
465.597
 20
157.4645
 30
0.0
 11
476.597
 21
157.4645
 31
0.0
  0
LINE
  8
1
  6
CONTINUOUS
 62
     3
  5
25B
 10
465.597
 20
154.9645
 30
0.0
 11
476.597
 21
154.9645
 31
0.0
  0
LINE
  8
1
  6
CONTINUOUS
 62
     3
  5
25C
 10
465.597
 20
157.4645
 30
0.0
 11
465.597
 21
154.9645
 31
0.0
  0
LINE
  8
1
  6
CONTINUOUS
 62
     3
  5
25D
 10
476.597
 20
157.4645
 30
0.0
 11
476.597
 21
154.9645
 31
0.0
  0
CIRCLE
  8
1
  6
CONTINUOUS
 62
     3
  5
25E
 10
466.597
 20
156.2145
 30
0.0
 40
0.5
210
0.0
220
0.0
230
1.0
  0
CIRCLE
  8
1
  6
CONTINUOUS
 62
     3
  5
25F
 10
468.597
 20
156.2145
 30
0.0
 40
0.5
210
0.0
220
0.0
230
1.0
  0
CIRCLE
  8
1
  6
CONTINUOUS
 62
     3
  5
260
 10
470.597
 20
156.2145
 30
0.0
 40
0.5
210
0.0
220
0.0
230
1.0
  0
CIRCLE
  8
1
  6
CONTINUOUS
 62
     3
  5
261
 10
472.597
 20
156.2145
 30
0.0
 40
0.5
210
0.0
220
0.0
230
1.0
  0
CIRCLE
  8
1
  6
CONTINUOUS
 62
     3
  5
262
 10
474.597
 20
156.2145
 30
0.0
 40
0.5
210
0.0
220
0.0
230
1.0
  0
LINE
  8
1
  6
CONTINUOUS
 62
     3
  5
263
 10
467.937667
 20
154.9645
 30
0.0
 11
467.937667
 21
151.4645
 31
0.0
  0
LINE
  8
1
  6
CONTINUOUS
 62
     3
  5
264
 10
467.062667
 20
150.4645
 30
0.0
 11
468.812667
 21
150.4645
 31
0.0
  0
LINE
  8
1
  6
CONTINUOUS
 62
     3
  5
265
 10
467.437667
 20
149.9645
 30
0.0
 11
468.437667
 21
149.9645
 31
0.0
  0
LINE
  8
1
  6
CONTINUOUS
 62
     3
  5
266
 10
466.187667
 20
151.4645
 30
0.0
 11
469.687667
 21
151.4645
 31
0.0
  0
LINE
  8
1
  6
CONTINUOUS
 62
     3
  5
267
 10
466.562667
 20
150.9645
 30
0.0
 11
469.312667
 21
150.9645
 31
0.0
  0
LINE
  8
1
  6
CONTINUOUS
 62
     3
  5
268
 10
467.687667
 20
149.4645
 30
0.0
 11
468.187667
 21
149.4645
 31
0.0
  0
LINE
  8
1
  6
CONTINUOUS
 62
     3
  5
269
 10
410.059333
 20
318.277
 30
0.0
 11
417.559333
 21
318.277
 31
0.0
  0
LINE
  8
1
  6
CONTINUOUS
 62
     3
  5
26A
 10
418.559333
 20
318.277
 30
0.0
 11
427.559333
 21
318.277
 31
0.0
  0
LINE
  8
1
  6
CONTINUOUS
 62
     3
  5
26B
 10
428.559333
 20
318.277
 30
0.0
 11
439.059333
 21
318.277
 31
0.0
  0
LINE
  8
1
  6
DASHED
 62
     3
  5
26C
 10
402.937667
 20
328.277
 30
0.0
 11
442.937667
 21
328.277
 31
0.0
  0
LINE
  8
1
  6
DASHED
 62
     3
  5
26D
 10
402.937667
 20
308.277
 30
0.0
 11
442.937667
 21
308.277
 31
0.0
  0
LINE
  8
1
  6
DASHED
 62
     3
  5
26E
 10
402.937667
 20
328.277
 30
0.0
 11
402.937667
 21
308.277
 31
0.0
  0
LINE
  8
1
  6
DASHED
 62
     3
  5
26F
 10
442.937667
 20
328.277
 30
0.0
 11
442.937667
 21
308.277
 31
0.0
  0
LINE
  8
1
  6
DASHED
 62
     3
  5
270
 10
355.687667
 20
305.8395
 30
0.0
 11
397.187667
 21
305.8395
 31
0.0
  0
LINE
  8
1
  6
DASHED
 62
     3
  5
271
 10
355.687667
 20
229.8395
 30
0.0
 11
397.187667
 21
229.8395
 31
0.0
  0
LINE
  8
1
  6
DASHED
 62
     3
  5
272
 10
355.687667
 20
305.8395
 30
0.0
 11
355.687667
 21
229.8395
 31
0.0
  0
LINE
  8
1
  6
DASHED
 62
     3
  5
273
 10
397.187667
 20
305.8395
 30
0.0
 11
397.187667
 21
229.8395
 31
0.0
  0
LINE
  8
1
  6
DASHED
 62
     3
  5
274
 10
383.187667
 20
226.3395
 30
0.0
 11
462.687667
 21
226.3395
 31
0.0
  0
LINE
  8
1
  6
DASHED
 62
     3
  5
275
 10
383.187667
 20
226.3395
 30
0.0
 11
383.187667
 21
196.3395
 31
0.0
  0
LINE
  8
1
  6
DASHED
 62
     3
  5
276
 10
462.687667
 20
226.3395
 30
0.0
 11
462.687667
 21
196.3395
 31
0.0
  0
LINE
  8
1
  6
CONTINUOUS
 62
     3
  5
277
 10
464.687667
 20
183.8395
 30
0.0
 11
464.687667
 21
138.4645
 31
0.0
  0
LINE
  8
1
  6
CONTINUOUS
 62
     3
  5
278
 10
381.187667
 20
183.8395
 30
0.0
 11
381.187667
 21
138.4645
 31
0.0
  0
LINE
  8
1
  6
CONTINUOUS
 62
     3
  5
279
 10
381.187667
 20
183.8395
 30
0.0
 11
400.937667
 21
183.8395
 31
0.0
  0
LINE
  8
1
  6
CONTINUOUS
 62
     3
  5
27A
 10
394.187667
 20
171.8395
 30
0.0
 11
400.937667
 21
171.8395
 31
0.0
  0
LINE
  8
1
  6
CONTINUOUS
 62
     3
  5
27B
 10
444.937667
 20
177.8395
 30
0.0
 11
457.687667
 21
177.8395
 31
0.0
  0
LINE
  8
1
  6
CONTINUOUS
 62
     3
  5
27C
 10
444.937667
 20
165.8395
 30
0.0
 11
446.687667
 21
165.8395
 31
0.0
  0
CIRCLE
  8
1
  6
CONTINUOUS
 62
     3
  5
27D
 10
407.937667
 20
183.8395
 30
0.0
 40
0.75
210
0.0
220
0.0
230
1.0
  0
CIRCLE
  8
1
  6
CONTINUOUS
 62
     3
  5
27E
 10
407.937667
 20
171.8395
 30
0.0
 40
0.75
210
0.0
220
0.0
230
1.0
  0
CIRCLE
  8
1
  6
CONTINUOUS
 62
     3
  5
27F
 10
437.937667
 20
165.8395
 30
0.0
 40
0.75
210
0.0
220
0.0
230
1.0
  0
CIRCLE
  8
1
  6
CONTINUOUS
 62
     3
  5
280
 10
437.937667
 20
177.8395
 30
0.0
 40
0.75
210
0.0
220
0.0
230
1.0
  0
CIRCLE
  8
1
  6
CONTINUOUS
 62
     3
  5
281
 10
404.937667
 20
183.8395
 30
0.0
 40
0.75
210
0.0
220
0.0
230
1.0
  0
CIRCLE
  8
1
  6
CONTINUOUS
 62
     3
  5
282
 10
404.937667
 20
171.8395
 30
0.0
 40
0.75
210
0.0
220
0.0
230
1.0
  0
CIRCLE
  8
1
  6
CONTINUOUS
 62
     3
  5
283
 10
440.937667
 20
177.8395
 30
0.0
 40
0.75
210
0.0
220
0.0
230
1.0
  0
CIRCLE
  8
1
  6
CONTINUOUS
 62
     3
  5
284
 10
440.937667
 20
165.8395
 30
0.0
 40
0.75
210
0.0
220
0.0
230
1.0
  0
LINE
  8
1
  6
CONTINUOUS
 62
     3
  5
285
 10
388.187667
 20
177.8395
 30
0.0
 11
400.937667
 21
177.8395
 31
0.0
  0
LINE
  8
1
  6
CONTINUOUS
 62
     3
  5
286
 10
404.937667
 20
177.8395
 30
0.0
 11
440.937667
 21
177.8395
 31
0.0
  0
LINE
  8
1
  6
CONTINUOUS
 62
     3
  5
287
 10
399.187667
 20
165.8395
 30
0.0
 11
400.937667
 21
165.8395
 31
0.0
  0
LINE
  8
1
  6
CONTINUOUS
 62
     3
  5
288
 10
404.937667
 20
165.8395
 30
0.0
 11
440.937667
 21
165.8395
 31
0.0
  0
LINE
  8
1
  6
CONTINUOUS
 62
     3
  5
289
 10
404.937667
 20
171.8395
 30
0.0
 11
440.937667
 21
171.8395
 31
0.0
  0
LINE
  8
1
  6
CONTINUOUS
 62
     3
  5
28A
 10
444.937667
 20
171.8395
 30
0.0
 11
451.687667
 21
171.8395
 31
0.0
  0
LINE
  8
1
  6
CONTINUOUS
 62
     3
  5
28B
 10
404.937667
 20
183.8395
 30
0.0
 11
440.937667
 21
183.8395
 31
0.0
  0
LINE
  8
1
  6
CONTINUOUS
 62
     3
  5
28C
 10
444.937667
 20
183.8395
 30
0.0
 11
464.687667
 21
183.8395
 31
0.0
  0
CIRCLE
  8
1
  6
CONTINUOUS
 62
     3
  5
28D
 10
404.937667
 20
177.8395
 30
0.0
 40
0.75
210
0.0
220
0.0
230
1.0
  0
CIRCLE
  8
1
  6
CONTINUOUS
 62
     3
  5
28E
 10
404.937667
 20
165.8395
 30
0.0
 40
0.75
210
0.0
220
0.0
230
1.0
  0
CIRCLE
  8
1
  6
CONTINUOUS
 62
     3
  5
28F
 10
440.937667
 20
183.8395
 30
0.0
 40
0.75
210
0.0
220
0.0
230
1.0
  0
CIRCLE
  8
1
  6
CONTINUOUS
 62
     3
  5
290
 10
440.937667
 20
171.8395
 30
0.0
 40
0.75
210
0.0
220
0.0
230
1.0
  0
LINE
  8
1
  6
DASHED
 62
     3
  5
291
 10
383.187667
 20
196.3395
 30
0.0
 11
407.937667
 21
196.3395
 31
0.0
  0
LINE
  8
1
  6
DASHED
 62
     3
  5
292
 10
407.937667
 20
196.3395
 30
0.0
 11
437.937667
 21
196.3395
 31
0.0
  0
LINE
  8
1
  6
DASHED
 62
     3
  5
293
 10
437.937667
 20
196.3395
 30
0.0
 11
462.687667
 21
196.3395
 31
0.0
  0
LINE
  8
1
  6
CONTINUOUS
 62
     3
  5
294
 10
388.187667
 20
177.8395
 30
0.0
 11
388.187667
 21
138.4645
 31
0.0
  0
LINE
  8
1
  6
CONTINUOUS
 62
     3
  5
295
 10
457.687667
 20
177.8395
 30
0.0
 11
457.687667
 21
138.4645
 31
0.0
  0
LINE
  8
1
  6
CONTINUOUS
 62
     3
  5
296
 10
394.187667
 20
171.8395
 30
0.0
 11
394.187667
 21
138.4645
 31
0.0
  0
LINE
  8
1
  6
CONTINUOUS
 62
     3
  5
297
 10
451.687667
 20
171.8395
 30
0.0
 11
451.687667
 21
138.4645
 31
0.0
  0
LINE
  8
1
  6
CONTINUOUS
 62
     3
  5
298
 10
399.187667
 20
165.8395
 30
0.0
 11
399.187667
 21
138.4645
 31
0.0
  0
LINE
  8
1
  6
CONTINUOUS
 62
     3
  5
299
 10
446.687667
 20
165.8395
 30
0.0
 11
446.687667
 21
138.4645
 31
0.0
  0
LINE
  8
1
  6
CONTINUOUS
 62
     3
  5
29A
 10
379.187667
 20
136.4645
 30
0.0
 11
401.187667
 21
136.4645
 31
0.0
  0
LINE
  8
1
  6
CONTINUOUS
 62
     3
  5
29B
 10
444.687667
 20
136.4645
 30
0.0
 11
466.687667
 21
136.4645
 31
0.0
  0
LINE
  8
1
  6
CONTINUOUS
 62
     3
  5
29C
 10
379.187667
 20
136.4645
 30
0.0
 11
379.187667
 21
138.4645
 31
0.0
  0
LINE
  8
1
  6
CONTINUOUS
 62
     3
  5
29D
 10
401.187667
 20
136.4645
 30
0.0
 11
401.187667
 21
138.4645
 31
0.0
  0
LINE
  8
1
  6
CONTINUOUS
 62
     3
  5
29E
 10
444.687667
 20
136.4645
 30
0.0
 11
444.687667
 21
138.4645
 31
0.0
  0
LINE
  8
1
  6
CONTINUOUS
 62
     3
  5
29F
 10
466.687667
 20
136.4645
 30
0.0
 11
466.687667
 21
138.4645
 31
0.0
  0
CIRCLE
  8
1
  6
CONTINUOUS
 62
     3
  5
2A0
 10
400.937667
 20
183.8395
 30
0.0
 40
0.75
210
0.0
220
0.0
230
1.0
  0
CIRCLE
  8
1
  6
CONTINUOUS
 62
     3
  5
2A1
 10
400.937667
 20
177.8395
 30
0.0
 40
0.75
210
0.0
220
0.0
230
1.0
  0
CIRCLE
  8
1
  6
CONTINUOUS
 62
     3
  5
2A2
 10
400.937667
 20
171.8395
 30
0.0
 40
0.75
210
0.0
220
0.0
230
1.0
  0
CIRCLE
  8
1
  6
CONTINUOUS
 62
     3
  5
2A3
 10
400.937667
 20
165.8395
 30
0.0
 40
0.75
210
0.0
220
0.0
230
1.0
  0
CIRCLE
  8
1
  6
CONTINUOUS
 62
     3
  5
2A4
 10
444.937667
 20
183.8395
 30
0.0
 40
0.75
210
0.0
220
0.0
230
1.0
  0
CIRCLE
  8
1
  6
CONTINUOUS
 62
     3
  5
2A5
 10
444.937667
 20
177.8395
 30
0.0
 40
0.75
210
0.0
220
0.0
230
1.0
  0
CIRCLE
  8
1
  6
CONTINUOUS
 62
     3
  5
2A6
 10
444.937667
 20
171.8395
 30
0.0
 40
0.75
210
0.0
220
0.0
230
1.0
  0
CIRCLE
  8
1
  6
CONTINUOUS
 62
     3
  5
2A7
 10
444.937667
 20
165.8395
 30
0.0
 40
0.75
210
0.0
220
0.0
230
1.0
  0
ARC
  8
1
  6
CONTINUOUS
 62
     3
  5
2A8
 10
402.937667
 20
182.813506
 30
0.0
 40
3.145834
 50
53.414164
 51
126.585836
210
0.0
220
0.0
230
1.0
  0
ARC
  8
1
  6
CONTINUOUS
 62
     3
  5
2A9
 10
402.937667
 20
176.813506
 30
0.0
 40
3.145834
 50
53.414164
 51
126.585836
210
0.0
220
0.0
230
1.0
  0
ARC
  8
1
  6
CONTINUOUS
 62
     3
  5
2AA
 10
402.937667
 20
170.813506
 30
0.0
 40
3.145834
 50
53.414164
 51
126.585836
210
0.0
220
0.0
230
1.0
  0
ARC
  8
1
  6
CONTINUOUS
 62
     3
  5
2AB
 10
402.937667
 20
164.813506
 30
0.0
 40
3.145834
 50
53.414164
 51
126.585836
210
0.0
220
0.0
230
1.0
  0
ARC
  8
1
  6
CONTINUOUS
 62
     3
  5
2AC
 10
442.937667
 20
164.813506
 30
0.0
 40
3.145834
 50
53.414164
 51
126.585836
210
0.0
220
0.0
230
1.0
  0
ARC
  8
1
  6
CONTINUOUS
 62
     3
  5
2AD
 10
442.937667
 20
170.813506
 30
0.0
 40
3.145834
 50
53.414164
 51
126.585836
210
0.0
220
0.0
230
1.0
  0
ARC
  8
1
  6
CONTINUOUS
 62
     3
  5
2AE
 10
442.937667
 20
176.813506
 30
0.0
 40
3.145834
 50
53.414164
 51
126.585836
210
0.0
220
0.0
230
1.0
  0
ARC
  8
1
  6
CONTINUOUS
 62
     3
  5
2AF
 10
442.937667
 20
182.813506
 30
0.0
 40
3.145834
 50
53.414164
 51
126.585836
210
0.0
220
0.0
230
1.0
  0
LINE
  8
1
  6
CONTINUOUS
 62
     3
  5
2B0
 10
402.937667
 20
185.459333
 30
0.0
 11
402.937667
 21
183.459333
 31
0.0
  0
LINE
  8
1
  6
CONTINUOUS
 62
     3
  5
2B1
 10
402.937667
 20
182.459333
 30
0.0
 11
402.937667
 21
180.459333
 31
0.0
  0
LINE
  8
1
  6
CONTINUOUS
 62
     3
  5
2B2
 10
442.937667
 20
185.459333
 30
0.0
 11
442.937667
 21
183.459333
 31
0.0
  0
LINE
  8
1
  6
CONTINUOUS
 62
     3
  5
2B3
 10
442.937667
 20
182.459333
 30
0.0
 11
442.937667
 21
180.459333
 31
0.0
  0
TEXT
  8
1
  6
CONTINUOUS
 62
     7
  5
2B4
 10
330.169
 20
382.608333
 30
0.0
 40
4.0
  1
P
  7
txt
210
0.0
220
0.0
230
1.0
  0
LINE
  8
1
  6
CONTINUOUS
 62
     7
  5
2B5
 10
337.808
 20
386.821083
 30
0.0
 11
381.523417
 21
416.518
 31
0.0
  0
LINE
  8
1
  6
CONTINUOUS
 62
     7
  5
2B6
 10
381.523417
 20
416.518
 30
0.0
 11
397.7235
 21
416.518
 31
0.0
  0
LINE
  8
1
  6
CONTINUOUS
 62
     7
  5
2B7
 10
336.937667
 20
352.2145
 30
0.0
 11
363.70325
 21
366.281333
 31
0.0
  0
LINE
  8
1
  6
CONTINUOUS
 62
     7
  5
2B8
 10
363.70325
 20
366.281333
 30
0.0
 11
380.227333
 21
366.281333
 31
0.0
  0
LINE
  8
1
  6
CONTINUOUS
 62
     7
  5
2B9
 10
388.692583
 20
305.8395
 30
0.0
 11
384.763417
 21
320.906333
 31
0.0
  0
LINE
  8
1
  6
CONTINUOUS
 62
     7
  5
2BA
 10
384.763417
 20
320.906333
 30
0.0
 11
375.367333
 21
320.906333
 31
0.0
  0
LINE
  8
1
  6
CONTINUOUS
 62
     7
  5
2BB
 10
442.937667
 20
315.072417
 30
0.0
 11
455.395833
 21
315.072417
 31
0.0
  0
LINE
  8
1
  6
CONTINUOUS
 62
     7
  5
2BC
 10
372.107667
 20
281.009
 30
0.0
 11
379.255333
 21
292.709
 31
0.0
  0
LINE
  8
1
  6
CONTINUOUS
 62
     7
  5
2BD
 10
379.255333
 20
292.709
 30
0.0
 11
368.677167
 21
292.709
 31
0.0
  0
LINE
  8
1
  6
CONTINUOUS
 62
     7
  5
2BE
 10
440.662083
 20
226.627833
 30
0.0
 11
443.822833
 21
242.436583
 31
0.0
  0
LINE
  8
1
  6
CONTINUOUS
 62
     7
  5
2BF
 10
443.822833
 20
242.436583
 30
0.0
 11
449.330833
 21
242.436583
 31
0.0
  0
INSERT
  8
1
  6
CONTINUOUS
 62
     1
  5
2C0
  2
LDR
 10
337.808
 20
386.821083
 30
0.0
 41
239.999999
 42
239.999999
 50
214.189195
210
0.0
220
0.0
230
1.0
  0
INSERT
  8
1
  6
CONTINUOUS
 62
     1
  5
2C1
  2
LDR
 10
336.937667
 20
352.2145
 30
0.0
 41
239.999997
 42
239.999997
 50
207.724475
210
0.0
220
0.0
230
1.0
  0
INSERT
  8
1
  6
CONTINUOUS
 62
     1
  5
2C2
  2
LDR
 10
336.937667
 20
352.2145
 30
0.0
 41
239.999997
 42
239.999997
 50
207.724475
210
0.0
220
0.0
230
1.0
  0
INSERT
  8
1
  6
CONTINUOUS
 62
     1
  5
2C3
  2
LDR
 10
388.692583
 20
305.8395
 30
0.0
 41
240.000001
 42
240.000001
 50
284.616204
210
0.0
220
0.0
230
1.0
  0
INSERT
  8
1
  6
CONTINUOUS
 62
     1
  5
2C4
  2
LDR
 10
388.692583
 20
305.8395
 30
0.0
 41
240.000001
 42
240.000001
 50
284.616204
210
0.0
220
0.0
230
1.0
  0
INSERT
  8
1
  6
CONTINUOUS
 62
     1
  5
2C5
  2
LDR
 10
372.107667
 20
281.009
 30
0.0
 41
239.999999
 42
239.999999
 50
238.578754
210
0.0
220
0.0
230
1.0
  0
INSERT
  8
1
  6
CONTINUOUS
 62
     1
  5
2C6
  2
LDR
 10
372.107667
 20
281.009
 30
0.0
 41
239.999999
 42
239.999999
 50
238.578754
210
0.0
220
0.0
230
1.0
  0
INSERT
  8
1
  6
CONTINUOUS
 62
     1
  5
2C7
  2
LDR
 10
442.937667
 20
315.072417
 30
0.0
 41
240.0
 42
240.0
 50
180.0
210
0.0
220
0.0
230
1.0
  0
INSERT
  8
1
  6
CONTINUOUS
 62
     1
  5
2C8
  2
LDR
 10
442.937667
 20
315.072417
 30
0.0
 41
240.0
 42
240.0
 50
180.0
210
0.0
220
0.0
230
1.0
  0
TEXT
  8
1
  6
CONTINUOUS
 62
     7
  5
2C9
 10
398.634083
 20
415.490833
 30
0.0
 40
2.5
  1
PHOTOCELL
  7
MONOTXT
210
0.0
220
0.0
230
1.0
  0
TEXT
  8
1
  6
CONTINUOUS
 62
     7
  5
2CA
 10
381.0935
 20
365.414917
 30
0.0
 40
2.5
  1
MEYERS HUB
  7
MONOTXT
210
0.0
220
0.0
230
1.0
  0
TEXT
  8
1
  6
CONTINUOUS
 62
     7
  5
2CB
 10
351.333667
 20
319.344917
 30
0.0
 40
2.5
  1
PHOTO-CELL
  7
MONOTXT
 11
351.333667
 21
321.844917
 31
0.0
210
0.0
220
0.0
230
1.0
 73
     3
  0
TEXT
  8
1
  6
CONTINUOUS
 62
     7
  5
2CC
 10
351.333667
 20
314.844917
 30
0.0
 40
2.5
  1
ISOLATION
  7
MONOTXT
 11
351.333667
 21
317.344917
 31
0.0
210
0.0
220
0.0
230
1.0
 73
     3
  0
TEXT
  8
1
  6
CONTINUOUS
 62
     7
  5
2CD
 10
351.333667
 20
310.344917
 30
0.0
 40
2.5
  1
SYSTEM
  7
MONOTXT
 11
351.333667
 21
312.844917
 31
0.0
210
0.0
220
0.0
230
1.0
 73
     3
  0
TEXT
  8
1
  6
CONTINUOUS
 62
     7
  5
2CE
 10
358.42875
 20
291.546917
 30
0.0
 40
2.5
  1
HAND
  7
MONOTXT
 11
358.42875
 21
294.046917
 31
0.0
210
0.0
220
0.0
230
1.0
 73
     3
  0
TEXT
  8
1
  6
CONTINUOUS
 62
     7
  5
2CF
 10
358.42875
 20
287.046917
 30
0.0
 40
2.5
  1
SWITCH
  7
MONOTXT
 11
358.42875
 21
289.546917
 31
0.0
210
0.0
220
0.0
230
1.0
 73
     3
  0
INSERT
  8
1
  6
CONTINUOUS
 62
     1
  5
2D0
  2
LDR
 10
440.662083
 20
226.627833
 30
0.0
 41
239.999999
 42
239.999999
 50
258.693553
210
0.0
220
0.0
230
1.0
  0
TEXT
  8
1
  6
CONTINUOUS
 62
     7
  5
2D1
 10
449.861583
 20
241.4155
 30
0.0
 40
2.5
  1
HEAVY DUTY
  7
MONOTXT
 11
449.861583
 21
243.9155
 31
0.0
210
0.0
220
0.0
230
1.0
 73
     3
  0
TEXT
  8
1
  6
CONTINUOUS
 62
     7
  5
2D2
 10
449.861583
 20
236.9155
 30
0.0
 40
2.5
  1
LIGHTING
  7
MONOTXT
 11
449.861583
 21
239.4155
 31
0.0
210
0.0
220
0.0
230
1.0
 73
     3
  0
TEXT
  8
1
  6
CONTINUOUS
 62
     7
  5
2D3
 10
449.861583
 20
232.4155
 30
0.0
 40
2.5
  1
CONTACTOR
  7
MONOTXT
 11
449.861583
 21
234.9155
 31
0.0
210
0.0
220
0.0
230
1.0
 73
     3
  0
LINE
  8
1
  6
CONTINUOUS
 62
     7
  5
2D4
 10
390.02925
 20
136.466083
 30
0.0
 11
397.280917
 21
126.761417
 31
0.0
  0
LINE
  8
1
  6
CONTINUOUS
 62
     7
  5
2D5
 10
397.280917
 20
126.761417
 30
0.0
 11
407.276333
 21
126.761417
 31
0.0
  0
INSERT
  8
1
  6
CONTINUOUS
 62
     1
  5
2D6
  2
LDR
 10
390.02925
 20
136.466083
 30
0.0
 41
239.999998
 42
239.999998
 50
126.768373
210
0.0
220
0.0
230
1.0
  0
LINE
  8
1
  6
CONTINUOUS
 62
     7
  5
2D7
 10
455.293917
 20
136.466083
 30
0.0
 11
448.04225
 21
126.761417
 31
0.0
  0
LINE
  8
1
  6
CONTINUOUS
 62
     7
  5
2D8
 10
448.04225
 20
126.761417
 30
0.0
 11
438.046833
 21
126.761417
 31
0.0
  0
INSERT
  8
1
  6
CONTINUOUS
 62
     1
  5
2D9
  2
LDR
 10
455.293917
 20
136.466083
 30
0.0
 41
239.999998
 42
-239.999998
 50
53.231627
210
0.0
220
0.0
230
1.0
  0
TEXT
  8
1
  6
CONTINUOUS
 62
     7
  5
2DA
 10
407.766333
 20
125.43775
 30
0.0
 40
2.5
  1
12OV OR 24OV
  7
MONOTXT
 11
407.766333
 21
127.93775
 31
0.0
210
0.0
220
0.0
230
1.0
 73
     3
  0
TEXT
  8
1
  6
CONTINUOUS
 62
     7
  5
2DB
 10
407.766333
 20
120.93775
 30
0.0
 40
2.5
  1
CIRCUITS AS
  7
MONOTXT
 11
407.766333
 21
123.43775
 31
0.0
210
0.0
220
0.0
230
1.0
 73
     3
  0
TEXT
  8
1
  6
CONTINUOUS
 62
     7
  5
2DC
 10
407.766333
 20
116.43775
 30
0.0
 40
2.5
  1
REQUIRED
  7
MONOTXT
 11
407.766333
 21
118.93775
 31
0.0
210
0.0
220
0.0
230
1.0
 73
     3
  0
LINE
  8
1
  6
CONTINUOUS
 62
     7
  5
2DD
 10
480.72825
 20
136.466083
 30
0.0
 11
484.586
 21
131.303333
 31
0.0
  0
LINE
  8
1
  6
CONTINUOUS
 62
     7
  5
2DE
 10
484.586
 20
131.303333
 30
0.0
 11
492.621333
 21
131.303333
 31
0.0
  0
INSERT
  8
1
  6
CONTINUOUS
 62
     1
  5
2DF
  2
LDR
 10
480.72825
 20
136.466083
 30
0.0
 41
239.999998
 42
239.999998
 50
126.768373
210
0.0
220
0.0
230
1.0
  0
TEXT
  8
1
  6
CONTINUOUS
 62
     7
  5
2E0
 10
493.3835
 20
134.573083
 30
0.0
 40
2.5
  1
120/240V 3-WIRE
  7
MONOTXT
 11
493.3835
 21
137.073083
 31
0.0
210
0.0
220
0.0
230
1.0
 73
     3
  0
TEXT
  8
1
  6
CONTINUOUS
 62
     7
  5
2E1
 10
493.3835
 20
130.073083
 30
0.0
 40
2.5
  1
SINGLE 0 60Hz
  7
MONOTXT
 11
493.3835
 21
132.573083
 31
0.0
210
0.0
220
0.0
230
1.0
 73
     3
  0
TEXT
  8
1
  6
CONTINUOUS
 62
     7
  5
2E2
 10
493.3835
 20
125.573083
 30
0.0
 40
2.5
  1
SERVICE
  7
MONOTXT
 11
493.3835
 21
128.073083
 31
0.0
210
0.0
220
0.0
230
1.0
 73
     3
  0
TEXT
  8
1
  6
CONTINUOUS
 62
     7
  5
2E3
 10
508.879083
 20
130.026417
 30
0.0
 40
2.5
  1
/
  7
MONOTXT
210
0.0
220
0.0
230
1.0
  0
TEXT
  8
1
  6
CONTINUOUS
 62
     7
  5
2E4
 10
521.051667
 20
129.6205
 30
0.0
 40
2.5
  1
-
  7
MONOTXT
210
0.0
220
0.0
230
1.0
  0
LINE
  8
1
  6
CONTINUOUS
 62
     3
  5
2E5
 10
317.437667
 20
337.77225
 30
0.0
 11
327.437667
 21
337.77225
 31
0.0
  0
LINE
  8
1
  6
CONTINUOUS
 62
     3
  5
2E6
 10
335.937667
 20
337.77225
 30
0.0
 11
483.437667
 21
337.77225
 31
0.0
  0
LINE
  8
1
  6
CONTINUOUS
 62
     3
  5
2E7
 10
323.437667
 20
332.487917
 30
0.0
 11
327.437667
 21
332.487917
 31
0.0
  0
LINE
  8
1
  6
CONTINUOUS
 62
     3
  5
2E8
 10
335.937667
 20
332.487917
 30
0.0
 11
477.437667
 21
332.487917
 31
0.0
  0
ARC
  8
1
  6
CONTINUOUS
 62
     3
  5
2E9
 10
331.687667
 20
339.092823
 30
0.0
 40
4.45044
 50
197.261225
 51
342.738778
210
0.0
220
0.0
230
1.0
  0
ARC
  8
1
  6
CONTINUOUS
 62
     3
  5
2EA
 10
331.687667
 20
333.80849
 30
0.0
 40
4.45044
 50
197.261225
 51
342.738778
210
0.0
220
0.0
230
1.0
  0
CIRCLE
  8
1
  6
CONTINUOUS
 62
     3
  5
2EB
 10
407.937667
 20
337.77225
 30
0.0
 40
0.75
210
0.0
220
0.0
230
1.0
  0
CIRCLE
  8
1
  6
CONTINUOUS
 62
     3
  5
2EC
 10
437.937667
 20
332.487917
 30
0.0
 40
0.75
210
0.0
220
0.0
230
1.0
  0
LINE
  8
1
  6
CONTINUOUS
 62
     3
  5
2ED
 10
407.937667
 20
323.0895
 30
0.0
 11
407.937667
 21
330.987917
 31
0.0
  0
ARC
  8
1
  6
CONTINUOUS
 62
     3
  5
2EE
 10
407.813835
 20
332.487917
 30
0.0
 40
1.505103
 50
274.719331
 51
85.280669
210
0.0
220
0.0
230
1.0
  0
LINE
  8
1
  6
CONTINUOUS
 62
     3
  5
2EF
 10
317.437667
 20
183.8395
 30
0.0
 11
317.437667
 21
337.77225
 31
0.0
  0
LINE
  8
1
  6
CONTINUOUS
 62
     3
  5
2F0
 10
323.437667
 20
183.8395
 30
0.0
 11
323.437667
 21
332.487917
 31
0.0
  0
LINE
  8
1
  6
CONTINUOUS
 62
     3
  5
2F1
 10
321.992833
 20
181.854917
 30
0.0
 11
319.992833
 21
181.854917
 31
0.0
  0
CIRCLE
  8
1
  6
CONTINUOUS
 62
     3
  5
2F2
 10
323.373
 20
179.854917
 30
0.0
 40
0.75
210
0.0
220
0.0
230
1.0
  0
CIRCLE
  8
1
  6
CONTINUOUS
 62
     3
  5
2F3
 10
317.373
 20
179.854917
 30
0.0
 40
0.75
210
0.0
220
0.0
230
1.0
  0
CIRCLE
  8
1
  6
CONTINUOUS
 62
     3
  5
2F4
 10
323.373
 20
183.854917
 30
0.0
 40
0.75
210
0.0
220
0.0
230
1.0
  0
CIRCLE
  8
1
  6
CONTINUOUS
 62
     3
  5
2F5
 10
317.373
 20
183.854917
 30
0.0
 40
0.75
210
0.0
220
0.0
230
1.0
  0
ARC
  8
1
  6
CONTINUOUS
 62
     3
  5
2F6
 10
322.347006
 20
181.854917
 30
0.0
 40
3.145834
 50
323.414164
 51
36.585836
210
0.0
220
0.0
230
1.0
  0
ARC
  8
1
  6
CONTINUOUS
 62
     3
  5
2F7
 10
316.347006
 20
181.854917
 30
0.0
 40
3.145834
 50
323.414164
 51
36.585836
210
0.0
220
0.0
230
1.0
  0
LINE
  8
1
  6
CONTINUOUS
 62
     3
  5
2F8
 10
324.992833
 20
181.854917
 30
0.0
 11
322.992833
 21
181.854917
 31
0.0
  0
LINE
  8
1
  6
CONTINUOUS
 62
     3
  5
2F9
 10
317.437667
 20
138.4645
 30
0.0
 11
317.437667
 21
179.77575
 31
0.0
  0
LINE
  8
1
  6
CONTINUOUS
 62
     3
  5
2FA
 10
323.437667
 20
138.4645
 30
0.0
 11
323.437667
 21
179.872167
 31
0.0
  0
LINE
  8
1
  6
CONTINUOUS
 62
     3
  5
2FB
 10
323.437667
 20
183.0785
 30
0.0
 11
323.437667
 21
183.8395
 31
0.0
  0
CIRCLE
  8
1
  6
CONTINUOUS
 62
     3
  5
2FC
 10
467.937667
 20
161.9645
 30
0.0
 40
0.75
210
0.0
220
0.0
230
1.0
  0
LINE
  8
1
  6
CONTINUOUS
 62
     3
  5
2FD
 10
333.937667
 20
190.0895
 30
0.0
 11
333.937667
 21
138.4645
 31
0.0
  0
LINE
  8
1
  6
CONTINUOUS
 62
     3
  5
2FE
 10
315.437667
 20
136.4645
 30
0.0
 11
336.937667
 21
136.4645
 31
0.0
  0
LINE
  8
1
  6
CONTINUOUS
 62
     3
  5
2FF
 10
315.437667
 20
136.4645
 30
0.0
 11
315.437667
 21
138.4645
 31
0.0
  0
LINE
  8
1
  6
CONTINUOUS
 62
     3
  5
300
 10
336.937667
 20
136.4645
 30
0.0
 11
336.937667
 21
138.4645
 31
0.0
  0
LINE
  8
1
  6
CONTINUOUS
 62
     3
  5
301
 10
333.937667
 20
190.0895
 30
0.0
 11
406.437667
 21
190.0895
 31
0.0
  0
LINE
  8
1
  6
CONTINUOUS
 62
     3
  5
302
 10
409.437667
 20
190.0895
 30
0.0
 11
436.437667
 21
190.0895
 31
0.0
  0
LINE
  8
1
  6
CONTINUOUS
 62
     3
  5
303
 10
439.437667
 20
190.0895
 30
0.0
 11
467.937667
 21
190.0895
 31
0.0
  0
ARC
  8
1
  6
CONTINUOUS
 62
     3
  5
304
 10
407.937667
 20
189.965668
 30
0.0
 40
1.505103
 50
4.719331
 51
175.280669
210
0.0
220
0.0
230
1.0
  0
ARC
  8
1
  6
CONTINUOUS
 62
     3
  5
305
 10
437.937667
 20
189.965668
 30
0.0
 40
1.505103
 50
4.719331
 51
175.280669
210
0.0
220
0.0
230
1.0
  0
TEXT
  8
1
  6
CONTINUOUS
 62
     7
  5
306
 10
456.380083
 20
313.82475
 30
0.0
 40
2.5
  1
LIGHTING
  7
MONOTXT
 11
456.380083
 21
316.32475
 31
0.0
210
0.0
220
0.0
230
1.0
 73
     3
  0
TEXT
  8
1
  6
CONTINUOUS
 62
     7
  5
307
 10
456.380083
 20
309.32475
 30
0.0
 40
2.5
  1
MAIN
  7
MONOTXT
 11
456.380083
 21
311.82475
 31
0.0
210
0.0
220
0.0
230
1.0
 73
     3
  0
TEXT
  8
1
  6
CONTINUOUS
 62
     7
  5
308
 10
456.380083
 20
304.82475
 30
0.0
 40
2.5
  1
BREAKER
  7
MONOTXT
 11
456.380083
 21
307.32475
 31
0.0
210
0.0
220
0.0
230
1.0
 73
     3
  0
TEXT
  8
1
  6
CONTINUOUS
 62
     7
  5
309
 10
503.234
 20
171.8115
 30
0.0
 40
2.5
  1
NOTICE
  7
MONOTXT
 11
503.234
 21
174.3115
 31
0.0
210
0.0
220
0.0
230
1.0
 73
     3
  0
TEXT
  8
1
  6
CONTINUOUS
 62
     7
  5
30A
 10
503.234
 20
167.3115
 30
0.0
 40
2.5
  1
ENCLOSURE POWER-OFF
  7
MONOTXT
 11
503.234
 21
169.8115
 31
0.0
210
0.0
220
0.0
230
1.0
 73
     3
  0
TEXT
  8
1
  6
CONTINUOUS
 62
     7
  5
30B
 10
503.234
 20
162.8115
 30
0.0
 40
2.5
  1
DOOR INTERLOCK SHALL
  7
MONOTXT
 11
503.234
 21
165.3115
 31
0.0
210
0.0
220
0.0
230
1.0
 73
     3
  0
TEXT
  8
1
  6
CONTINUOUS
 62
     7
  5
30C
 10
503.234
 20
158.3115
 30
0.0
 40
2.5
  1
NOT BE USED FOR THIS
  7
MONOTXT
 11
503.234
 21
160.8115
 31
0.0
210
0.0
220
0.0
230
1.0
 73
     3
  0
TEXT
  8
1
  6
CONTINUOUS
 62
     7
  5
30D
 10
503.234
 20
153.8115
 30
0.0
 40
2.5
  1
CONTROL CABINET
  7
MONOTXT
 11
503.234
 21
156.3115
 31
0.0
210
0.0
220
0.0
230
1.0
 73
     3
  0
LINE
  8
1
  6
CONTINUOUS
 62
     7
  5
30E
 10
492.664833
 20
164.754
 30
0.0
 11
501.664833
 21
164.754
 31
0.0
  0
LINE
  8
1
  6
CONTINUOUS
 62
     7
  5
30F
 10
492.664833
 20
162.57725
 30
0.0
 11
501.664833
 21
162.57725
 31
0.0
  0
LINE
  8
1
  6
CONTINUOUS
 62
     7
  5
310
 10
490.4185
 20
163.665667
 30
0.0
 11
493.954
 21
167.201167
 31
0.0
  0
LINE
  8
1
  6
CONTINUOUS
 62
     7
  5
311
 10
490.4185
 20
163.665667
 30
0.0
 11
493.954
 21
160.130167
 31
0.0
  0
TEXT
  8
1
  6
CONTINUOUS
 62
     7
  5
312
 10
336.332
 20
106.870583
 30
0.0
 40
2.5
  1
120/240V 3-WIRE POWER SERVICE
  7
MONOTXT
 11
336.332
 21
109.370583
 31
0.0
210
0.0
220
0.0
230
1.0
 73
     3
  0
TEXT
  8
1
  6
CONTINUOUS
 62
     7
  5
313
 10
336.332
 20
102.370583
 30
0.0
 40
2.5
  1
FOR SIGNALS #8 AWG (NOMINAL) OR
  7
MONOTXT
 11
336.332
 21
104.870583
 31
0.0
210
0.0
220
0.0
230
1.0
 73
     3
  0
TEXT
  8
1
  6
CONTINUOUS
 62
     7
  5
314
 10
336.332
 20
97.870583
 30
0.0
 40
2.5
  1
AS SHOWN ON PLANS (SEE NOTE 14)
  7
MONOTXT
 11
336.332
 21
100.370583
 31
0.0
210
0.0
220
0.0
230
1.0
 73
     3
  0
LINE
  8
1
  6
CONTINUOUS
 62
     7
  5
315
 10
324.714
 20
136.4645
 30
0.0
 11
314.498833
 21
107.66675
 31
0.0
  0
LINE
  8
1
  6
CONTINUOUS
 62
     7
  5
316
 10
314.498833
 20
107.66675
 30
0.0
 11
335.557833
 21
107.66675
 31
0.0
  0
INSERT
  8
1
  6
CONTINUOUS
 62
     1
  5
317
  2
LDR
 10
324.714
 20
136.4645
 30
0.0
 41
239.999999
 42
239.999999
 50
70.469335
210
0.0
220
0.0
230
1.0
  0
TEXT
  8
1
  6
CONTINUOUS
 62
     7
  5
318
 10
263.257167
 20
205.3575
 30
0.0
 40
2.5
  1
BREAKER (TYP)
  7
MONOTXT
 11
263.257167
 21
207.8575
 31
0.0
210
0.0
220
0.0
230
1.0
 73
     3
  0
TEXT
  8
1
  6
CONTINUOUS
 62
     7
  5
319
 10
263.257167
 20
200.8575
 30
0.0
 40
2.5
  1
SIZE AS REQUIRED
  7
MONOTXT
 11
263.257167
 21
203.3575
 31
0.0
210
0.0
220
0.0
230
1.0
 73
     3
  0
LINE
  8
1
  6
CONTINUOUS
 62
     7
  5
31A
 10
204.0705
 20
187.607667
 30
0.0
 11
261.904417
 21
204.109833
 31
0.0
  0
LINE
  8
1
  6
CONTINUOUS
 62
     7
  5
31B
 10
403.002333
 20
186.3705
 30
0.0
 11
299.492
 21
204.881083
 31
0.0
  0
LINE
  8
1
  6
CONTINUOUS
 62
     7
  5
31C
 10
299.492
 20
204.881083
 30
0.0
 11
321.527917
 21
183.35875
 31
0.0
  0
INSERT
  8
1
  6
CONTINUOUS
 62
     1
  5
31D
  2
LDR
 10
321.527917
 20
183.35875
 30
0.0
 41
239.999999
 42
239.999999
 50
315.675528
210
0.0
220
0.0
230
1.0
  0
INSERT
  8
1
  6
CONTINUOUS
 62
     1
  5
31E
  2
LDR
 10
403.002333
 20
186.3705
 30
0.0
 41
239.999998
 42
239.999998
 50
349.861063
210
0.0
220
0.0
230
1.0
  0
INSERT
  8
1
  6
CONTINUOUS
 62
     1
  5
31F
  2
LDR
 10
204.0705
 20
187.607667
 30
0.0
 41
240.000002
 42
240.000002
 50
195.925418
210
0.0
220
0.0
230
1.0
  0
TEXT
  8
1
  6
CONTINUOUS
 62
     7
  5
320
 10
144.298833
 20
73.695167
 30
0.0
 40
4.0
  1
TYPICAL WIRING
  7
MONOTXT
 72
     4
 11
167.936583
 21
75.695167
 31
0.0
210
0.0
220
0.0
230
1.0
  0
TEXT
  8
1
  6
CONTINUOUS
 62
     7
  5
321
 10
116.172917
 20
65.695167
 30
0.0
 40
4.0
  1
SINGLE PHASE - POWER SERVICE
  7
MONOTXT
 72
     4
 11
167.936667
 21
67.695167
 31
0.0
210
0.0
220
0.0
230
1.0
  0
TEXT
  8
1
  6
CONTINUOUS
 62
     7
  5
322
 10
145.14925
 20
57.695167
 30
0.0
 40
4.0
  1
LIGHTING ONLY
  7
MONOTXT
 72
     4
 11
167.936583
 21
59.695167
 31
0.0
210
0.0
220
0.0
230
1.0
  0
TEXT
  8
1
  6
CONTINUOUS
 62
     7
  5
323
 10
383.24825
 20
72.728333
 30
0.0
 40
4.0
  1
TYPICAL WIRING
  7
MONOTXT
 72
     4
 11
406.886
 21
74.728333
 31
0.0
210
0.0
220
0.0
230
1.0
  0
TEXT
  8
1
  6
CONTINUOUS
 62
     7
  5
324
 10
355.122333
 20
64.728333
 30
0.0
 40
4.0
  1
SINGLE PHASE - POWER SERVICE
  7
MONOTXT
 72
     4
 11
406.886083
 21
66.728333
 31
0.0
210
0.0
220
0.0
230
1.0
  0
TEXT
  8
1
  6
CONTINUOUS
 62
     7
  5
325
 10
349.988417
 20
56.728333
 30
0.0
 40
4.0
  1
LIGHTING WITH SEPARATE FEED FOR
  7
MONOTXT
 72
     4
 11
406.886
 21
58.728333
 31
0.0
210
0.0
220
0.0
230
1.0
  0
TEXT
  8
1
  6
CONTINUOUS
 62
     7
  5
326
 10
380.697083
 20
48.728333
 30
0.0
 40
4.0
  1
TRAFFIC SIGNALS
  7
MONOTXT
 72
     4
 11
406.886
 21
50.728333
 31
0.0
210
0.0
220
0.0
230
1.0
  0
LINE
  8
1
  6
CONTINUOUS
 62
     7
  5
327
 10
143.555833
 20
72.14675
 30
0.0
 11
193.002167
 21
72.14675
 31
0.0
  0
LINE
  8
1
  6
CONTINUOUS
 62
     7
  5
328
 10
115.15775
 20
63.952333
 30
0.0
 11
221.30025
 21
63.952333
 31
0.0
  0
LINE
  8
1
  6
CONTINUOUS
 62
     7
  5
329
 10
144.101917
 20
56.031083
 30
0.0
 11
192.018833
 21
56.031083
 31
0.0
  0
LINE
  8
1
  6
CONTINUOUS
 62
     7
  5
32A
 10
382.801667
 20
71.051417
 30
0.0
 11
431.695417
 21
71.051417
 31
0.0
  0
LINE
  8
1
  6
CONTINUOUS
 62
     7
  5
32B
 10
353.837333
 20
62.918417
 30
0.0
 11
460.30675
 21
62.918417
 31
0.0
  0
LINE
  8
1
  6
CONTINUOUS
 62
     7
  5
32C
 10
348.882917
 20
55.166667
 30
0.0
 11
465.41525
 21
55.166667
 31
0.0
  0
LINE
  8
1
  6
CONTINUOUS
 62
     7
  5
32D
 10
379.62575
 20
47.03375
 30
0.0
 11
435.238917
 21
47.03375
 31
0.0
  0
TEXT
  8
1
  6
CONTINUOUS
 62
     7
  5
32E
 10
510.28725
 20
403.089167
 30
0.0
 40
2.5
  1
NOTES:
  7
MONOTXT
 11
510.28725
 21
405.589167
 31
0.0
210
0.0
220
0.0
230
1.0
 73
     3
  0
TEXT
  8
1
  6
CONTINUOUS
 62
     7
  5
32F
 10
510.28725
 20
398.589167
 30
0.0
 40
2.5
  1
 
  7
MONOTXT
 11
510.28725
 21
401.089167
 31
0.0
210
0.0
220
0.0
230
1.0
 73
     3
  0
TEXT
  8
1
  6
CONTINUOUS
 62
     7
  5
330
 10
510.28725
 20
394.089167
 30
0.0
 40
2.5
  1
1.   COMPONENT SIZES FOR CONTROL CENTERS NOT SPECIFIED ON THIS
  7
MONOTXT
 11
510.28725
 21
396.589167
 31
0.0
210
0.0
220
0.0
230
1.0
 73
     3
  0
TEXT
  8
1
  6
CONTINUOUS
 62
     7
  5
331
 10
510.28725
 20
389.589167
 30
0.0
 40
2.5
  1
   SHEET WILL BE DETERMINED BY EVALUATION OF THE CIRCUIT LOAD.
  7
MONOTXT
 11
510.28725
 21
392.089167
 31
0.0
210
0.0
220
0.0
230
1.0
 73
     3
  0
TEXT
  8
1
  6
CONTINUOUS
 62
     7
  5
332
 10
510.28725
 20
385.089167
 30
0.0
 40
2.5
  1
 
  7
MONOTXT
 11
510.28725
 21
387.589167
 31
0.0
210
0.0
220
0.0
230
1.0
 73
     3
  0
TEXT
  8
1
  6
CONTINUOUS
 62
     7
  5
333
 10
510.28725
 20
380.589167
 30
0.0
 40
2.5
  1
2.   FOR INTERNAL CONTROL CENTER WIRING  10 AWG STRANDED COPPER
  7
MONOTXT
 11
510.28725
 21
383.089167
 31
0.0
210
0.0
220
0.0
230
1.0
 73
     3
  0
TEXT
  8
1
  6
CONTINUOUS
 62
     7
  5
334
 10
510.28725
 20
376.089167
 30
0.0
 40
2.5
  1
   WIRE SHALL BE USED UNLESS OTHERWISE SPECIFIED.
  7
MONOTXT
 11
510.28725
 21
378.589167
 31
0.0
210
0.0
220
0.0
230
1.0
 73
     3
  0
TEXT
  8
1
  6
CONTINUOUS
 62
     7
  5
335
 10
510.28725
 20
371.589167
 30
0.0
 40
2.5
  1
 
  7
MONOTXT
 11
510.28725
 21
374.089167
 31
0.0
210
0.0
220
0.0
230
1.0
 73
     3
  0
TEXT
  8
1
  6
CONTINUOUS
 62
     7
  5
336
 10
510.28725
 20
367.089167
 30
0.0
 40
2.5
  1
3.   LIGHTNING PROTECTION FOR CONTROL STATION SHALL BE PROVIDED
  7
MONOTXT
 11
510.28725
 21
369.589167
 31
0.0
210
0.0
220
0.0
230
1.0
 73
     3
  0
TEXT
  8
1
  6
CONTINUOUS
 62
     7
  5
337
 10
510.28725
 20
362.589167
 30
0.0
 40
2.5
  1
   ON THE SERVICE POLE AT THE WEATHERHEAD AS PER TEL-21.
  7
MONOTXT
 11
510.28725
 21
365.089167
 31
0.0
210
0.0
220
0.0
230
1.0
 73
     3
  0
TEXT
  8
1
  6
CONTINUOUS
 62
     7
  5
338
 10
510.28725
 20
358.089167
 30
0.0
 40
2.5
  1
 
  7
MONOTXT
 11
510.28725
 21
360.589167
 31
0.0
210
0.0
220
0.0
230
1.0
 73
     3
  0
TEXT
  8
1
  6
CONTINUOUS
 62
     7
  5
339
 10
510.28725
 20
353.589167
 30
0.0
 40
2.5
  1
4.   CONDUIT HUBS SHALL BE MOUNTED TO ACCOMMODATE ALL CIRCUITS
  7
MONOTXT
 11
510.28725
 21
356.089167
 31
0.0
210
0.0
220
0.0
230
1.0
 73
     3
  0
TEXT
  8
1
  6
CONTINUOUS
 62
     7
  5
33A
 10
510.28725
 20
349.089167
 30
0.0
 40
2.5
  1
   TO BE SERVED. SIZES SHALL BE COMPATIBLE TO CONDUIT SIZE 
  7
MONOTXT
 11
510.28725
 21
351.589167
 31
0.0
210
0.0
220
0.0
230
1.0
 73
     3
  0
TEXT
  8
1
  6
CONTINUOUS
 62
     7
  5
33B
 10
510.28725
 20
344.589167
 30
0.0
 40
2.5
  1
   INDICATED ON PLAN SHEETS. REDUCERS SHALL NOT BE USED.
  7
MONOTXT
 11
510.28725
 21
347.089167
 31
0.0
210
0.0
220
0.0
230
1.0
 73
     3
  0
TEXT
  8
1
  6
CONTINUOUS
 62
     7
  5
33C
 10
510.28725
 20
340.089167
 30
0.0
 40
2.5
  1
 
  7
MONOTXT
 11
510.28725
 21
342.589167
 31
0.0
210
0.0
220
0.0
230
1.0
 73
     3
  0
TEXT
  8
1
  6
CONTINUOUS
 62
     7
  5
33D
 10
510.28725
 20
335.589167
 30
0.0
 40
2.5
  1
5.   IN THE EVENT THAT A CONTROL STATION COMPONENT SIZE FALLS
  7
MONOTXT
 11
510.28725
 21
338.089167
 31
0.0
210
0.0
220
0.0
230
1.0
 73
     3
  0
TEXT
  8
1
  6
CONTINUOUS
 62
     7
  5
33E
 10
510.28725
 20
331.089167
 30
0.0
 40
2.5
  1
   BETWEEN TWO TRADE SIZES, THE HIGHER TRADE SIZE SHALL BE USED.
  7
MONOTXT
 11
510.28725
 21
333.589167
 31
0.0
210
0.0
220
0.0
230
1.0
 73
     3
  0
TEXT
  8
1
  6
CONTINUOUS
 62
     7
  5
33F
 10
510.28725
 20
326.589167
 30
0.0
 40
2.5
  1
 
  7
MONOTXT
 11
510.28725
 21
329.089167
 31
0.0
210
0.0
220
0.0
230
1.0
 73
     3
  0
TEXT
  8
1
  6
CONTINUOUS
 62
     7
  5
340
 10
510.28725
 20
322.089167
 30
0.0
 40
2.5
  1
6.   GROUNDING SYSTEMS SHALL BE INSTALLED IN STRICT COMPLIANCE WITH
  7
MONOTXT
 11
510.28725
 21
324.589167
 31
0.0
210
0.0
220
0.0
230
1.0
 73
     3
  0
TEXT
  8
1
  6
CONTINUOUS
 62
     7
  5
341
 10
510.28725
 20
317.589167
 30
0.0
 40
2.5
  1
   NATIONAL ELECTRIC CODE, STATE AND LOCAL REGULATIONS.
  7
MONOTXT
 11
510.28725
 21
320.089167
 31
0.0
210
0.0
220
0.0
230
1.0
 73
     3
  0
TEXT
  8
1
  6
CONTINUOUS
 62
     7
  5
342
 10
510.28725
 20
313.089167
 30
0.0
 40
2.5
  1
 
  7
MONOTXT
 11
510.28725
 21
315.589167
 31
0.0
210
0.0
220
0.0
230
1.0
 73
     3
  0
TEXT
  8
1
  6
CONTINUOUS
 62
     7
  5
343
 10
510.28725
 20
308.589167
 30
0.0
 40
2.5
  1
7.   ALL WIRING SHALL BE NEAT AND OF GOOD WORKMANSHIP. NATIONAL
  7
MONOTXT
 11
510.28725
 21
311.089167
 31
0.0
210
0.0
220
0.0
230
1.0
 73
     3
  0
TEXT
  8
1
  6
CONTINUOUS
 62
     7
  5
344
 10
510.28725
 20
304.089167
 30
0.0
 40
2.5
  1
   ELECTRIC CODE STANDARDS SHALL BE ADHERED TO BY THE CON-
  7
MONOTXT
 11
510.28725
 21
306.589167
 31
0.0
210
0.0
220
0.0
230
1.0
 73
     3
  0
TEXT
  8
1
  6
CONTINUOUS
 62
     7
  5
345
 10
510.28725
 20
299.589167
 30
0.0
 40
2.5
  1
   TRACTOR.
  7
MONOTXT
 11
510.28725
 21
302.089167
 31
0.0
210
0.0
220
0.0
230
1.0
 73
     3
  0
TEXT
  8
1
  6
CONTINUOUS
 62
     7
  5
346
 10
510.28725
 20
295.089167
 30
0.0
 40
2.5
  1
 
  7
MONOTXT
 11
510.28725
 21
297.589167
 31
0.0
210
0.0
220
0.0
230
1.0
 73
     3
  0
TEXT
  8
1
  6
CONTINUOUS
 62
     7
  5
347
 10
510.28725
 20
290.589167
 30
0.0
 40
2.5
  1
8.   LUMINAIRE WIRING AT POLE BASE SHALL BE PERFORMED IN ACCORD-
  7
MONOTXT
 11
510.28725
 21
293.089167
 31
0.0
210
0.0
220
0.0
230
1.0
 73
     3
  0
TEXT
  8
1
  6
CONTINUOUS
 62
     7
  5
348
 10
510.28725
 20
286.089167
 30
0.0
 40
2.5
  1
   ANCE WITH STANDARD DRAWING TEL-01.
  7
MONOTXT
 11
510.28725
 21
288.589167
 31
0.0
210
0.0
220
0.0
230
1.0
 73
     3
  0
TEXT
  8
1
  6
CONTINUOUS
 62
     7
  5
349
 10
510.28725
 20
281.589167
 30
0.0
 40
2.5
  1
 
  7
MONOTXT
 11
510.28725
 21
284.089167
 31
0.0
210
0.0
220
0.0
230
1.0
 73
     3
  0
TEXT
  8
1
  6
CONTINUOUS
 62
     7
  5
34A
 10
510.28725
 20
277.089167
 30
0.0
 40
2.5
  1
9.   CONTROL CABINET MOUNTING SHALL BE IN ACCORDANCE WITH STAND-
  7
MONOTXT
 11
510.28725
 21
279.589167
 31
0.0
210
0.0
220
0.0
230
1.0
 73
     3
  0
TEXT
  8
1
  6
CONTINUOUS
 62
     7
  5
34B
 10
510.28725
 20
272.589167
 30
0.0
 40
2.5
  1
   ARD DRAWING TEL-21 OR AS OTHERWISE DIRECTED ON THE CONTRACT 
  7
MONOTXT
 11
510.28725
 21
275.089167
 31
0.0
210
0.0
220
0.0
230
1.0
 73
     3
  0
TEXT
  8
1
  6
CONTINUOUS
 62
     7
  5
34C
 10
510.28725
 20
268.089167
 30
0.0
 40
2.5
  1
   PLANS.
  7
MONOTXT
 11
510.28725
 21
270.589167
 31
0.0
210
0.0
220
0.0
230
1.0
 73
     3
  0
TEXT
  8
1
  6
CONTINUOUS
 62
     7
  5
34D
 10
510.28725
 20
263.589167
 30
0.0
 40
2.5
  1
 
  7
MONOTXT
 11
510.28725
 21
266.089167
 31
0.0
210
0.0
220
0.0
230
1.0
 73
     3
  0
TEXT
  8
1
  6
CONTINUOUS
 62
     7
  5
34E
 10
510.28725
 20
259.089167
 30
0.0
 40
2.5
  1
10.  ENCLOSURES WILL BE NEMA TYPE 4 STAINLESS STEEL CABINET, WITH
  7
MONOTXT
 11
510.28725
 21
261.589167
 31
0.0
210
0.0
220
0.0
230
1.0
 73
     3
  0
TEXT
  8
1
  6
CONTINUOUS
 62
     7
  5
34F
 10
510.28725
 20
254.589167
 30
0.0
 40
2.5
  1
   3" LETTERING D.O.H. -    VOLTS.
  7
MONOTXT
 11
510.28725
 21
257.089167
 31
0.0
210
0.0
220
0.0
230
1.0
 73
     3
  0
TEXT
  8
1
  6
CONTINUOUS
 62
     7
  5
350
 10
510.28725
 20
250.089167
 30
0.0
 40
2.5
  1
 
  7
MONOTXT
 11
510.28725
 21
252.589167
 31
0.0
210
0.0
220
0.0
230
1.0
 73
     3
  0
TEXT
  8
1
  6
CONTINUOUS
 62
     7
  5
351
 10
510.28725
 20
245.589167
 30
0.0
 40
2.5
  1
11.  ENCLOSURE SIZE WILL BE DETERMINED BY COMPONENT SIZE AND
  7
MONOTXT
 11
510.28725
 21
248.089167
 31
0.0
210
0.0
220
0.0
230
1.0
 73
     3
  0
TEXT
  8
1
  6
CONTINUOUS
 62
     7
  5
352
 10
510.28725
 20
241.089167
 30
0.0
 40
2.5
  1
   APPROVED BY THE ENGINEER.
  7
MONOTXT
 11
510.28725
 21
243.589167
 31
0.0
210
0.0
220
0.0
230
1.0
 73
     3
  0
TEXT
  8
1
  6
CONTINUOUS
 62
     7
  5
353
 10
510.28725
 20
236.589167
 30
0.0
 40
2.5
  1
 
  7
MONOTXT
 11
510.28725
 21
239.089167
 31
0.0
210
0.0
220
0.0
230
1.0
 73
     3
  0
TEXT
  8
1
  6
CONTINUOUS
 62
     7
  5
354
 10
510.28725
 20
232.089167
 30
0.0
 40
2.5
  1
12.  PHOTOELECTRIC UNIT SHALL BE MOUNTED OUTSIDE THE LIGHT ENVELOPE
  7
MONOTXT
 11
510.28725
 21
234.589167
 31
0.0
210
0.0
220
0.0
230
1.0
 73
     3
  0
TEXT
  8
1
  6
CONTINUOUS
 62
     7
  5
355
 10
510.28725
 20
227.589167
 30
0.0
 40
2.5
  1
   CAST BY THE LIGHTING SYSTEM. PHOTOELECTRIC UNIT WILL BE PHOTO-
  7
MONOTXT
 11
510.28725
 21
230.089167
 31
0.0
210
0.0
220
0.0
230
1.0
 73
     3
  0
TEXT
  8
1
  6
CONTINUOUS
 62
     7
  5
356
 10
510.28725
 20
223.089167
 30
0.0
 40
2.5
  1
   CELL TWISTLOCK TYPE, STANDARD NEMA WITH 2 3/4 " I.D. LOCKING BASE.
  7
MONOTXT
 11
510.28725
 21
225.589167
 31
0.0
210
0.0
220
0.0
230
1.0
 73
     3
  0
TEXT
  8
1
  6
CONTINUOUS
 62
     7
  5
357
 10
510.28725
 20
218.589167
 30
0.0
 40
2.5
  1
 
  7
MONOTXT
 11
510.28725
 21
221.089167
 31
0.0
210
0.0
220
0.0
230
1.0
 73
     3
  0
TEXT
  8
1
  6
CONTINUOUS
 62
     7
  5
358
 10
510.28725
 20
214.089167
 30
0.0
 40
2.5
  1
13.  IN CASES WHERE THE LINE-SIDE OF THE ELECTRICAL SERVICE DOES NOT
  7
MONOTXT
 11
510.28725
 21
216.589167
 31
0.0
210
0.0
220
0.0
230
1.0
 73
     3
  0
TEXT
  8
1
  6
CONTINUOUS
 62
     7
  5
359
 10
510.28725
 20
209.589167
 30
0.0
 40
2.5
  1
   HAVE A LIGHTNING ARRESTER INSTALLED BY THE SERVING UTILITY
  7
MONOTXT
 11
510.28725
 21
212.089167
 31
0.0
210
0.0
220
0.0
230
1.0
 73
     3
  0
TEXT
  8
1
  6
CONTINUOUS
 62
     7
  5
35A
 10
510.28725
 20
205.089167
 30
0.0
 40
2.5
  1
   COMPANY: THE UNIT MUST BE INSTALLED BY THE CONTRACTOR ON THE
  7
MONOTXT
 11
510.28725
 21
207.589167
 31
0.0
210
0.0
220
0.0
230
1.0
 73
     3
  0
TEXT
  8
1
  6
CONTINUOUS
 62
     7
  5
35B
 10
510.28725
 20
200.589167
 30
0.0
 40
2.5
  1
   LOAD-SIDE OF THE SYSTEM WITHIN THE CONTROL CENTER ENCLOSURE.
  7
MONOTXT
 11
510.28725
 21
203.089167
 31
0.0
210
0.0
220
0.0
230
1.0
 73
     3
  0
TEXT
  8
1
  6
CONTINUOUS
 62
     7
  5
35C
 10
510.28725
 20
196.089167
 30
0.0
 40
2.5
  1
 
  7
MONOTXT
 11
510.28725
 21
198.589167
 31
0.0
210
0.0
220
0.0
230
1.0
 73
     3
  0
TEXT
  8
1
  6
CONTINUOUS
 62
     7
  5
35D
 10
510.28725
 20
191.589167
 30
0.0
 40
2.5
  1
14.  TRAFFIC SIGNAL FEED GOES TO EXTERNAL ENCLOSED CIRCUIT BREAKER
  7
MONOTXT
 11
510.28725
 21
194.089167
 31
0.0
210
0.0
220
0.0
230
1.0
 73
     3
  0
TEXT
  8
1
  6
CONTINUOUS
 62
     7
  5
35E
 10
510.28725
 20
187.089167
 30
0.0
 40
2.5
  1
   AT SIGNAL (SEE STANDARD SPECIFICATIONS). NOTE ONLY 120V IS TO BE
  7
MONOTXT
 11
510.28725
 21
189.589167
 31
0.0
210
0.0
220
0.0
230
1.0
 73
     3
  0
TEXT
  8
1
  6
CONTINUOUS
 62
     7
  5
35F
 10
510.28725
 20
182.589167
 30
0.0
 40
2.5
  1
   BROUGHT INTO THE SIGNAL CONTROLLER CABINET.
  7
MONOTXT
 11
510.28725
 21
185.089167
 31
0.0
210
0.0
220
0.0
230
1.0
 73
     3
  0
LINE
  8
1
  6
CONTINUOUS
 62
     7
  5
360
 10
501.953333
 20
171.427167
 30
0.0
 11
516.7685
 21
171.427167
 31
0.0
  0
LINE
  8
1
  6
CONTINUOUS
 62
     7
  5
361
 10
561.45475
 20
253.560083
 30
0.0
 11
570.081417
 21
253.560083
 31
0.0
  0
LINE
  8
1
  6
CONTINUOUS
 62
     7
  5
362
 10
509.5795
 20
402.020333
 30
0.0
 11
523.483917
 21
402.020333
 31
0.0
  0
LINE
  8
1
  6
CONTINUOUS
 62
     7
  5
363
 10
498.33075
 20
112.10875
 30
0.0
 11
496.33075
 21
108.644667
 31
0.0
  0
LINE
  8
1
  6
CONTINUOUS
 62
     7
  5
364
 10
498.33075
 20
112.10875
 30
0.0
 11
500.33075
 21
108.644667
 31
0.0
  0
LINE
  8
1
  6
CONTINUOUS
 62
     7
  5
365
 10
500.33075
 20
108.644667
 30
0.0
 11
496.33075
 21
108.644667
 31
0.0
  0
LINE
  8
1
  6
CONTINUOUS
 62
     7
  5
366
 10
498.3375
 20
116.589833
 30
0.0
 11
496.3375
 21
113.12575
 31
0.0
  0
LINE
  8
1
  6
CONTINUOUS
 62
     7
  5
367
 10
498.3375
 20
116.589833
 30
0.0
 11
500.3375
 21
113.12575
 31
0.0
  0
LINE
  8
1
  6
CONTINUOUS
 62
     7
  5
368
 10
500.3375
 20
113.12575
 30
0.0
 11
496.3375
 21
113.12575
 31
0.0
  0
LINE
  8
1
  6
CONTINUOUS
 62
     7
  5
369
 10
498.3245
 20
121.194333
 30
0.0
 11
496.3245
 21
117.73025
 31
0.0
  0
LINE
  8
1
  6
CONTINUOUS
 62
     7
  5
36A
 10
498.3245
 20
121.194333
 30
0.0
 11
500.3245
 21
117.73025
 31
0.0
  0
LINE
  8
1
  6
CONTINUOUS
 62
     7
  5
36B
 10
500.3245
 20
117.73025
 30
0.0
 11
496.3245
 21
117.73025
 31
0.0
  0
TEXT
  8
1
  6
CONTINUOUS
 62
     7
  5
36C
 10
497.942833
 20
118.132083
 30
0.0
 40
1.9
  1
1
  7
MONOTXT
210
0.0
220
0.0
230
1.0
  0
TEXT
  8
1
  6
CONTINUOUS
 62
     7
  5
36D
 10
497.711833
 20
113.51075
 30
0.0
 40
1.9
  1
2
  7
MONOTXT
210
0.0
220
0.0
230
1.0
  0
TEXT
  8
1
  6
CONTINUOUS
 62
     7
  5
36E
 10
497.634833
 20
108.966333
 30
0.0
 40
1.9
  1
3
  7
MONOTXT
210
0.0
220
0.0
230
1.0
  0
TEXT
  8
1
  6
CONTINUOUS
 62
     7
  5
36F
 10
500.94575
 20
118.59425
 30
0.0
 40
1.9
  1
COORDINATED VOLTAGES WITH TEL-01.
  7
MONOTXT
210
0.0
220
0.0
230
1.0
  0
TEXT
  8
1
  6
CONTINUOUS
 62
     7
  5
370
 10
501.17675
 20
114.203917
 30
0.0
 40
1.9
  1
COMPLETELY CHANGED TYPICAL WIRING.
  7
MONOTXT
210
0.0
220
0.0
230
1.0
  0
TEXT
  8
1
  6
CONTINUOUS
 62
     7
  5
371
 10
501.25375
 20
109.659583
 30
0.0
 40
1.9
  1
MODIFIED PHOTOELECTRIC CELL WIRING SCHEME.
  7
MONOTXT
210
0.0
220
0.0
230
1.0
  0
LINE
  8
1
  6
CONTINUOUS
 62
     7
  5
372
 10
500.680333
 20
46.025167
 30
0.0
 11
496.680333
 21
46.025167
 31
0.0
  0
LINE
  8
1
  6
CONTINUOUS
 62
     7
  5
373
 10
498.680333
 20
49.48925
 30
0.0
 11
496.680333
 21
46.025167
 31
0.0
  0
LINE
  8
1
  6
CONTINUOUS
 62
     7
  5
374
 10
498.680333
 20
49.48925
 30
0.0
 11
500.680333
 21
46.025167
 31
0.0
  0
LINE
  8
1
  6
CONTINUOUS
 62
     7
  5
375
 10
500.516417
 20
41.47525
 30
0.0
 11
496.516417
 21
41.47525
 31
0.0
  0
LINE
  8
1
  6
CONTINUOUS
 62
     7
  5
376
 10
498.516417
 20
44.939333
 30
0.0
 11
496.516417
 21
41.47525
 31
0.0
  0
LINE
  8
1
  6
CONTINUOUS
 62
     7
  5
377
 10
498.516417
 20
44.939333
 30
0.0
 11
500.516417
 21
41.47525
 31
0.0
  0
LINE
  8
1
  6
CONTINUOUS
 62
     7
  5
378
 10
500.598333
 20
37.00725
 30
0.0
 11
496.598333
 21
37.00725
 31
0.0
  0
LINE
  8
1
  6
CONTINUOUS
 62
     7
  5
379
 10
498.598333
 20
40.471333
 30
0.0
 11
496.598333
 21
37.00725
 31
0.0
  0
LINE
  8
1
  6
CONTINUOUS
 62
     7
  5
37A
 10
498.598333
 20
40.471333
 30
0.0
 11
500.598333
 21
37.00725
 31
0.0
  0
TEXT
  8
1
  6
CONTINUOUS
 62
     1
  5
37B
 10
505.007
 20
46.361917
 30
0.0
 40
2.0
  1
12-10-76
  7
MONOTXT
 72
     1
 11
511.392833
 21
48.361917
 31
0.0
210
0.0
220
0.0
230
1.0
 73
     3
  0
TEXT
  8
1
  6
CONTINUOUS
 62
     7
  5
37C
 10
498.2065
 20
46.381667
 30
0.0
 40
1.9
  1
1
  7
MONOTXT
210
0.0
220
0.0
230
1.0
  0
TEXT
  8
1
  6
CONTINUOUS
 62
     7
  5
37D
 10
497.878667
 20
41.83175
 30
0.0
 40
1.9
  1
2
  7
MONOTXT
210
0.0
220
0.0
230
1.0
  0
TEXT
  8
1
  6
CONTINUOUS
 62
     7
  5
37E
 10
497.919667
 20
37.24075
 30
0.0
 40
1.9
  1
3
  7
MONOTXT
210
0.0
220
0.0
230
1.0
  0
TEXT
  8
1
  6
CONTINUOUS
 62
     7
  5
37F
 10
36.2455
 20
258.942583
 30
0.0
 40
2.5
  1
JACK
  7
MONOTXT
 11
36.2455
 21
261.442583
 31
0.0
210
0.0
220
0.0
230
1.0
 73
     3
  0
TEXT
  8
1
  6
CONTINUOUS
 62
     7
  5
380
 10
36.2455
 20
254.442583
 30
0.0
 40
2.5
  1
MOUNTED
  7
MONOTXT
 11
36.2455
 21
256.942583
 31
0.0
210
0.0
220
0.0
230
1.0
 73
     3
  0
TEXT
  8
1
  6
CONTINUOUS
 62
     7
  5
381
 10
36.2455
 20
249.942583
 30
0.0
 40
2.5
  1
RELAYS
  7
MONOTXT
 11
36.2455
 21
252.442583
 31
0.0
210
0.0
220
0.0
230
1.0
 73
     3
  0
TEXT
  8
1
  6
CONTINUOUS
 62
     7
  5
382
 10
36.2455
 20
245.442583
 30
0.0
 40
2.5
  1
(TYP)
  7
MONOTXT
 11
36.2455
 21
247.942583
 31
0.0
210
0.0
220
0.0
230
1.0
 73
     3
  0
TEXT
  8
1
  6
CONTINUOUS
 62
     7
  5
383
 10
599.52675
 20
378.90475
 30
0.0
 40
4.5
  1
#
  7
MONOTXT
210
0.0
220
0.0
230
1.0
  0
TEXT
  8
1
  6
CONTINUOUS
 62
     7
  5
384
 10
505.355583
 20
71.525667
 30
0.0
 40
6.0
  1
CONTROL STATION (POLE MOUNTED)
  7
txt
210
0.0
220
0.0
230
1.0
  0
LINE
  8
1
  6
CONTINUOUS
 62
     7
  5
385
 10
500.504833
 20
104.204833
 30
0.0
 11
496.504833
 21
104.204833
 31
0.0
  0
LINE
  8
1
  6
CONTINUOUS
 62
     7
  5
386
 10
498.504833
 20
107.668917
 30
0.0
 11
496.504833
 21
104.204833
 31
0.0
  0
LINE
  8
1
  6
CONTINUOUS
 62
     7
  5
387
 10
498.504833
 20
107.668917
 30
0.0
 11
500.504833
 21
104.204833
 31
0.0
  0
TEXT
  8
1
  6
CONTINUOUS
 62
     7
  5
388
 10
497.808917
 20
104.5265
 30
0.0
 40
1.9
  1
4
  7
MONOTXT
210
0.0
220
0.0
230
1.0
  0
TEXT
  8
1
  6
CONTINUOUS
 62
     7
  5
389
 10
501.427833
 20
105.21975
 30
0.0
 40
1.9
  1
REVISED PE CELL, ADDED COMBINATION SIGNAL AND LIGHTING CONTROLLER
  7
MONOTXT
210
0.0
220
0.0
230
1.0
  0
LINE
  8
1
  6
CONTINUOUS
 62
     7
  5
38A
 10
500.866083
 20
32.530833
 30
0.0
 11
496.866083
 21
32.530833
 31
0.0
  0
LINE
  8
1
  6
CONTINUOUS
 62
     7
  5
38B
 10
498.866083
 20
35.994917
 30
0.0
 11
496.866083
 21
32.530833
 31
0.0
  0
LINE
  8
1
  6
CONTINUOUS
 62
     7
  5
38C
 10
498.866083
 20
35.994917
 30
0.0
 11
500.866083
 21
32.530833
 31
0.0
  0
TEXT
  8
1
  6
CONTINUOUS
 62
     7
  5
38D
 10
498.187417
 20
32.764333
 30
0.0
 40
1.9
  1
4
  7
MONOTXT
210
0.0
220
0.0
230
1.0
  0
ENDSEC
  0
EOF
