  0
SECTION
  2
HEADER
  9
$ACADVER
  1
AC1009
  9
$INSBASE
 10
0.0
 20
0.0
 30
0.0
  9
$EXTMIN
 10
-0.0595
 20
-279.348583
 30
0.0
  9
$EXTMAX
 10
1143.621417
 20
160.691417
 30
0.0
  9
$LIMMIN
 10
0.0
 20
0.0
  9
$LIMMAX
 10
12.0
 20
9.0
  9
$ORTHOMODE
 70
     0
  9
$REGENMODE
 70
     1
  9
$FILLMODE
 70
     1
  9
$QTEXTMODE
 70
     0
  9
$MIRRTEXT
 70
     1
  9
$DRAGMODE
 70
     2
  9
$LTSCALE
 40
1.0
  9
$OSMODE
 70
     0
  9
$ATTMODE
 70
     1
  9
$TEXTSIZE
 40
0.2
  9
$TRACEWID
 40
0.05
  9
$TEXTSTYLE
  7
STANDARD
  9
$CLAYER
  8
0
  9
$CELTYPE
  6
CONTINUOUS
  9
$CECOLOR
 62
   256
  9
$DIMSCALE
 40
1.0
  9
$DIMASZ
 40
0.18
  9
$DIMEXO
 40
0.0625
  9
$DIMDLI
 40
0.38
  9
$DIMRND
 40
0.0
  9
$DIMDLE
 40
0.0
  9
$DIMEXE
 40
0.18
  9
$DIMTP
 40
0.0
  9
$DIMTM
 40
0.0
  9
$DIMTXT
 40
0.18
  9
$DIMCEN
 40
0.09
  9
$DIMTSZ
 40
0.0
  9
$DIMTOL
 70
     0
  9
$DIMLIM
 70
     0
  9
$DIMTIH
 70
     1
  9
$DIMTOH
 70
     1
  9
$DIMSE1
 70
     0
  9
$DIMSE2
 70
     0
  9
$DIMTAD
 70
     0
  9
$DIMZIN
 70
     0
  9
$DIMBLK
  1

  9
$DIMASO
 70
     1
  9
$DIMSHO
 70
     1
  9
$DIMPOST
  1

  9
$DIMAPOST
  1

  9
$DIMALT
 70
     0
  9
$DIMALTD
 70
     2
  9
$DIMALTF
 40
25.4
  9
$DIMLFAC
 40
1.0
  9
$DIMTOFL
 70
     0
  9
$DIMTVP
 40
0.0
  9
$DIMTIX
 70
     0
  9
$DIMSOXD
 70
     0
  9
$DIMSAH
 70
     0
  9
$DIMBLK1
  1

  9
$DIMBLK2
  1

  9
$DIMSTYLE
  2
STANDARD
  9
$DIMCLRD
 70
     0
  9
$DIMCLRE
 70
     0
  9
$DIMCLRT
 70
     0
  9
$DIMTFAC
 40
1.0
  9
$DIMGAP
 40
0.09
  9
$LUNITS
 70
     2
  9
$LUPREC
 70
     4
  9
$AXISMODE
 70
     0
  9
$AXISUNIT
 10
0.0
 20
0.0
  9
$SKETCHINC
 40
0.1
  9
$FILLETRAD
 40
0.0
  9
$AUNITS
 70
     0
  9
$AUPREC
 70
     0
  9
$MENU
  1
acad
  9
$ELEVATION
 40
0.0
  9
$PELEVATION
 40
0.0
  9
$THICKNESS
 40
0.0
  9
$LIMCHECK
 70
     0
  9
$BLIPMODE
 70
     1
  9
$CHAMFERA
 40
0.0
  9
$CHAMFERB
 40
0.0
  9
$SKPOLY
 70
     0
  9
$TDCREATE
 40
2451803.449988426
  9
$TDUPDATE
 40
2451803.449988426
  9
$TDINDWG
 40
0.0000000000
  9
$TDUSRTIMER
 40
0.0000000000
  9
$USRTIMER
 70
     1
  9
$ANGBASE
 50
0.0
  9
$ANGDIR
 70
     0
  9
$PDMODE
 70
     0
  9
$PDSIZE
 40
0.0
  9
$PLINEWID
 40
0.0
  9
$COORDS
 70
     0
  9
$SPLFRAME
 70
     0
  9
$SPLINETYPE
 70
     6
  9
$SPLINESEGS
 70
    10
  9
$ATTDIA
 70
     0
  9
$ATTREQ
 70
     1
  9
$HANDLING
 70
     1
  9
$HANDSEED
  5
563
  9
$SURFTAB1
 70
     6
  9
$SURFTAB2
 70
     6
  9
$SURFTYPE
 70
     6
  9
$SURFU
 70
     6
  9
$SURFV
 70
     6
  9
$UCSNAME
  2

  9
$UCSORG
 10
0.0
 20
0.0
 30
0.0
  9
$UCSXDIR
 10
1.0
 20
0.0
 30
0.0
  9
$UCSYDIR
 10
0.0
 20
1.0
 30
0.0
  9
$PUCSNAME
  2

  9
$PUCSORG
 10
0.0
 20
0.0
 30
0.0
  9
$PUCSXDIR
 10
1.0
 20
0.0
 30
0.0
  9
$PUCSYDIR
 10
0.0
 20
1.0
 30
0.0
  9
$USERI1
 70
     0
  9
$USERI2
 70
     0
  9
$USERI3
 70
     0
  9
$USERI4
 70
     0
  9
$USERI5
 70
     0
  9
$USERR1
 40
0.0
  9
$USERR2
 40
0.0
  9
$USERR3
 40
0.0
  9
$USERR4
 40
0.0
  9
$USERR5
 40
0.0
  9
$WORLDVIEW
 70
     1
  9
$SHADEDGE
 70
     3
  9
$SHADEDIF
 70
    70
  9
$TILEMODE
 70
     1
  9
$MAXACTVP
 70
    16
  9
$PINSBASE
 10
0.0
 20
0.0
 30
0.0
  9
$PLIMCHECK
 70
     0
  9
$PEXTMIN
 10
-1.000000E+20
 20
-1.000000E+20
 30
-1.000000E+20
  9
$PEXTMAX
 10
-1.000000E+20
 20
-1.000000E+20
 30
-1.000000E+20
  9
$PLIMMIN
 10
0.0
 20
0.0
  9
$PLIMMAX
 10
12.0
 20
9.0
  9
$UNITMODE
 70
     0
  9
$VISRETAIN
 70
     0
  9
$PLINEGEN
 70
     1
  9
$PSLTSCALE
 70
     0
  9
$TREEDEPTH
 70
  3020
  9
$DWGCODEPAGE
  3
ansi_1252
  0
ENDSEC
  0
SECTION
  2
TABLES
  0
TABLE
  2
VPORT
 70
     1
  0
VPORT
  2
*ACTIVE
 70
     0
 10
0.0
 20
0.0
 11
1.0
 21
1.0
 12
0.0
 22
0.0
 13
0.0
 23
0.0
 14
0.0
 24
0.0
 15
0.0
 25
0.0
 16
0.0
 26
0.0
 36
1.0
 17
757.817717
 27
-59.328583
 37
0.0
 40
451.041
 41
1.795122
 42
50.0
 43
0.0
 44
0.0
 50
0.0
 51
0.0
 71
     0
 72
   100
 73
     1
 74
     0
 75
     0
 76
     0
 77
     0
 78
     0
  0
ENDTAB
  0
TABLE
  2
LTYPE
 70
     7
  0
LTYPE
  2
CONTINUOUS
 70
     0
  3
Solid line
 72
    65
 73
     0
 40
0.0
  0
LTYPE
  2
DOT
 70
    64
  3
. . . . . . . . . . . . . . . . . . . . . . . . . . . . . . . . .
 72
    65
 73
     2
 40
0.25
 49
0.0
 49
-0.25
  0
LTYPE
  2
HIDDEN
 70
    64
  3
__ __ __ __ __ __ __ __ __ __ __ __ __ __ __ __ __ __ __ __ __ 
 72
    65
 73
     2
 40
0.375
 49
0.25
 49
-0.125
  0
LTYPE
  2
DASHED
 70
    64
  3
__ __ __ __ __ __ __ __ __ __ __ __ __ __ __ __ __ __ __ __ __
 72
    65
 73
     2
 40
0.75
 49
0.5
 49
-0.25
  0
LTYPE
  2
DASHDOT
 70
    64
  3
__ . __ . __ . __ . __ . __ . __ . __ . __ . __ . __ . __ . _
 72
    65
 73
     4
 40
1.0
 49
0.5
 49
-0.25
 49
0.0
 49
-0.25
  0
LTYPE
  2
DIVIDE
 70
    64
  3
____ . . ____ . . ____ . . ____ . . ____ . . ____ . . ____ . .
 72
    65
 73
     6
 40
1.25
 49
0.5
 49
-0.25
 49
0.0
 49
-0.25
 49
0.0
 49
-0.25
  0
LTYPE
  2
CENTER
 70
    64
  3
____ _ ____ _ ____ _ ____ _ ____ _ ____ _ ____ _ ____ _ ____ _
 72
    65
 73
     4
 40
2.0
 49
1.25
 49
-0.25
 49
0.25
 49
-0.25
  0
ENDTAB
  0
TABLE
  2
LAYER
 70
     6
  0
LAYER
  2
0
 70
     0
 62
     7
  6
CONTINUOUS
  0
LAYER
  2
CONSTRUCTION_CLASS
 70
     0
 62
     7
  6
CONTINUOUS
  0
LAYER
  2
PATTERN_CLASS
 70
     0
 62
     7
  6
CONTINUOUS
  0
LAYER
  2
61
 70
    64
 62
     7
  6
CONTINUOUS
  0
LAYER
  2
1
 70
    64
 62
     7
  6
CONTINUOUS
  0
LAYER
  2
4
 70
    64
 62
     7
  6
CONTINUOUS
  0
ENDTAB
  0
TABLE
  2
STYLE
 70
     4
  0
STYLE
  2
STANDARD
 70
     0
 40
0.0
 41
1.0
 50
0.0
 71
     0
 42
0.0
  3
txt
  4

  0
STYLE
  2
MONOTXT
 70
     0
 40
0.2
 41
1.0
 50
0.0
 71
     0
 42
0.2
  3
MONOTXT
  4

  0
STYLE
  2
txt
 70
     0
 40
0.2
 41
1.0
 50
0.0
 71
     0
 42
0.2
  3
TXT
  4

  0
STYLE
  2
ROMANT
 70
     0
 40
0.2
 41
1.0
 50
0.0
 71
     0
 42
0.2
  3
ROMANT
  4

  0
ENDTAB
  0
TABLE
  2
VIEW
 70
     0
  0
ENDTAB
  0
TABLE
  2
UCS
 70
     0
  0
ENDTAB
  0
TABLE
  2
APPID
 70
     1
  0
APPID
  2
ACAD
 70
     0
  0
ENDTAB
  0
TABLE
  2
DIMSTYLE
 70
     1
  0
DIMSTYLE
  2
STANDARD
 70
     0
  3

  4

  5

  6

  7

 40
1.0
 41
0.18
 42
0.0625
 43
0.38
 44
0.18
 45
0.0
 46
0.0
 47
0.0
 48
0.0
140
0.18
141
0.09
142
0.0
143
25.4
144
1.0
145
0.0
146
1.0
147
0.09
 71
     0
 72
     0
 73
     1
 74
     1
 75
     0
 76
     0
 77
     0
 78
     0
170
     0
171
     2
172
     0
173
     0
174
     0
175
     0
176
     0
177
     0
178
     0
  0
ENDTAB
  0
ENDSEC
  0
SECTION
  2
BLOCKS
  0
BLOCK
  8
1
  6
CONTINUOUS
 62
     1
  5
FA
  2
2SPT
 70
     0
 10
0.0
 20
0.0
 30
0.0
  3
2SPT
  0
LINE
  8
1
  6
CONTINUOUS
 62
     1
  5
FB
 10
-0.010083
 20
-0.001333
 30
0.0
 11
0.011167
 21
-0.001333
 31
0.0
  0
CIRCLE
  8
4
  6
CONTINUOUS
 62
     1
  5
FD
 10
0.004717
 20
0.00039
 30
0.0
 40
0.001708
210
0.0
220
0.0
230
1.0
  0
CIRCLE
  8
4
  6
CONTINUOUS
 62
     1
  5
FE
 10
-0.003853
 20
0.000389
 30
0.0
 40
0.001708
210
0.0
220
0.0
230
1.0
  0
ENDBLK
  8
4
  6
CONTINUOUS
 62
     1
  5
FF
  0
BLOCK
  8
4
  6
CONTINUOUS
 62
     1
  5
105
  2
1SPT
 70
     0
 10
0.0
 20
0.0
 30
0.0
  3
1SPT
  0
LINE
  8
4
  6
CONTINUOUS
 62
     1
  5
106
 10
-0.006667
 20
-0.001667
 30
0.0
 11
0.006667
 21
-0.001667
 31
0.0
  0
CIRCLE
  8
4
  6
CONTINUOUS
 62
     1
  5
107
 10
0.0
 20
0.0
 30
0.0
 40
0.001708
210
0.0
220
0.0
230
1.0
  0
ENDBLK
  8
4
  6
CONTINUOUS
 62
     1
  5
108
  0
BLOCK
  8
1
  6
CONTINUOUS
 62
     1
  5
10B
  2
LDR
 70
     0
 10
0.0
 20
0.0
 30
0.0
  3
LNR
  0
POLYLINE
  8
1
  6
CONTINUOUS
 62
     1
  5
10C
 66
     1
 10
0.0
 20
0.0
 30
0.0
210
0.0
220
0.0
230
1.0
  0
VERTEX
  8
1
  6
CONTINUOUS
 62
     1
  5
10D
 10
-0.011987
 20
-0.001802
 30
0.0
 42
-0.265147
  0
VERTEX
  8
1
  6
CONTINUOUS
 62
     1
  5
10E
 10
-0.011849
 20
-0.001604
 30
0.0
 42
-0.064653
  0
VERTEX
  8
1
  6
CONTINUOUS
 62
     1
  5
10F
 10
-0.011407
 20
-0.001387
 30
0.0
 42
-0.025822
  0
VERTEX
  8
1
  6
CONTINUOUS
 62
     1
  5
110
 10
-0.010681
 20
-0.00116
 30
0.0
 42
-0.014504
  0
VERTEX
  8
1
  6
CONTINUOUS
 62
     1
  5
111
 10
-0.0097
 20
-0.000933
 30
0.0
 42
-0.009896
  0
VERTEX
  8
1
  6
CONTINUOUS
 62
     1
  5
112
 10
-0.008505
 20
-0.000715
 30
0.0
 42
-0.007708
  0
VERTEX
  8
1
  6
CONTINUOUS
 62
     1
  5
113
 10
-0.007146
 20
-0.000515
 30
0.0
 42
-0.006655
  0
VERTEX
  8
1
  6
CONTINUOUS
 62
     1
  5
114
 10
-0.005679
 20
-0.000342
 30
0.0
 42
-0.006278
  0
VERTEX
  8
1
  6
CONTINUOUS
 62
     1
  5
115
 10
-0.004164
 20
-0.000202
 30
0.0
 42
-0.006439
  0
VERTEX
  8
1
  6
CONTINUOUS
 62
     1
  5
116
 10
-0.002666
 20
-0.000101
 30
0.0
 42
-0.007196
  0
VERTEX
  8
1
  6
CONTINUOUS
 62
     1
  5
117
 10
-0.001246
 20
-0.000045
 30
0.0
 42
-0.008852
  0
VERTEX
  8
1
  6
CONTINUOUS
 62
     1
  5
118
 10
0.000037
 20
-0.000034
 30
0.0
 42
-0.008852
  0
SEQEND
  8
1
  6
CONTINUOUS
 62
     1
  5
119
  0
POLYLINE
  8
1
  6
CONTINUOUS
 62
     1
  5
11A
 66
     1
 10
0.0
 20
0.0
 30
0.0
210
0.0
220
0.0
230
1.0
  0
VERTEX
  8
1
  6
CONTINUOUS
 62
     1
  5
11B
 10
0.000039
 20
0.000014
 30
0.0
 42
-0.005019
  0
VERTEX
  8
1
  6
CONTINUOUS
 62
     1
  5
11C
 10
-0.001103
 20
0.000071
 30
0.0
 42
-0.004038
  0
VERTEX
  8
1
  6
CONTINUOUS
 62
     1
  5
11D
 10
-0.002373
 20
0.000157
 30
0.0
 42
-0.003548
  0
VERTEX
  8
1
  6
CONTINUOUS
 62
     1
  5
11E
 10
-0.003725
 20
0.00027
 30
0.0
 42
-0.003367
  0
VERTEX
  8
1
  6
CONTINUOUS
 62
     1
  5
11F
 10
-0.005111
 20
0.000405
 30
0.0
 42
-0.003436
  0
VERTEX
  8
1
  6
CONTINUOUS
 62
     1
  5
120
 10
-0.006481
 20
0.000556
 30
0.0
 42
-0.003778
  0
VERTEX
  8
1
  6
CONTINUOUS
 62
     1
  5
121
 10
-0.007786
 20
0.000719
 30
0.0
 42
-0.00451
  0
VERTEX
  8
1
  6
CONTINUOUS
 62
     1
  5
122
 10
-0.008979
 20
0.000889
 30
0.0
 42
-0.00594
  0
VERTEX
  8
1
  6
CONTINUOUS
 62
     1
  5
123
 10
-0.010018
 20
0.001058
 30
0.0
 42
-0.008921
  0
VERTEX
  8
1
  6
CONTINUOUS
 62
     1
  5
124
 10
-0.010864
 20
0.00122
 30
0.0
 42
-0.016392
  0
VERTEX
  8
1
  6
CONTINUOUS
 62
     1
  5
125
 10
-0.011488
 20
0.001371
 30
0.0
 42
-0.04458
  0
VERTEX
  8
1
  6
CONTINUOUS
 62
     1
  5
126
 10
-0.011867
 20
0.001503
 30
0.0
 42
-0.317392
  0
VERTEX
  8
1
  6
CONTINUOUS
 62
     1
  5
127
 10
-0.011987
 20
0.001614
 30
0.0
 42
-0.317392
  0
SEQEND
  8
1
  6
CONTINUOUS
 62
     1
  5
128
  0
ENDBLK
  8
1
  6
CONTINUOUS
 62
     1
  5
129
  0
BLOCK
  8
1
  6
CONTINUOUS
 62
     1
  5
133
  2
ARO
 70
     0
 10
0.0
 20
0.0
 30
0.0
  3
ARO
  0
POLYLINE
  8
1
  6
CONTINUOUS
 62
     1
  5
134
 66
     1
 10
0.0
 20
0.0
 30
0.0
 70
     1
  0
VERTEX
  8
1
  6
CONTINUOUS
 62
     1
  5
135
 10
0.0
 20
0.0
 30
0.0
  0
VERTEX
  8
1
  6
CONTINUOUS
 62
     1
  5
136
 10
-0.0185
 20
0.008167
 30
0.0
  0
VERTEX
  8
1
  6
CONTINUOUS
 62
     1
  5
137
 10
-0.0185
 20
0.003333
 30
0.0
  0
VERTEX
  8
1
  6
CONTINUOUS
 62
     1
  5
138
 10
-0.0595
 20
0.003333
 30
0.0
  0
VERTEX
  8
1
  6
CONTINUOUS
 62
     1
  5
139
 10
-0.0595
 20
0.003167
 30
0.0
  0
VERTEX
  8
1
  6
CONTINUOUS
 62
     1
  5
13A
 10
-0.0595
 20
-0.0035
 30
0.0
  0
VERTEX
  8
1
  6
CONTINUOUS
 62
     1
  5
13B
 10
-0.0185
 20
-0.0035
 30
0.0
  0
VERTEX
  8
1
  6
CONTINUOUS
 62
     1
  5
13C
 10
-0.0185
 20
-0.008417
 30
0.0
  0
VERTEX
  8
1
  6
CONTINUOUS
 62
     1
  5
13D
 10
0.0
 20
0.0
 30
0.0
  0
SEQEND
  8
1
  6
CONTINUOUS
 62
     1
  5
13E
  0
ENDBLK
  8
1
  6
CONTINUOUS
 62
     1
  5
13F
  0
BLOCK
  8
1
  6
CONTINUOUS
 62
     1
  5
14F
  2
ADV
 70
     0
 10
0.0
 20
0.0
 30
0.0
  3
ANV
  0
POLYLINE
  8
1
  6
CONTINUOUS
 62
     1
  5
150
 66
     1
 10
0.0
 20
0.0
 30
0.0
 70
     1
  0
VERTEX
  8
1
  6
CONTINUOUS
 62
     1
  5
151
 10
-0.01475
 20
0.029417
 30
0.0
  0
VERTEX
  8
1
  6
CONTINUOUS
 62
     1
  5
152
 10
-0.008417
 20
0.0155
 30
0.0
  0
VERTEX
  8
1
  6
CONTINUOUS
 62
     1
  5
153
 10
-0.012083
 20
0.0155
 30
0.0
  0
VERTEX
  8
1
  6
CONTINUOUS
 62
     1
  5
154
 10
-0.012083
 20
0.005167
 30
0.0
  0
VERTEX
  8
1
  6
CONTINUOUS
 62
     1
  5
155
 10
0.0
 20
0.005167
 30
0.0
  0
VERTEX
  8
1
  6
CONTINUOUS
 62
     1
  5
156
 10
0.0
 20
0.0
 30
0.0
  0
VERTEX
  8
1
  6
CONTINUOUS
 62
     1
  5
157
 10
-0.01725
 20
0.0
 30
0.0
  0
VERTEX
  8
1
  6
CONTINUOUS
 62
     1
  5
158
 10
-0.01725
 20
0.0155
 30
0.0
  0
VERTEX
  8
1
  6
CONTINUOUS
 62
     1
  5
159
 10
-0.020917
 20
0.0155
 30
0.0
  0
VERTEX
  8
1
  6
CONTINUOUS
 62
     1
  5
15A
 10
-0.01475
 20
0.029417
 30
0.0
  0
SEQEND
  8
1
  6
CONTINUOUS
 62
     1
  5
15B
  0
ENDBLK
  8
1
  6
CONTINUOUS
 62
     1
  5
15C
  0
ENDSEC
  0
SECTION
  2
ENTITIES
  0
LINE
  8
61
  6
CONTINUOUS
 62
     1
  5
29
 10
1132.641417
 20
150.691417
 30
0.0
 11
493.601417
 21
150.691417
 31
0.0
  0
LINE
  8
61
  6
CONTINUOUS
 62
     1
  5
2A
 10
493.601417
 20
150.691417
 30
0.0
 11
493.601417
 21
-269.328583
 31
0.0
  0
LINE
  8
61
  6
CONTINUOUS
 62
     1
  5
2B
 10
1132.661417
 20
-269.348583
 30
0.0
 11
493.601417
 21
-269.328583
 31
0.0
  0
LINE
  8
61
  6
CONTINUOUS
 62
     1
  5
2C
 10
1132.641417
 20
150.691417
 30
0.0
 11
1132.661417
 21
-269.348583
 31
0.0
  0
LINE
  8
61
  6
CONTINUOUS
 62
     1
  5
2D
 10
1126.541417
 20
145.951417
 30
0.0
 11
1018.561417
 21
145.931417
 31
0.0
  0
LINE
  8
61
  6
CONTINUOUS
 62
     1
  5
2E
 10
1018.561417
 20
145.931417
 30
0.0
 11
1018.561417
 21
125.931417
 31
0.0
  0
LINE
  8
61
  6
CONTINUOUS
 62
     1
  5
2F
 10
1126.541417
 20
145.951417
 30
0.0
 11
1126.541417
 21
125.951417
 31
0.0
  0
LINE
  8
61
  6
CONTINUOUS
 62
     1
  5
30
 10
1126.541417
 20
125.951417
 30
0.0
 11
1018.561417
 21
125.931417
 31
0.0
  0
LINE
  8
61
  6
CONTINUOUS
 62
     1
  5
31
 10
1126.561417
 20
135.911417
 30
0.0
 11
1018.541417
 21
135.931417
 31
0.0
  0
LINE
  8
61
  6
CONTINUOUS
 62
     1
  5
32
 10
1028.561417
 20
145.931417
 30
0.0
 11
1028.561417
 21
125.931417
 31
0.0
  0
LINE
  8
61
  6
CONTINUOUS
 62
     1
  5
33
 10
1038.561417
 20
145.931417
 30
0.0
 11
1038.561417
 21
125.931417
 31
0.0
  0
LINE
  8
61
  6
CONTINUOUS
 62
     1
  5
34
 10
1052.241417
 20
145.931417
 30
0.0
 11
1052.241417
 21
125.931417
 31
0.0
  0
LINE
  8
61
  6
CONTINUOUS
 62
     1
  5
35
 10
1116.541417
 20
145.951417
 30
0.0
 11
1116.541417
 21
125.951417
 31
0.0
  0
LINE
  8
61
  6
CONTINUOUS
 62
     1
  5
36
 10
1106.541417
 20
145.951417
 30
0.0
 11
1106.541417
 21
125.951417
 31
0.0
  0
LINE
  8
61
  6
CONTINUOUS
 62
     1
  5
37
 10
1084.561417
 20
145.931417
 30
0.0
 11
1084.561417
 21
125.931417
 31
0.0
  0
LINE
  8
61
  6
CONTINUOUS
 62
     1
  5
38
 10
1074.561417
 20
145.931417
 30
0.0
 11
1074.561417
 21
125.931417
 31
0.0
  0
TEXT
  8
61
  6
CONTINUOUS
 62
     1
  5
3A
 10
1020.601417
 20
142.911417
 30
0.0
 40
1.20075
  1
PUBLIC
 50
0.033272
 41
1.001804
  7
MONOTXT
210
0.0
220
0.0
230
1.0
  0
TEXT
  8
61
  6
CONTINUOUS
 62
     1
  5
3B
 10
1020.681417
 20
140.391417
 30
0.0
 40
1.20075
  1
ROADS
 50
0.124322
 41
0.996877
  7
MONOTXT
210
0.0
220
0.0
230
1.0
  0
TEXT
  8
61
  6
CONTINUOUS
 62
     1
  5
3C
 10
1021.881417
 20
137.891417
 30
0.0
 40
1.20075
  1
DIV.
 50
359.931522
 41
0.994864
  7
MONOTXT
210
0.0
220
0.0
230
1.0
  0
TEXT
  8
61
  6
CONTINUOUS
 62
     1
  5
3D
 10
1030.761417
 20
142.971417
 30
0.0
 40
1.20075
  1
STATE
 50
0.058969
 41
0.998196
  7
MONOTXT
210
0.0
220
0.0
230
1.0
  0
TEXT
  8
61
  6
CONTINUOUS
 62
     1
  5
3E
 10
1031.641417
 20
140.471417
 30
0.0
 40
1.20075
  1
DIST.
 50
0.055889
 41
0.999584
  7
MONOTXT
210
0.0
220
0.0
230
1.0
  0
TEXT
  8
61
  6
CONTINUOUS
 62
     1
  5
3F
 10
1032.221417
 20
137.951417
 30
0.0
 40
1.20075
  1
NO.
 50
359.852072
 41
0.997779
  7
MONOTXT
210
0.0
220
0.0
230
1.0
  0
TEXT
  8
61
  6
CONTINUOUS
 62
     1
  5
40
 10
1042.761417
 20
142.911417
 30
0.0
 40
1.20075
  1
STATE
 50
0.058969
 41
0.998196
  7
MONOTXT
210
0.0
220
0.0
230
1.0
  0
TEXT
  8
61
  6
CONTINUOUS
 62
     1
  5
41
 10
1041.681417
 20
140.491417
 30
0.0
 40
1.20075
  1
PROJECT
 50
359.908431
 41
1.000069
  7
MONOTXT
210
0.0
220
0.0
230
1.0
  0
TEXT
  8
61
  6
CONTINUOUS
 62
     1
  5
42
 10
1044.421417
 20
137.951417
 30
0.0
 40
1.20075
  1
NO.
 50
0.225453
 41
0.993546
  7
MONOTXT
210
0.0
220
0.0
230
1.0
  0
TEXT
  8
61
  6
CONTINUOUS
 62
     1
  5
43
 10
1060.061417
 20
141.791417
 30
0.0
 40
1.20075
  1
FEDERAL
 50
0.006714
 41
0.998543
  7
MONOTXT
210
0.0
220
0.0
230
1.0
  0
TEXT
  8
61
  6
CONTINUOUS
 62
     1
  5
44
 10
1058.521417
 20
139.131417
 30
0.0
 40
1.20075
  1
PROJECT NO.
 50
359.921531
 41
1.000694
  7
MONOTXT
210
0.0
220
0.0
230
1.0
  0
TEXT
  8
61
  6
CONTINUOUS
 62
     1
  5
45
 10
1076.801417
 20
141.731417
 30
0.0
 40
1.20075
  1
FISCAL
 50
359.941939
 41
0.998959
  7
MONOTXT
210
0.0
220
0.0
230
1.0
  0
TEXT
  8
61
  6
CONTINUOUS
 62
     1
  5
46
 10
1077.321417
 20
138.831417
 30
0.0
 40
1.20075
  1
YEAR
 50
0.104606
 41
0.993268
  7
MONOTXT
210
0.0
220
0.0
230
1.0
  0
TEXT
  8
61
  6
CONTINUOUS
 62
     1
  5
47
 10
1091.421417
 20
140.191417
 30
0.0
 40
1.20075
  1
COUNTY
 50
0.068575
 41
1.001874
  7
MONOTXT
210
0.0
220
0.0
230
1.0
  0
TEXT
  8
61
  6
CONTINUOUS
 62
     1
  5
48
 10
1109.061417
 20
141.851417
 30
0.0
 40
1.20075
  1
SHEET
 50
0.058969
 41
0.997571
  7
MONOTXT
210
0.0
220
0.0
230
1.0
  0
TEXT
  8
61
  6
CONTINUOUS
 62
     1
  5
49
 10
1110.481417
 20
139.131417
 30
0.0
 40
1.20075
  1
NO.
 50
359.852072
 41
0.997779
  7
MONOTXT
210
0.0
220
0.0
230
1.0
  0
TEXT
  8
61
  6
CONTINUOUS
 62
     1
  5
4A
 10
1118.801417
 20
141.711417
 30
0.0
 40
1.20075
  1
TOTAL
 50
359.926039
 41
0.998543
  7
MONOTXT
210
0.0
220
0.0
230
1.0
  0
TEXT
  8
61
  6
CONTINUOUS
 62
     1
  5
4B
 10
1118.341417
 20
139.011417
 30
0.0
 40
1.20075
  1
SHEETS
 50
359.958675
  7
MONOTXT
210
0.0
220
0.0
230
1.0
  0
TEXT
  8
61
  6
CONTINUOUS
 62
     1
  5
4C
 10
1031.161417
 20
130.131417
 30
0.0
 40
2.401333
  1
  
 50
0.029406
 41
0.996495
  7
MONOTXT
210
0.0
220
0.0
230
1.0
  0
TEXT
  8
61
  6
CONTINUOUS
 62
     1
  5
4D
 10
1108.341417
 20
129.851417
 30
0.0
 40
2.401333
  1
   
 50
0.011508
 41
1.001006
  7
MONOTXT
210
0.0
220
0.0
230
1.0
  0
TEXT
  8
61
  6
CONTINUOUS
 62
     1
  5
4E
 10
1118.221417
 20
129.831417
 30
0.0
 40
2.401333
  1
   
 50
359.922128
 41
1.000555
  7
MONOTXT
210
0.0
220
0.0
230
1.0
  0
TEXT
  8
61
  6
CONTINUOUS
 62
     1
  5
4F
 10
1041.601417
 20
133.231417
 30
0.0
 40
2.00675
  1
    
 50
0.054383
 41
0.993729
  7
MONOTXT
210
0.0
220
0.0
230
1.0
  0
TEXT
  8
61
  6
CONTINUOUS
 62
     1
  5
50
 10
1038.681417
 20
130.211417
 30
0.0
 40
1.989583
  1
       
 50
0.064678
 41
1.000963
  7
MONOTXT
210
0.0
220
0.0
230
1.0
  0
TEXT
  8
61
  6
CONTINUOUS
 62
     1
  5
51
 10
1039.641417
 20
127.311417
 30
0.0
 40
1.989583
  1
      
 50
359.958053
 41
1.000293
  7
MONOTXT
210
0.0
220
0.0
230
1.0
  0
TEXT
  8
61
  6
CONTINUOUS
 62
     1
  5
52
 10
1050.601417
 20
131.951417
 30
0.0
 40
2.401333
  1
           
 50
0.011508
 41
0.998751
  7
MONOTXT
210
0.0
220
0.0
230
1.0
  0
TEXT
  8
61
  6
CONTINUOUS
 62
     1
  5
53
 10
1050.481417
 20
128.291417
 30
0.0
 40
2.401333
  1
           
 50
0.011508
 41
0.999584
  7
MONOTXT
210
0.0
220
0.0
230
1.0
  0
TEXT
  8
61
  6
CONTINUOUS
 62
     1
  5
54
 10
1085.821417
 20
130.031417
 30
0.0
 40
2.00675
  1
          
 50
0.009222
 41
0.992774
  7
MONOTXT
210
0.0
220
0.0
230
1.0
  0
ARC
  8
61
  6
CONTINUOUS
 62
     1
  5
55
 10
475.299173
 20
61.932712
 30
0.0
 40
2.499998
 50
323.130094
 51
316.232156
210
0.0
220
0.0
230
1.0
  0
ARC
  8
61
  6
CONTINUOUS
 62
     1
  5
56
 10
475.299173
 20
6.932712
 30
0.0
 40
2.499998
 50
323.130094
 51
315.375767
210
0.0
220
0.0
230
1.0
  0
ARC
  8
61
  6
CONTINUOUS
 62
     1
  5
57
 10
475.019173
 20
-141.507288
 30
0.0
 40
2.499998
 50
322.671753
 51
321.716147
210
0.0
220
0.0
230
1.0
  0
ARC
  8
61
  6
CONTINUOUS
 62
     1
  5
58
 10
475.019173
 20
-196.507288
 30
0.0
 40
2.499998
 50
323.130094
 51
312.314392
210
0.0
220
0.0
230
1.0
  0
LINE
  8
61
  6
CONTINUOUS
 62
     1
  5
59
 10
477.321417
 20
61.931417
 30
0.0
 11
485.301417
 21
61.951417
 31
0.0
  0
LINE
  8
61
  6
CONTINUOUS
 62
     1
  5
5A
 10
477.301417
 20
6.931417
 30
0.0
 11
485.301417
 21
6.931417
 31
0.0
  0
LINE
  8
61
  6
CONTINUOUS
 62
     1
  5
5B
 10
477.021417
 20
-141.488583
 30
0.0
 11
485.021417
 21
-141.488583
 31
0.0
  0
LINE
  8
61
  6
CONTINUOUS
 62
     1
  5
5C
 10
477.041417
 20
-196.508583
 30
0.0
 11
485.021417
 21
-196.508583
 31
0.0
  0
LINE
  8
61
  6
DASHED
 62
     1
  5
5D
 10
463.601417
 20
160.691417
 30
0.0
 11
1143.621417
 21
160.691417
 31
0.0
  0
LINE
  8
61
  6
DASHED
 62
     1
  5
5E
 10
1143.601417
 20
-279.328583
 30
0.0
 11
463.541417
 21
-279.348583
 31
0.0
  0
TEXT
  8
61
  6
CONTINUOUS
 62
     1
  5
5F
 10
1106.081417
 20
118.111417
 30
0.0
 40
2.401333
  1
     
 41
1.001388
  7
MONOTXT
210
0.0
220
0.0
230
1.0
  0
LINE
  8
1
  6
HIDDEN
 62
     1
  5
61
 10
1143.621417
 20
160.691417
 30
0.0
 11
1143.601417
 21
-279.328583
 31
0.0
  0
LINE
  8
1
  6
HIDDEN
 62
     1
  5
62
 10
463.601417
 20
160.691417
 30
0.0
 11
463.541417
 21
-279.348583
 31
0.0
  0
TEXT
  8
1
  6
CONTINUOUS
 62
     1
  5
64
 10
1098.381417
 20
-271.848583
 30
0.0
 40
1.2
  1
TRAFFIC ENGINEERING DIVISION
  7
txt
210
0.0
220
0.0
230
1.0
  0
LINE
  8
1
  6
CONTINUOUS
 62
     1
  5
65
 10
961.001417
 20
-269.348583
 30
0.0
 11
961.001417
 21
-177.768583
 31
0.0
  0
LINE
  8
1
  6
CONTINUOUS
 62
     1
  5
66
 10
961.001417
 20
-177.768583
 30
0.0
 11
1132.661417
 21
-177.768583
 31
0.0
  0
LINE
  8
1
  6
CONTINUOUS
 62
     1
  5
67
 10
996.001417
 20
-269.388583
 30
0.0
 11
996.001417
 21
-224.428583
 31
0.0
  0
LINE
  8
1
  6
CONTINUOUS
 62
     1
  5
68
 10
996.001417
 20
-224.428583
 30
0.0
 11
961.021417
 21
-224.428583
 31
0.0
  0
LINE
  8
1
  6
CONTINUOUS
 62
     1
  5
69
 10
996.001417
 20
-228.908583
 30
0.0
 11
961.021417
 21
-228.908583
 31
0.0
  0
LINE
  8
1
  6
CONTINUOUS
 62
     1
  5
6A
 10
996.001417
 20
-233.408583
 30
0.0
 11
961.021417
 21
-233.408583
 31
0.0
  0
LINE
  8
1
  6
CONTINUOUS
 62
     1
  5
6B
 10
996.001417
 20
-237.908583
 30
0.0
 11
961.021417
 21
-237.908583
 31
0.0
  0
LINE
  8
1
  6
CONTINUOUS
 62
     1
  5
6C
 10
996.001417
 20
-242.428583
 30
0.0
 11
961.021417
 21
-242.428583
 31
0.0
  0
LINE
  8
1
  6
CONTINUOUS
 62
     1
  5
6D
 10
996.001417
 20
-246.908583
 30
0.0
 11
961.021417
 21
-246.908583
 31
0.0
  0
LINE
  8
1
  6
CONTINUOUS
 62
     1
  5
6E
 10
996.001417
 20
-251.388583
 30
0.0
 11
961.021417
 21
-251.388583
 31
0.0
  0
LINE
  8
1
  6
CONTINUOUS
 62
     1
  5
6F
 10
996.001417
 20
-255.888583
 30
0.0
 11
961.021417
 21
-255.888583
 31
0.0
  0
LINE
  8
1
  6
CONTINUOUS
 62
     1
  5
70
 10
996.001417
 20
-260.388583
 30
0.0
 11
961.021417
 21
-260.388583
 31
0.0
  0
LINE
  8
1
  6
CONTINUOUS
 62
     1
  5
71
 10
996.001417
 20
-264.908583
 30
0.0
 11
961.021417
 21
-264.908583
 31
0.0
  0
TEXT
  8
1
  6
CONTINUOUS
 62
     1
  5
72
 10
971.281417
 20
-227.428583
 30
0.0
 40
1.99775
  1
REVISIONS
  7
MONOTXT
210
0.0
220
0.0
230
1.0
  0
TEXT
  8
1
  6
CONTINUOUS
 62
     1
  5
73
 10
962.961417
 20
-223.428583
 30
0.0
 40
1.99775
  1
PREPARED: 10/01/69
  7
MONOTXT
210
0.0
220
0.0
230
1.0
  0
TEXT
  8
1
  6
CONTINUOUS
 62
     1
  5
75
 10
993.621417
 20
-186.368583
 30
0.0
 40
4.794833
  1
WEST VIRGINIA DIVISION OF HIGHWAYS
  7
ROMANT
 72
     1
 11
1047.591667
 21
-181.57375
 31
0.0
210
0.0
220
0.0
230
1.0
 73
     3
  0
TEXT
  8
1
  6
CONTINUOUS
 62
     1
  5
76
 10
1004.381417
 20
-197.528583
 30
0.0
 40
6.992667
  1
STANDARD DETAIL
  7
txt
 72
     1
 11
1048.8715
 21
-190.535917
 31
0.0
210
0.0
220
0.0
230
1.0
 73
     3
  0
TEXT
  8
1
  6
CONTINUOUS
 62
     1
  5
77
 10
999.841417
 20
-265.308583
 30
0.0
 40
6.992667
  1
STANDARD SHEET TP5-4 
  7
txt
210
0.0
220
0.0
230
1.0
  0
TEXT
  8
1
  6
CONTINUOUS
 62
     1
  5
78
 10
971.120333
 20
-232.488583
 30
0.0
 40
2.0
  1
05-01-70
  7
MONOTXT
 72
     1
 11
977.970833
 21
-230.488583
 31
0.0
210
0.0
220
0.0
230
1.0
 73
     3
  0
TEXT
  8
1
  6
CONTINUOUS
 62
     1
  5
79
 10
971.100333
 20
-236.888583
 30
0.0
 40
2.0
  1
01-28-73
  7
MONOTXT
 72
     1
 11
977.958667
 21
-234.888583
 31
0.0
210
0.0
220
0.0
230
1.0
 73
     3
  0
TEXT
  8
1
  6
CONTINUOUS
 62
     1
  5
7A
 10
971.59275
 20
-241.288583
 30
0.0
 40
2.0
  1
11-03-76
  7
MONOTXT
 72
     1
 11
977.978667
 21
-239.288583
 31
0.0
210
0.0
220
0.0
230
1.0
 73
     3
  0
TEXT
  8
1
  6
CONTINUOUS
 62
     1
  5
7B
 10
970.710833
 20
-245.688583
 30
0.0
 40
2.0
  1
09-30-84
  7
MONOTXT
 72
     1
 11
977.978667
 21
-243.688583
 31
0.0
210
0.0
220
0.0
230
1.0
 73
     3
  0
TEXT
  8
1
  6
CONTINUOUS
 62
     1
  5
7C
 10
970.141417
 20
-250.288583
 30
0.0
 40
2.0
  1
        
  7
MONOTXT
 72
     1
 11
977.80825
 21
-248.288583
 31
0.0
210
0.0
220
0.0
230
1.0
 73
     3
  0
TEXT
  8
1
  6
CONTINUOUS
 62
     1
  5
7D
 10
970.301417
 20
-254.768583
 30
0.0
 40
2.0
  1
        
  7
MONOTXT
 72
     1
 11
977.96825
 21
-252.768583
 31
0.0
210
0.0
220
0.0
230
1.0
 73
     3
  0
TEXT
  8
1
  6
CONTINUOUS
 62
     1
  5
7E
 10
970.201417
 20
-259.368583
 30
0.0
 40
2.0
  1
        
  7
MONOTXT
 72
     1
 11
977.86825
 21
-257.368583
 31
0.0
210
0.0
220
0.0
230
1.0
 73
     3
  0
TEXT
  8
1
  6
CONTINUOUS
 62
     1
  5
7F
 10
970.301417
 20
-263.948583
 30
0.0
 40
2.0
  1
        
  7
MONOTXT
 72
     1
 11
977.96825
 21
-261.948583
 31
0.0
210
0.0
220
0.0
230
1.0
 73
     3
  0
TEXT
  8
1
  6
CONTINUOUS
 62
     1
  5
80
 10
970.301417
 20
-267.968583
 30
0.0
 40
2.0
  1
        
  7
MONOTXT
 72
     1
 11
977.96825
 21
-265.968583
 31
0.0
210
0.0
220
0.0
230
1.0
 73
     3
  0
TEXT
  8
1
  6
CONTINUOUS
 62
     1
  5
81
 10
1013.121417
 20
-271.748583
 30
0.0
 40
1.2
  1
CATALOG:dt standa  FILENAME:tp54.dgn     DATE:03/30/93
  7
MONOTXT
210
0.0
220
0.0
230
1.0
  0
ARC
  8
1
  6
CONTINUOUS
 62
     1
  5
82
 10
579.334183
 20
20.91313
 30
0.0
 40
83.886356
 50
120.660542
 51
138.687233
210
0.0
220
0.0
230
1.0
  0
ARC
  8
1
  6
CONTINUOUS
 62
     1
  5
83
 10
562.301735
 20
51.930075
 30
0.0
 40
48.533774
 50
57.963158
 51
122.036839
210
0.0
220
0.0
230
1.0
  0
ARC
  8
1
  6
CONTINUOUS
 62
     1
  5
84
 10
545.269535
 20
20.91313
 30
0.0
 40
83.886356
 50
41.312767
 51
59.339458
210
0.0
220
0.0
230
1.0
  0
ARC
  8
1
  6
CONTINUOUS
 62
     1
  5
85
 10
620.651454
 20
-14.449624
 30
0.0
 40
138.267708
 50
138.983447
 51
152.079806
210
0.0
220
0.0
230
1.0
  0
ARC
  8
1
  6
CONTINUOUS
 62
     1
  5
86
 10
503.952264
 20
-14.449624
 30
0.0
 40
138.267708
 50
27.920197
 51
41.016553
210
0.0
220
0.0
230
1.0
  0
ARC
  8
1
  6
CONTINUOUS
 62
     1
  5
87
 10
620.651454
 20
-14.449624
 30
0.0
 40
130.822083
 50
138.983447
 51
152.079806
210
0.0
220
0.0
230
1.0
  0
ARC
  8
1
  6
CONTINUOUS
 62
     1
  5
88
 10
579.334183
 20
20.91313
 30
0.0
 40
76.440731
 50
120.660542
 51
138.687233
210
0.0
220
0.0
230
1.0
  0
ARC
  8
1
  6
CONTINUOUS
 62
     1
  5
89
 10
562.301735
 20
51.930075
 30
0.0
 40
41.088149
 50
57.963158
 51
122.286247
210
0.0
220
0.0
230
1.0
  0
ARC
  8
1
  6
CONTINUOUS
 62
     1
  5
8A
 10
545.269535
 20
20.91313
 30
0.0
 40
76.440731
 50
41.312767
 51
59.339458
210
0.0
220
0.0
230
1.0
  0
ARC
  8
1
  6
CONTINUOUS
 62
     1
  5
8B
 10
503.952264
 20
-14.449624
 30
0.0
 40
130.822083
 50
27.920197
 51
41.016553
210
0.0
220
0.0
230
1.0
  0
ARC
  8
1
  6
DASHED
 62
     1
  5
8C
 10
620.651454
 20
-14.449624
 30
0.0
 40
134.793083
 50
138.983447
 51
152.079806
210
0.0
220
0.0
230
1.0
  0
ARC
  8
1
  6
CONTINUOUS
 62
     1
  5
8D
 10
620.651454
 20
-14.449624
 30
0.0
 40
134.296708
 50
138.983447
 51
152.079806
210
0.0
220
0.0
230
1.0
  0
ARC
  8
1
  6
CONTINUOUS
 62
     1
  5
8E
 10
579.334183
 20
20.91313
 30
0.0
 40
80.411731
 50
120.660542
 51
138.687233
210
0.0
220
0.0
230
1.0
  0
ARC
  8
1
  6
CONTINUOUS
 62
     1
  5
8F
 10
579.334183
 20
20.91313
 30
0.0
 40
79.915356
 50
120.660542
 51
138.687233
210
0.0
220
0.0
230
1.0
  0
ARC
  8
1
  6
CONTINUOUS
 62
     1
  5
90
 10
562.301735
 20
51.930075
 30
0.0
 40
45.059149
 50
57.963158
 51
122.142992
210
0.0
220
0.0
230
1.0
  0
ARC
  8
1
  6
CONTINUOUS
 62
     1
  5
91
 10
562.301735
 20
51.930075
 30
0.0
 40
44.562774
 50
57.963158
 51
122.159442
210
0.0
220
0.0
230
1.0
  0
ARC
  8
1
  6
CONTINUOUS
 62
     1
  5
92
 10
545.269535
 20
20.91313
 30
0.0
 40
80.411731
 50
41.312767
 51
59.339458
210
0.0
220
0.0
230
1.0
  0
ARC
  8
1
  6
CONTINUOUS
 62
     1
  5
93
 10
545.269535
 20
20.91313
 30
0.0
 40
79.915356
 50
41.312767
 51
59.339458
210
0.0
220
0.0
230
1.0
  0
ARC
  8
1
  6
CONTINUOUS
 62
     1
  5
94
 10
503.952264
 20
-14.449624
 30
0.0
 40
134.793083
 50
27.920197
 51
41.016553
210
0.0
220
0.0
230
1.0
  0
ARC
  8
1
  6
DASHED
 62
     1
  5
95
 10
503.952264
 20
-14.449624
 30
0.0
 40
134.296708
 50
27.920197
 51
41.016553
210
0.0
220
0.0
230
1.0
  0
ARC
  8
1
  6
CONTINUOUS
 62
     1
  5
96
 10
634.402428
 20
-331.78615
 30
0.0
 40
460.34277
 50
82.156922
 51
87.102253
210
0.0
220
0.0
230
1.0
  0
ARC
  8
1
  6
CONTINUOUS
 62
     1
  5
97
 10
691.528709
 20
85.550787
 30
0.0
 40
39.115964
 50
11.997847
 51
81.632453
210
0.0
220
0.0
230
1.0
  0
ARC
  8
1
  6
CONTINUOUS
 62
     1
  5
98
 10
416.15826
 20
9.185452
 30
0.0
 40
324.814815
 50
11.832761
 51
15.078231
210
0.0
220
0.0
230
1.0
  0
ARC
  8
1
  6
CONTINUOUS
 62
     1
  5
99
 10
833.739287
 20
483.367331
 30
0.0
 40
460.34277
 50
262.156922
 51
266.834092
210
0.0
220
0.0
230
1.0
  0
ARC
  8
1
  6
CONTINUOUS
 62
     1
  5
9A
 10
776.613005
 20
66.030394
 30
0.0
 40
39.115964
 50
191.997847
 51
261.632453
210
0.0
220
0.0
230
1.0
  0
ARC
  8
1
  6
CONTINUOUS
 62
     1
  5
9B
 10
1051.983454
 20
142.395729
 30
0.0
 40
324.814815
 50
191.832761
 51
195.078231
210
0.0
220
0.0
230
1.0
  0
ARC
  8
1
  6
CONTINUOUS
 62
     1
  5
9C
 10
634.402428
 20
-331.78615
 30
0.0
 40
452.897145
 50
82.156922
 51
87.102258
210
0.0
220
0.0
230
1.0
  0
ARC
  8
1
  6
CONTINUOUS
 62
     1
  5
9D
 10
691.528709
 20
85.550787
 30
0.0
 40
31.670339
 50
11.274331
 51
81.632453
210
0.0
220
0.0
230
1.0
  0
ARC
  8
1
  6
CONTINUOUS
 62
     1
  5
9E
 10
416.15826
 20
9.185452
 30
0.0
 40
317.36919
 50
11.832761
 51
15.078231
210
0.0
220
0.0
230
1.0
  0
ARC
  8
1
  6
CONTINUOUS
 62
     1
  5
9F
 10
1051.983454
 20
142.395729
 30
0.0
 40
332.26044
 50
191.832761
 51
195.078231
210
0.0
220
0.0
230
1.0
  0
ARC
  8
1
  6
CONTINUOUS
 62
     1
  5
A0
 10
776.613005
 20
66.030394
 30
0.0
 40
46.561589
 50
191.997847
 51
261.632453
210
0.0
220
0.0
230
1.0
  0
ARC
  8
1
  6
CONTINUOUS
 62
     1
  5
A1
 10
833.739287
 20
483.367331
 30
0.0
 40
467.788395
 50
262.156922
 51
266.834089
210
0.0
220
0.0
230
1.0
  0
ARC
  8
1
  6
DASHED
 62
     1
  5
A2
 10
634.402428
 20
-331.78615
 30
0.0
 40
456.868145
 50
82.156922
 51
87.102256
210
0.0
220
0.0
230
1.0
  0
ARC
  8
1
  6
CONTINUOUS
 62
     1
  5
A3
 10
634.402428
 20
-331.78615
 30
0.0
 40
456.37177
 50
82.156922
 51
87.102256
210
0.0
220
0.0
230
1.0
  0
ARC
  8
1
  6
CONTINUOUS
 62
     1
  5
A4
 10
691.528709
 20
85.550787
 30
0.0
 40
35.641339
 50
11.697703
 51
81.632453
210
0.0
220
0.0
230
1.0
  0
ARC
  8
1
  6
CONTINUOUS
 62
     1
  5
A5
 10
691.528709
 20
85.550787
 30
0.0
 40
35.144964
 50
11.649961
 51
81.632453
210
0.0
220
0.0
230
1.0
  0
ARC
  8
1
  6
CONTINUOUS
 62
     1
  5
A6
 10
416.15826
 20
9.185452
 30
0.0
 40
321.34019
 50
11.832761
 51
15.078231
210
0.0
220
0.0
230
1.0
  0
ARC
  8
1
  6
CONTINUOUS
 62
     1
  5
A7
 10
416.15826
 20
9.185452
 30
0.0
 40
320.843815
 50
11.832761
 51
15.078231
210
0.0
220
0.0
230
1.0
  0
ARC
  8
1
  6
CONTINUOUS
 62
     1
  5
A8
 10
1051.983454
 20
142.395729
 30
0.0
 40
328.28944
 50
191.832761
 51
195.078231
210
0.0
220
0.0
230
1.0
  0
ARC
  8
1
  6
CONTINUOUS
 62
     1
  5
A9
 10
1051.983454
 20
142.395729
 30
0.0
 40
328.785815
 50
191.832761
 51
195.078231
210
0.0
220
0.0
230
1.0
  0
ARC
  8
1
  6
CONTINUOUS
 62
     1
  5
AA
 10
776.613005
 20
66.030394
 30
0.0
 40
42.590589
 50
191.997847
 51
261.632453
210
0.0
220
0.0
230
1.0
  0
ARC
  8
1
  6
CONTINUOUS
 62
     1
  5
AB
 10
776.613005
 20
66.030394
 30
0.0
 40
43.086964
 50
191.997847
 51
261.632453
210
0.0
220
0.0
230
1.0
  0
ARC
  8
1
  6
CONTINUOUS
 62
     1
  5
AC
 10
833.739287
 20
483.367331
 30
0.0
 40
463.817395
 50
262.156922
 51
266.834092
210
0.0
220
0.0
230
1.0
  0
ARC
  8
1
  6
DASHED
 62
     1
  5
AD
 10
833.739287
 20
483.367331
 30
0.0
 40
464.31377
 50
262.156922
 51
266.834092
210
0.0
220
0.0
230
1.0
  0
ARC
  8
1
  6
CONTINUOUS
 62
     1
  5
AE
 10
790.183318
 20
-343.610063
 30
0.0
 40
460.34277
 50
82.156922
 51
86.461169
210
0.0
220
0.0
230
1.0
  0
ARC
  8
1
  6
CONTINUOUS
 62
     1
  5
AF
 10
790.183318
 20
-343.610063
 30
0.0
 40
452.897145
 50
82.156922
 51
86.461167
210
0.0
220
0.0
230
1.0
  0
ARC
  8
1
  6
DASHED
 62
     1
  5
B0
 10
790.183318
 20
-343.610063
 30
0.0
 40
456.868145
 50
82.156922
 51
86.461167
210
0.0
220
0.0
230
1.0
  0
ARC
  8
1
  6
CONTINUOUS
 62
     1
  5
B1
 10
790.183318
 20
-343.610063
 30
0.0
 40
456.37177
 50
82.156922
 51
86.461167
210
0.0
220
0.0
230
1.0
  0
ARC
  8
1
  6
CONTINUOUS
 62
     1
  5
B2
 10
843.257813
 20
52.841047
 30
0.0
 40
60.376867
 50
39.5398
 51
80.712583
210
0.0
220
0.0
230
1.0
  0
ARC
  8
1
  6
CONTINUOUS
 62
     1
  5
B3
 10
939.808167
 20
139.642506
 30
0.0
 40
69.555882
 50
224.053983
 51
262.994756
210
0.0
220
0.0
230
1.0
  0
ARC
  8
1
  6
CONTINUOUS
 62
     1
  5
B4
 10
942.123337
 20
143.489357
 30
0.0
 40
73.679073
 50
261.572522
 51
291.229478
210
0.0
220
0.0
230
1.0
  0
ARC
  8
1
  6
CONTINUOUS
 62
     1
  5
B5
 10
843.257813
 20
52.841047
 30
0.0
 40
52.931242
 50
38.950344
 51
80.712583
210
0.0
220
0.0
230
1.0
  0
ARC
  8
1
  6
CONTINUOUS
 62
     1
  5
B6
 10
939.808167
 20
139.642506
 30
0.0
 40
77.001507
 50
224.053983
 51
262.994756
210
0.0
220
0.0
230
1.0
  0
ARC
  8
1
  6
CONTINUOUS
 62
     1
  5
B7
 10
942.123337
 20
143.489357
 30
0.0
 40
81.124698
 50
261.572522
 51
291.229478
210
0.0
220
0.0
230
1.0
  0
ARC
  8
1
  6
CONTINUOUS
 62
     1
  5
B8
 10
843.257813
 20
52.841047
 30
0.0
 40
56.902242
 50
39.264506
 51
80.712583
210
0.0
220
0.0
230
1.0
  0
ARC
  8
1
  6
CONTINUOUS
 62
     1
  5
B9
 10
843.257813
 20
52.841047
 30
0.0
 40
56.405867
 50
39.222414
 51
80.712583
210
0.0
220
0.0
230
1.0
  0
ARC
  8
1
  6
CONTINUOUS
 62
     1
  5
BA
 10
939.808167
 20
139.642506
 30
0.0
 40
73.030507
 50
224.053983
 51
262.994756
210
0.0
220
0.0
230
1.0
  0
ARC
  8
1
  6
CONTINUOUS
 62
     1
  5
BB
 10
939.808167
 20
139.642506
 30
0.0
 40
73.526882
 50
224.053983
 51
262.994756
210
0.0
220
0.0
230
1.0
  0
ARC
  8
1
  6
CONTINUOUS
 62
     1
  5
BC
 10
942.123337
 20
143.489357
 30
0.0
 40
77.153698
 50
261.572522
 51
291.479011
210
0.0
220
0.0
230
1.0
  0
ARC
  8
1
  6
CONTINUOUS
 62
     1
  5
BD
 10
942.123337
 20
143.489357
 30
0.0
 40
77.650073
 50
261.572522
 51
290.742653
210
0.0
220
0.0
230
1.0
  0
ARC
  8
1
  6
CONTINUOUS
 62
     1
  5
BE
 10
1104.905016
 20
92.532857
 30
0.0
 40
60.376867
 50
219.5398
 51
260.712583
210
0.0
220
0.0
230
1.0
  0
ARC
  8
1
  6
CONTINUOUS
 62
     1
  5
BF
 10
1157.979511
 20
488.983968
 30
0.0
 40
460.34277
 50
262.156922
 51
266.157108
210
0.0
220
0.0
230
1.0
  0
ARC
  8
1
  6
CONTINUOUS
 62
     1
  5
C0
 10
1157.979511
 20
488.983968
 30
0.0
 40
452.897145
 50
262.156922
 51
266.157108
210
0.0
220
0.0
230
1.0
  0
ARC
  8
1
  6
DASHED
 62
     1
  5
C1
 10
1157.979511
 20
488.983968
 30
0.0
 40
456.868145
 50
262.156922
 51
266.157111
210
0.0
220
0.0
230
1.0
  0
ARC
  8
1
  6
CONTINUOUS
 62
     1
  5
C2
 10
1157.979511
 20
488.983968
 30
0.0
 40
456.37177
 50
262.156922
 51
266.157111
210
0.0
220
0.0
230
1.0
  0
ARC
  8
1
  6
CONTINUOUS
 62
     1
  5
C3
 10
1008.354661
 20
5.731399
 30
0.0
 40
69.555882
 50
44.053983
 51
82.994756
210
0.0
220
0.0
230
1.0
  0
ARC
  8
1
  6
CONTINUOUS
 62
     1
  5
C4
 10
1006.039492
 20
1.884548
 30
0.0
 40
73.679073
 50
81.572522
 51
111.229478
210
0.0
220
0.0
230
1.0
  0
ARC
  8
1
  6
CONTINUOUS
 62
     1
  5
C5
 10
1104.905016
 20
92.532857
 30
0.0
 40
52.931242
 50
218.950344
 51
260.712583
210
0.0
220
0.0
230
1.0
  0
ARC
  8
1
  6
CONTINUOUS
 62
     1
  5
C6
 10
1008.354661
 20
5.731399
 30
0.0
 40
77.001507
 50
44.053983
 51
82.994756
210
0.0
220
0.0
230
1.0
  0
ARC
  8
1
  6
CONTINUOUS
 62
     1
  5
C7
 10
1006.039492
 20
1.884548
 30
0.0
 40
81.124698
 50
81.572522
 51
111.229478
210
0.0
220
0.0
230
1.0
  0
ARC
  8
1
  6
CONTINUOUS
 62
     1
  5
C8
 10
1104.905016
 20
92.532857
 30
0.0
 40
56.902242
 50
219.264506
 51
260.712583
210
0.0
220
0.0
230
1.0
  0
ARC
  8
1
  6
CONTINUOUS
 62
     1
  5
C9
 10
1104.905016
 20
92.532857
 30
0.0
 40
56.405867
 50
219.222414
 51
260.712583
210
0.0
220
0.0
230
1.0
  0
ARC
  8
1
  6
CONTINUOUS
 62
     1
  5
CA
 10
1008.354661
 20
5.731399
 30
0.0
 40
73.030507
 50
44.053983
 51
82.994756
210
0.0
220
0.0
230
1.0
  0
ARC
  8
1
  6
CONTINUOUS
 62
     1
  5
CB
 10
1008.354661
 20
5.731399
 30
0.0
 40
73.526882
 50
44.053983
 51
82.994756
210
0.0
220
0.0
230
1.0
  0
ARC
  8
1
  6
CONTINUOUS
 62
     1
  5
CC
 10
1006.039492
 20
1.884548
 30
0.0
 40
77.153698
 50
81.572522
 51
112.259464
210
0.0
220
0.0
230
1.0
  0
ARC
  8
1
  6
CONTINUOUS
 62
     1
  5
CD
 10
1006.039492
 20
1.884548
 30
0.0
 40
77.650073
 50
81.572522
 51
111.497725
210
0.0
220
0.0
230
1.0
  0
LINE
  8
61
  6
CONTINUOUS
 62
     1
  5
CE
 10
652.351417
 20
150.691417
 30
0.0
 11
652.351417
 21
-139.333583
 31
0.0
  0
LINE
  8
61
  6
CONTINUOUS
 62
     1
  5
CF
 10
813.891417
 20
150.676167
 30
0.0
 11
813.90525
 21
-139.338583
 31
0.0
  0
LINE
  8
61
  6
CONTINUOUS
 62
     1
  5
D0
 10
1132.641417
 20
-6.308583
 30
0.0
 11
493.601417
 21
-6.308583
 31
0.0
  0
LINE
  8
61
  6
CONTINUOUS
 62
     1
  5
D1
 10
1132.665417
 20
-139.348583
 30
0.0
 11
493.605417
 21
-139.328583
 31
0.0
  0
ARC
  8
1
  6
CONTINUOUS
 62
     1
  5
D2
 10
671.0758
 20
-124.295298
 30
0.0
 40
84.868964
 50
69.337047
 51
94.8577
210
0.0
220
0.0
230
1.0
  0
ARC
  8
1
  6
CONTINUOUS
 62
     1
  5
D3
 10
678.596113
 20
-104.943238
 30
0.0
 40
64.10842
 50
30.618153
 51
69.522761
210
0.0
220
0.0
230
1.0
  0
ARC
  8
1
  6
CONTINUOUS
 62
     1
  5
D4
 10
788.937053
 20
-39.640596
 30
0.0
 40
64.10842
 50
210.618153
 51
249.522761
210
0.0
220
0.0
230
1.0
  0
ARC
  8
1
  6
CONTINUOUS
 62
     1
  5
D5
 10
796.457367
 20
-20.288535
 30
0.0
 40
84.868964
 50
249.337047
 51
274.628119
210
0.0
220
0.0
230
1.0
  0
ARC
  8
1
  6
CONTINUOUS
 62
     1
  5
D6
 10
671.0758
 20
-124.295298
 30
0.0
 40
78.118964
 50
69.337047
 51
94.857667
210
0.0
220
0.0
230
1.0
  0
ARC
  8
1
  6
CONTINUOUS
 62
     1
  5
D7
 10
678.596113
 20
-104.943238
 30
0.0
 40
57.35842
 50
30.618153
 51
69.522761
210
0.0
220
0.0
230
1.0
  0
ARC
  8
1
  6
CONTINUOUS
 62
     1
  5
D8
 10
788.937053
 20
-39.640596
 30
0.0
 40
70.85842
 50
210.618153
 51
249.522761
210
0.0
220
0.0
230
1.0
  0
ARC
  8
1
  6
CONTINUOUS
 62
     1
  5
D9
 10
796.457367
 20
-20.288535
 30
0.0
 40
91.618964
 50
249.337047
 51
274.628103
210
0.0
220
0.0
230
1.0
  0
ARC
  8
1
  6
CONTINUOUS
 62
     1
  5
DA
 10
671.0758
 20
-124.295298
 30
0.0
 40
81.243964
 50
69.337047
 51
94.857661
210
0.0
220
0.0
230
1.0
  0
ARC
  8
1
  6
CONTINUOUS
 62
     1
  5
DB
 10
678.596113
 20
-104.943238
 30
0.0
 40
60.98342
 50
30.618153
 51
69.522761
210
0.0
220
0.0
230
1.0
  0
ARC
  8
1
  6
CONTINUOUS
 62
     1
  5
DC
 10
678.596113
 20
-104.943238
 30
0.0
 40
60.48342
 50
30.618153
 51
69.522761
210
0.0
220
0.0
230
1.0
  0
ARC
  8
1
  6
CONTINUOUS
 62
     1
  5
DD
 10
788.937053
 20
-39.640596
 30
0.0
 40
67.23342
 50
210.618153
 51
249.522761
210
0.0
220
0.0
230
1.0
  0
ARC
  8
1
  6
CONTINUOUS
 62
     1
  5
DE
 10
788.937053
 20
-39.640596
 30
0.0
 40
67.73342
 50
210.618153
 51
249.522761
210
0.0
220
0.0
230
1.0
  0
ARC
  8
1
  6
CONTINUOUS
 62
     1
  5
DF
 10
796.457367
 20
-20.288535
 30
0.0
 40
87.993964
 50
249.337047
 51
274.628097
210
0.0
220
0.0
230
1.0
  0
LINE
  8
1
  6
CONTINUOUS
 62
     1
  5
E0
 10
822.186417
 20
-20.425417
 30
0.0
 11
838.171917
 21
-20.350083
 31
0.0
  0
ARC
  8
1
  6
CONTINUOUS
 62
     1
  5
E1
 10
841.144359
 20
-68.371355
 30
0.0
 40
48.113212
 50
14.568619
 51
93.542008
210
0.0
220
0.0
230
1.0
  0
ARC
  8
1
  6
CONTINUOUS
 62
     1
  5
E2
 10
931.765791
 20
-46.072736
 30
0.0
 40
45.219733
 50
193.031247
 51
323.830589
210
0.0
220
0.0
230
1.0
  0
LINE
  8
1
  6
CONTINUOUS
 62
     1
  5
E3
 10
822.221417
 20
-27.85025
 30
0.0
 11
838.206917
 21
-27.775
 31
0.0
  0
ARC
  8
1
  6
CONTINUOUS
 62
     1
  5
E4
 10
841.144359
 20
-68.371355
 30
0.0
 40
40.688212
 50
14.568619
 51
94.138539
210
0.0
220
0.0
230
1.0
  0
ARC
  8
1
  6
CONTINUOUS
 62
     1
  5
E5
 10
931.765791
 20
-46.072736
 30
0.0
 40
52.644733
 50
193.031247
 51
322.630092
210
0.0
220
0.0
230
1.0
  0
LINE
  8
1
  6
CONTINUOUS
 62
     1
  5
E6
 10
822.205167
 20
-24.41275
 30
0.0
 11
838.190667
 21
-24.3375
 31
0.0
  0
ARC
  8
1
  6
CONTINUOUS
 62
     1
  5
E7
 10
841.144359
 20
-68.371355
 30
0.0
 40
44.675712
 50
14.568619
 51
79.465747
210
0.0
220
0.0
230
1.0
  0
ARC
  8
1
  6
CONTINUOUS
 62
     1
  5
E8
 10
841.144359
 20
-68.371355
 30
0.0
 40
44.125712
 50
14.568619
 51
93.837478
210
0.0
220
0.0
230
1.0
  0
ARC
  8
1
  6
CONTINUOUS
 62
     1
  5
E9
 10
931.765791
 20
-46.072736
 30
0.0
 40
48.657233
 50
193.031247
 51
324.5883
210
0.0
220
0.0
230
1.0
  0
ARC
  8
1
  6
CONTINUOUS
 62
     1
  5
EA
 10
931.765791
 20
-46.072736
 30
0.0
 40
49.207233
 50
193.031247
 51
322.625339
210
0.0
220
0.0
230
1.0
  0
ARC
  8
1
  6
CONTINUOUS
 62
     1
  5
EB
 10
1105.736758
 20
-76.141886
 30
0.0
 40
48.113212
 50
194.568619
 51
273.542008
210
0.0
220
0.0
230
1.0
  0
LINE
  8
1
  6
CONTINUOUS
 62
     1
  5
EC
 10
1124.69425
 20
-124.087667
 30
0.0
 11
1108.70925
 21
-124.163167
 31
0.0
  0
ARC
  8
1
  6
CONTINUOUS
 62
     1
  5
ED
 10
1015.115325
 20
-98.440505
 30
0.0
 40
45.219733
 50
13.031247
 51
145.114317
210
0.0
220
0.0
230
1.0
  0
LINE
  8
1
  6
CONTINUOUS
 62
     1
  5
EE
 10
1124.65925
 20
-116.66275
 30
0.0
 11
1108.250417
 21
-116.740333
 31
0.0
  0
ARC
  8
1
  6
CONTINUOUS
 62
     1
  5
EF
 10
1105.736758
 20
-76.141886
 30
0.0
 40
40.688212
 50
194.568619
 51
273.542008
210
0.0
220
0.0
230
1.0
  0
ARC
  8
1
  6
CONTINUOUS
 62
     1
  5
F0
 10
1015.115325
 20
-98.440505
 30
0.0
 40
52.644733
 50
13.031247
 51
143.729053
210
0.0
220
0.0
230
1.0
  0
LINE
  8
1
  6
DASHED
 62
     1
  5
F1
 10
1124.678083
 20
-120.650167
 30
0.0
 11
1108.496833
 21
-120.726667
 31
0.0
  0
LINE
  8
1
  6
CONTINUOUS
 62
     1
  5
F2
 10
1124.6755
 20
-120.10025
 30
0.0
 11
1108.462917
 21
-120.176917
 31
0.0
  0
ARC
  8
1
  6
CONTINUOUS
 62
     1
  5
F3
 10
1105.736758
 20
-76.141886
 30
0.0
 40
44.125712
 50
194.568619
 51
273.542008
210
0.0
220
0.0
230
1.0
  0
ARC
  8
1
  6
CONTINUOUS
 62
     1
  5
F4
 10
1015.115325
 20
-98.440505
 30
0.0
 40
48.657233
 50
13.031247
 51
144.533739
210
0.0
220
0.0
230
1.0
  0
ARC
  8
1
  6
CONTINUOUS
 62
     1
  5
F5
 10
1015.115325
 20
-98.440505
 30
0.0
 40
49.207233
 50
13.031247
 51
142.576728
210
0.0
220
0.0
230
1.0
  0
ARC
  8
1
  6
CONTINUOUS
 62
     1
  5
F6
 10
573.684941
 20
-183.200055
 30
0.0
 40
124.606251
 50
54.157239
 51
125.842761
210
0.0
220
0.0
230
1.0
  0
ARC
  8
1
  6
CONTINUOUS
 62
     1
  5
F7
 10
573.684941
 20
-183.200055
 30
0.0
 40
117.181251
 50
54.157239
 51
125.842761
210
0.0
220
0.0
230
1.0
  0
ARC
  8
1
  6
CONTINUOUS
 62
     1
  5
F8
 10
573.684941
 20
-183.200055
 30
0.0
 40
120.618751
 50
73.498803
 51
125.842761
210
0.0
220
0.0
230
1.0
  0
INSERT
  8
1
  6
CONTINUOUS
 62
     1
  5
100
  2
2SPT
 10
534.04575
 20
97.033333
 30
0.0
 41
240.000003
 42
240.000003
 50
306.023406
210
0.0
220
0.0
230
1.0
  0
INSERT
  8
1
  6
CONTINUOUS
 62
     1
  5
101
  2
2SPT
 10
590.55775
 20
97.033333
 30
0.0
 41
240.000003
 42
-240.000003
 50
233.976594
210
0.0
220
0.0
230
1.0
  0
LINE
  8
1
  6
CONTINUOUS
 62
     7
  5
102
 10
522.701667
 20
70.75375
 30
0.0
 11
530.691167
 21
63.8805
 31
0.0
  0
LINE
  8
1
  6
CONTINUOUS
 62
     7
  5
103
 10
511.061333
 20
44.279417
 30
0.0
 11
514.968333
 21
40.9185
 31
0.0
  0
INSERT
  8
4
  6
CONTINUOUS
 62
     1
  5
109
  2
1SPT
 10
509.347167
 20
46.270333
 30
0.0
 41
239.999999
 42
239.999999
 50
318.984631
210
0.0
220
0.0
230
1.0
  0
INSERT
  8
1
  6
CONTINUOUS
 62
     1
  5
12A
  2
LDR
 10
529.933167
 20
64.532667
 30
0.0
 41
239.999999
 42
239.999999
 50
48.956111
210
0.0
220
0.0
230
1.0
  0
INSERT
  8
1
  6
CONTINUOUS
 62
     1
  5
12B
  2
LDR
 10
529.933167
 20
64.532667
 30
0.0
 41
239.999999
 42
239.999999
 50
48.956111
210
0.0
220
0.0
230
1.0
  0
INSERT
  8
1
  6
CONTINUOUS
 62
     1
  5
12C
  2
LDR
 10
514.21025
 20
41.570667
 30
0.0
 41
240.000002
 42
240.000002
 50
242.242045
210
0.0
220
0.0
230
1.0
  0
LINE
  8
1
  6
CONTINUOUS
 62
     7
  5
12D
 10
609.132167
 20
76.81225
 30
0.0
 11
618.134583
 21
82.292417
 31
0.0
  0
LINE
  8
1
  6
CONTINUOUS
 62
     7
  5
12E
 10
629.645333
 20
56.916333
 30
0.0
 11
635.12775
 21
60.254083
 31
0.0
  0
INSERT
  8
4
  6
CONTINUOUS
 62
     1
  5
12F
  2
1SPT
 10
627.112333
 20
55.842833
 30
0.0
 41
239.999999
 42
239.999999
 50
31.020215
210
0.0
220
0.0
230
1.0
  0
INSERT
  8
1
  6
CONTINUOUS
 62
     1
  5
130
  2
LDR
 10
616.55075
 20
81.149917
 30
0.0
 41
239.999999
 42
239.999999
 50
134.277628
210
0.0
220
0.0
230
1.0
  0
INSERT
  8
1
  6
CONTINUOUS
 62
     1
  5
131
  2
LDR
 10
633.543917
 20
59.111417
 30
0.0
 41
240.000002
 42
240.000002
 50
300.991694
210
0.0
220
0.0
230
1.0
  0
INSERT
  8
1
  6
CONTINUOUS
 62
     1
  5
140
  2
ARO
 10
539.404167
 20
99.078083
 30
0.0
 41
240.000001
 42
240.000001
 50
305.528658
210
0.0
220
0.0
230
1.0
  0
POLYLINE
  8
1
  6
CONTINUOUS
 62
     7
  5
141
 66
     1
 10
0.0
 20
0.0
 30
0.0
 70
     1
  0
VERTEX
  8
1
  6
CONTINUOUS
 62
     7
  5
142
 10
536.921417
 20
95.803917
 30
0.0
  0
VERTEX
  8
1
  6
CONTINUOUS
 62
     7
  5
143
 10
527.301083
 20
109.276833
 30
0.0
  0
VERTEX
  8
1
  6
CONTINUOUS
 62
     7
  5
144
 10
533.441917
 20
113.661667
 30
0.0
  0
VERTEX
  8
1
  6
CONTINUOUS
 62
     7
  5
145
 10
543.06225
 20
100.18875
 30
0.0
  0
SEQEND
  8
1
  6
CONTINUOUS
 62
     7
  5
146
  0
POLYLINE
  8
1
  6
CONTINUOUS
 62
     7
  5
147
 66
     1
 10
0.0
 20
0.0
 30
0.0
 70
     1
  0
VERTEX
  8
1
  6
CONTINUOUS
 62
     7
  5
148
 10
587.21375
 20
95.46925
 30
0.0
  0
VERTEX
  8
1
  6
CONTINUOUS
 62
     7
  5
149
 10
596.834083
 20
108.942167
 30
0.0
  0
VERTEX
  8
1
  6
CONTINUOUS
 62
     7
  5
14A
 10
590.69325
 20
113.327
 30
0.0
  0
VERTEX
  8
1
  6
CONTINUOUS
 62
     7
  5
14B
 10
581.072917
 20
99.854083
 30
0.0
  0
SEQEND
  8
1
  6
CONTINUOUS
 62
     7
  5
14C
  0
INSERT
  8
1
  6
CONTINUOUS
 62
     1
  5
14D
  2
ARO
 10
584.731
 20
98.743417
 30
0.0
 41
240.000001
 42
-240.000001
 50
234.471342
210
0.0
220
0.0
230
1.0
  0
INSERT
  8
1
  6
CONTINUOUS
 62
     1
  5
15D
  2
ADV
 10
516.987167
 20
35.572
 30
0.0
 41
240.000001
 42
240.000001
 50
234.705842
210
0.0
220
0.0
230
1.0
  0
TEXT
  8
1
  6
CONTINUOUS
 62
     7
  5
15E
 10
510.955083
 20
28.735
 30
0.0
 40
1.0
  1
M.P.H.
 50
317.274536
  7
MONOTXT
210
0.0
220
0.0
230
1.0
  0
POLYLINE
  8
1
  6
CONTINUOUS
 62
     7
  5
15F
 66
     1
 10
0.0
 20
0.0
 30
0.0
  0
VERTEX
  8
1
  6
CONTINUOUS
 62
     7
  5
160
 10
516.50975
 20
31.516833
 30
0.0
  0
VERTEX
  8
1
  6
CONTINUOUS
 62
     7
  5
161
 10
516.50975
 20
40.516833
 30
0.0
  0
VERTEX
  8
1
  6
CONTINUOUS
 62
     7
  5
162
 10
525.50975
 20
40.516833
 30
0.0
  0
VERTEX
  8
1
  6
CONTINUOUS
 62
     7
  5
163
 10
525.50975
 20
31.516833
 30
0.0
  0
VERTEX
  8
1
  6
CONTINUOUS
 62
     7
  5
164
 10
516.50975
 20
31.516833
 30
0.0
  0
SEQEND
  8
1
  6
CONTINUOUS
 62
     7
  5
165
  0
POLYLINE
  8
1
  6
CONTINUOUS
 62
     7
  5
166
 66
     1
 10
0.0
 20
0.0
 30
0.0
  0
VERTEX
  8
1
  6
CONTINUOUS
 62
     7
  5
167
 10
510.291917
 20
28.738167
 30
0.0
  0
VERTEX
  8
1
  6
CONTINUOUS
 62
     7
  5
168
 10
514.004167
 20
32.4505
 30
0.0
  0
VERTEX
  8
1
  6
CONTINUOUS
 62
     7
  5
169
 10
517.7165
 20
28.738167
 30
0.0
  0
VERTEX
  8
1
  6
CONTINUOUS
 62
     7
  5
16A
 10
514.004167
 20
25.025833
 30
0.0
  0
VERTEX
  8
1
  6
CONTINUOUS
 62
     7
  5
16B
 10
510.291917
 20
28.738167
 30
0.0
  0
SEQEND
  8
1
  6
CONTINUOUS
 62
     7
  5
16C
  0
POLYLINE
  8
1
  6
CONTINUOUS
 62
     7
  5
16D
 66
     1
 10
0.0
 20
0.0
 30
0.0
  0
VERTEX
  8
1
  6
CONTINUOUS
 62
     7
  5
16E
 10
642.107833
 20
63.0415
 30
0.0
  0
VERTEX
  8
1
  6
CONTINUOUS
 62
     7
  5
16F
 10
642.107833
 20
72.0415
 30
0.0
  0
VERTEX
  8
1
  6
CONTINUOUS
 62
     7
  5
170
 10
633.107833
 20
72.0415
 30
0.0
  0
VERTEX
  8
1
  6
CONTINUOUS
 62
     7
  5
171
 10
633.107833
 20
63.0415
 30
0.0
  0
VERTEX
  8
1
  6
CONTINUOUS
 62
     7
  5
172
 10
642.107833
 20
63.0415
 30
0.0
  0
SEQEND
  8
1
  6
CONTINUOUS
 62
     7
  5
173
  0
INSERT
  8
1
  6
CONTINUOUS
 62
     1
  5
174
  2
ADV
 10
641.630417
 20
67.096667
 30
0.0
 41
240.000001
 42
-240.000001
 50
305.294158
210
0.0
220
0.0
230
1.0
  0
TEXT
  8
1
  6
CONTINUOUS
 62
     7
  5
175
 10
644.6765
 20
57.36725
 30
0.0
 40
1.0
  1
M.P.H.
 50
47.274536
  7
MONOTXT
210
0.0
220
0.0
230
1.0
  0
POLYLINE
  8
1
  6
CONTINUOUS
 62
     7
  5
176
 66
     1
 10
0.0
 20
0.0
 30
0.0
  0
VERTEX
  8
1
  6
CONTINUOUS
 62
     7
  5
177
 10
648.325667
 20
60.262833
 30
0.0
  0
VERTEX
  8
1
  6
CONTINUOUS
 62
     7
  5
178
 10
644.613417
 20
63.975167
 30
0.0
  0
VERTEX
  8
1
  6
CONTINUOUS
 62
     7
  5
179
 10
640.901083
 20
60.262833
 30
0.0
  0
VERTEX
  8
1
  6
CONTINUOUS
 62
     7
  5
17A
 10
644.613417
 20
56.5505
 30
0.0
  0
VERTEX
  8
1
  6
CONTINUOUS
 62
     7
  5
17B
 10
648.325667
 20
60.262833
 30
0.0
  0
SEQEND
  8
1
  6
CONTINUOUS
 62
     7
  5
17C
  0
INSERT
  8
4
  6
CONTINUOUS
 62
     1
  5
17D
  2
1SPT
 10
659.345667
 20
117.307917
 30
0.0
 41
240.0
 42
240.0
 50
256.80049
210
0.0
220
0.0
230
1.0
  0
LINE
  8
1
  6
CONTINUOUS
 62
     7
  5
17E
 10
695.323417
 20
115.990417
 30
0.0
 11
693.125083
 21
106.383833
 31
0.0
  0
LINE
  8
1
  6
CONTINUOUS
 62
     7
  5
17F
 10
658.38475
 20
114.86275
 30
0.0
 11
657.223333
 21
109.787167
 31
0.0
  0
POLYLINE
  8
1
  6
CONTINUOUS
 62
     7
  5
180
 66
     1
 10
0.0
 20
0.0
 30
0.0
 70
     1
  0
VERTEX
  8
1
  6
CONTINUOUS
 62
     7
  5
181
 10
717.588333
 20
120.762583
 30
0.0
  0
VERTEX
  8
1
  6
CONTINUOUS
 62
     7
  5
182
 10
717.60475
 20
137.317583
 30
0.0
  0
VERTEX
  8
1
  6
CONTINUOUS
 62
     7
  5
183
 10
725.150417
 20
137.310083
 30
0.0
  0
VERTEX
  8
1
  6
CONTINUOUS
 62
     7
  5
184
 10
725.133917
 20
120.755083
 30
0.0
  0
SEQEND
  8
1
  6
CONTINUOUS
 62
     7
  5
185
  0
INSERT
  8
1
  6
CONTINUOUS
 62
     1
  5
186
  2
ARO
 10
721.512667
 20
121.9805
 30
0.0
 41
240.000001
 42
240.000001
 50
269.943265
210
0.0
220
0.0
230
1.0
  0
INSERT
  8
1
  6
CONTINUOUS
 62
     1
  5
187
  2
2SPT
 10
715.770917
 20
121.339833
 30
0.0
 41
240.000003
 42
240.000003
 50
270.054881
210
0.0
220
0.0
230
1.0
  0
POLYLINE
  8
1
  6
CONTINUOUS
 62
     7
  5
188
 66
     1
 10
0.0
 20
0.0
 30
0.0
  0
VERTEX
  8
1
  6
CONTINUOUS
 62
     7
  5
189
 10
665.564
 20
94.281583
 30
0.0
  0
VERTEX
  8
1
  6
CONTINUOUS
 62
     7
  5
18A
 10
660.57225
 20
101.770333
 30
0.0
  0
VERTEX
  8
1
  6
CONTINUOUS
 62
     7
  5
18B
 10
668.061
 20
106.762167
 30
0.0
  0
VERTEX
  8
1
  6
CONTINUOUS
 62
     7
  5
18C
 10
673.052833
 20
99.273333
 30
0.0
  0
VERTEX
  8
1
  6
CONTINUOUS
 62
     7
  5
18D
 10
665.564
 20
94.281583
 30
0.0
  0
SEQEND
  8
1
  6
CONTINUOUS
 62
     7
  5
18E
  0
TEXT
  8
1
  6
CONTINUOUS
 62
     7
  5
18F
 10
655.411167
 20
104.985583
 30
0.0
 40
1.0
  1
M.P.H.
 50
258.498842
  7
MONOTXT
210
0.0
220
0.0
230
1.0
  0
POLYLINE
  8
1
  6
CONTINUOUS
 62
     7
  5
190
 66
     1
 10
0.0
 20
0.0
 30
0.0
  0
VERTEX
  8
1
  6
CONTINUOUS
 62
     7
  5
191
 10
653.923917
 20
100.491333
 30
0.0
  0
VERTEX
  8
1
  6
CONTINUOUS
 62
     7
  5
192
 10
654.953833
 20
105.639333
 30
0.0
  0
VERTEX
  8
1
  6
CONTINUOUS
 62
     7
  5
193
 10
660.101833
 20
104.609333
 30
0.0
  0
VERTEX
  8
1
  6
CONTINUOUS
 62
     7
  5
194
 10
659.071917
 20
99.461417
 30
0.0
  0
VERTEX
  8
1
  6
CONTINUOUS
 62
     7
  5
195
 10
653.923917
 20
100.491333
 30
0.0
  0
SEQEND
  8
1
  6
CONTINUOUS
 62
     7
  5
196
  0
POLYLINE
  8
1
  6
CONTINUOUS
 62
     1
  5
197
 66
     1
 10
0.0
 20
0.0
 30
0.0
 70
     1
  0
VERTEX
  8
1
  6
CONTINUOUS
 62
     1
  5
198
 10
663.937917
 20
103.049667
 30
0.0
  0
VERTEX
  8
1
  6
CONTINUOUS
 62
     1
  5
199
 10
666.605083
 20
102.516083
 30
0.0
  0
VERTEX
  8
1
  6
CONTINUOUS
 62
     1
  5
19A
 10
666.18525
 20
100.417667
 30
0.0
  0
VERTEX
  8
1
  6
CONTINUOUS
 62
     1
  5
19B
 10
667.6365
 20
100.12725
 30
0.0
  0
VERTEX
  8
1
  6
CONTINUOUS
 62
     1
  5
19C
 10
667.809083
 20
100.990167
 30
0.0
  0
VERTEX
  8
1
  6
CONTINUOUS
 62
     1
  5
19D
 10
670.786
 20
98.8445
 30
0.0
  0
VERTEX
  8
1
  6
CONTINUOUS
 62
     1
  5
19E
 10
667.220583
 20
98.0485
 30
0.0
  0
VERTEX
  8
1
  6
CONTINUOUS
 62
     1
  5
19F
 10
667.393167
 20
98.911417
 30
0.0
  0
VERTEX
  8
1
  6
CONTINUOUS
 62
     1
  5
1A0
 10
664.726083
 20
99.445
 30
0.0
  0
VERTEX
  8
1
  6
CONTINUOUS
 62
     1
  5
1A1
 10
665.145917
 20
101.543417
 30
0.0
  0
VERTEX
  8
1
  6
CONTINUOUS
 62
     1
  5
1A2
 10
663.694667
 20
101.83375
 30
0.0
  0
VERTEX
  8
1
  6
CONTINUOUS
 62
     1
  5
1A3
 10
663.937917
 20
103.049667
 30
0.0
  0
SEQEND
  8
1
  6
CONTINUOUS
 62
     1
  5
1A4
  0
INSERT
  8
1
  6
CONTINUOUS
 62
     1
  5
1A5
  2
LDR
 10
657.4465
 20
110.762
 30
0.0
 41
239.999998
 42
239.999998
 50
176.866544
210
0.0
220
0.0
230
1.0
  0
INSERT
  8
1
  6
CONTINUOUS
 62
     1
  5
1A6
  2
LDR
 10
657.4465
 20
110.762
 30
0.0
 41
239.999998
 42
239.999998
 50
176.866544
210
0.0
220
0.0
230
1.0
  0
INSERT
  8
1
  6
CONTINUOUS
 62
     1
  5
1A7
  2
LDR
 10
693.348167
 20
107.358667
 30
0.0
 41
239.999998
 42
239.999998
 50
352.30307
210
0.0
220
0.0
230
1.0
  0
LINE
  8
1
  6
CONTINUOUS
 62
     7
  5
1A8
 10
771.810167
 20
28.3825
 30
0.0
 11
774.008583
 21
37.989167
 31
0.0
  0
INSERT
  8
4
  6
CONTINUOUS
 62
     1
  5
1A9
  2
1SPT
 10
807.788
 20
27.065083
 30
0.0
 41
240.0
 42
240.0
 50
76.80049
210
0.0
220
0.0
230
1.0
  0
LINE
  8
1
  6
CONTINUOUS
 62
     7
  5
1AA
 10
808.748917
 20
29.51025
 30
0.0
 11
809.910333
 21
34.585833
 31
0.0
  0
POLYLINE
  8
1
  6
CONTINUOUS
 62
     7
  5
1AB
 66
     1
 10
0.0
 20
0.0
 30
0.0
  0
VERTEX
  8
1
  6
CONTINUOUS
 62
     7
  5
1AC
 10
800.279
 20
50.243333
 30
0.0
  0
VERTEX
  8
1
  6
CONTINUOUS
 62
     7
  5
1AD
 10
805.27075
 20
42.754583
 30
0.0
  0
VERTEX
  8
1
  6
CONTINUOUS
 62
     7
  5
1AE
 10
797.782
 20
37.76275
 30
0.0
  0
VERTEX
  8
1
  6
CONTINUOUS
 62
     7
  5
1AF
 10
792.790167
 20
45.251583
 30
0.0
  0
VERTEX
  8
1
  6
CONTINUOUS
 62
     7
  5
1B0
 10
800.279
 20
50.243333
 30
0.0
  0
SEQEND
  8
1
  6
CONTINUOUS
 62
     7
  5
1B1
  0
TEXT
  8
1
  6
CONTINUOUS
 62
     7
  5
1B2
 10
810.431833
 20
39.539333
 30
0.0
 40
1.0
  1
M.P.H.
 50
78.498842
  7
MONOTXT
210
0.0
220
0.0
230
1.0
  0
POLYLINE
  8
1
  6
CONTINUOUS
 62
     7
  5
1B3
 66
     1
 10
0.0
 20
0.0
 30
0.0
  0
VERTEX
  8
1
  6
CONTINUOUS
 62
     7
  5
1B4
 10
811.919083
 20
44.033583
 30
0.0
  0
VERTEX
  8
1
  6
CONTINUOUS
 62
     7
  5
1B5
 10
810.889167
 20
38.885583
 30
0.0
  0
VERTEX
  8
1
  6
CONTINUOUS
 62
     7
  5
1B6
 10
805.741167
 20
39.915583
 30
0.0
  0
VERTEX
  8
1
  6
CONTINUOUS
 62
     7
  5
1B7
 10
806.771083
 20
45.0635
 30
0.0
  0
VERTEX
  8
1
  6
CONTINUOUS
 62
     7
  5
1B8
 10
811.919083
 20
44.033583
 30
0.0
  0
SEQEND
  8
1
  6
CONTINUOUS
 62
     7
  5
1B9
  0
POLYLINE
  8
1
  6
CONTINUOUS
 62
     1
  5
1BA
 66
     1
 10
0.0
 20
0.0
 30
0.0
 70
     1
  0
VERTEX
  8
1
  6
CONTINUOUS
 62
     1
  5
1BB
 10
801.905083
 20
41.47525
 30
0.0
  0
VERTEX
  8
1
  6
CONTINUOUS
 62
     1
  5
1BC
 10
799.237917
 20
42.008833
 30
0.0
  0
VERTEX
  8
1
  6
CONTINUOUS
 62
     1
  5
1BD
 10
799.65775
 20
44.10725
 30
0.0
  0
VERTEX
  8
1
  6
CONTINUOUS
 62
     1
  5
1BE
 10
798.2065
 20
44.397667
 30
0.0
  0
VERTEX
  8
1
  6
CONTINUOUS
 62
     1
  5
1BF
 10
798.033917
 20
43.53475
 30
0.0
  0
VERTEX
  8
1
  6
CONTINUOUS
 62
     1
  5
1C0
 10
795.057
 20
45.680417
 30
0.0
  0
VERTEX
  8
1
  6
CONTINUOUS
 62
     1
  5
1C1
 10
798.622417
 20
46.476417
 30
0.0
  0
VERTEX
  8
1
  6
CONTINUOUS
 62
     1
  5
1C2
 10
798.449833
 20
45.6135
 30
0.0
  0
VERTEX
  8
1
  6
CONTINUOUS
 62
     1
  5
1C3
 10
801.116917
 20
45.079917
 30
0.0
  0
VERTEX
  8
1
  6
CONTINUOUS
 62
     1
  5
1C4
 10
800.697083
 20
42.9815
 30
0.0
  0
VERTEX
  8
1
  6
CONTINUOUS
 62
     1
  5
1C5
 10
802.148333
 20
42.691167
 30
0.0
  0
VERTEX
  8
1
  6
CONTINUOUS
 62
     1
  5
1C6
 10
801.905083
 20
41.47525
 30
0.0
  0
SEQEND
  8
1
  6
CONTINUOUS
 62
     1
  5
1C7
  0
INSERT
  8
1
  6
CONTINUOUS
 62
     1
  5
1C8
  2
LDR
 10
809.687167
 20
33.611
 30
0.0
 41
239.999998
 42
239.999998
 50
356.866544
210
0.0
220
0.0
230
1.0
  0
INSERT
  8
1
  6
CONTINUOUS
 62
     1
  5
1C9
  2
LDR
 10
773.7855
 20
37.014333
 30
0.0
 41
239.999998
 42
239.999998
 50
172.30307
210
0.0
220
0.0
230
1.0
  0
INSERT
  8
1
  6
CONTINUOUS
 62
     1
  5
1CA
  2
2SPT
 10
727.609917
 20
108.849417
 30
0.0
 41
240.000003
 42
240.000003
 50
0.054881
210
0.0
220
0.0
230
1.0
  0
POLYLINE
  8
1
  6
CONTINUOUS
 62
     7
  5
1CB
 66
     1
 10
0.0
 20
0.0
 30
0.0
 70
     1
  0
VERTEX
  8
1
  6
CONTINUOUS
 62
     7
  5
1CC
 10
727.608167
 20
117.7915
 30
0.0
  0
VERTEX
  8
1
  6
CONTINUOUS
 62
     7
  5
1CD
 10
744.163167
 20
117.775083
 30
0.0
  0
VERTEX
  8
1
  6
CONTINUOUS
 62
     7
  5
1CE
 10
744.155583
 20
110.229417
 30
0.0
  0
VERTEX
  8
1
  6
CONTINUOUS
 62
     7
  5
1CF
 10
727.600667
 20
110.245833
 30
0.0
  0
SEQEND
  8
1
  6
CONTINUOUS
 62
     7
  5
1D0
  0
INSERT
  8
1
  6
CONTINUOUS
 62
     1
  5
1D1
  2
ARO
 10
728.826083
 20
113.867167
 30
0.0
 41
240.000001
 42
240.000001
 50
179.943265
210
0.0
220
0.0
230
1.0
  0
POLYLINE
  8
1
  6
CONTINUOUS
 62
     7
  5
1D2
 66
     1
 10
0.0
 20
0.0
 30
0.0
 70
     1
  0
VERTEX
  8
1
  6
CONTINUOUS
 62
     7
  5
1D3
 10
739.97775
 20
23.82175
 30
0.0
  0
VERTEX
  8
1
  6
CONTINUOUS
 62
     7
  5
1D4
 10
739.994167
 20
7.26675
 30
0.0
  0
VERTEX
  8
1
  6
CONTINUOUS
 62
     7
  5
1D5
 10
747.539833
 20
7.274333
 30
0.0
  0
VERTEX
  8
1
  6
CONTINUOUS
 62
     7
  5
1D6
 10
747.523417
 20
23.82925
 30
0.0
  0
SEQEND
  8
1
  6
CONTINUOUS
 62
     7
  5
1D7
  0
POLYLINE
  8
1
  6
CONTINUOUS
 62
     7
  5
1D8
 66
     1
 10
0.0
 20
0.0
 30
0.0
 70
     1
  0
VERTEX
  8
1
  6
CONTINUOUS
 62
     7
  5
1D9
 10
737.006667
 20
33.841583
 30
0.0
  0
VERTEX
  8
1
  6
CONTINUOUS
 62
     7
  5
1DA
 10
720.451667
 20
33.82525
 30
0.0
  0
VERTEX
  8
1
  6
CONTINUOUS
 62
     7
  5
1DB
 10
720.459167
 20
26.2795
 30
0.0
  0
VERTEX
  8
1
  6
CONTINUOUS
 62
     7
  5
1DC
 10
737.014167
 20
26.295917
 30
0.0
  0
SEQEND
  8
1
  6
CONTINUOUS
 62
     7
  5
1DD
  0
INSERT
  8
1
  6
CONTINUOUS
 62
     1
  5
1DE
  2
ARO
 10
735.78875
 20
29.91725
 30
0.0
 41
240.000001
 42
-240.000001
 50
0.056735
210
0.0
220
0.0
230
1.0
  0
INSERT
  8
1
  6
CONTINUOUS
 62
     1
  5
1DF
  2
2SPT
 10
736.429417
 20
35.659
 30
0.0
 41
240.000003
 42
-240.000003
 50
359.945119
210
0.0
220
0.0
230
1.0
  0
INSERT
  8
1
  6
CONTINUOUS
 62
     1
  5
1E0
  2
2SPT
 10
748.919833
 20
23.819917
 30
0.0
 41
240.000003
 42
-240.000003
 50
269.945119
210
0.0
220
0.0
230
1.0
  0
INSERT
  8
1
  6
CONTINUOUS
 62
     1
  5
1E1
  2
ARO
 10
743.902083
 20
22.603833
 30
0.0
 41
240.000001
 42
-240.000001
 50
90.056735
210
0.0
220
0.0
230
1.0
  0
INSERT
  8
4
  6
CONTINUOUS
 62
     1
  5
1E2
  2
1SPT
 10
818.380917
 20
104.8855
 30
0.0
 41
240.0
 42
240.0
 50
256.80049
210
0.0
220
0.0
230
1.0
  0
LINE
  8
1
  6
CONTINUOUS
 62
     7
  5
1E3
 10
851.478583
 20
104.227
 30
0.0
 11
849.28025
 21
94.620417
 31
0.0
  0
LINE
  8
1
  6
CONTINUOUS
 62
     7
  5
1E4
 10
817.42
 20
102.440333
 30
0.0
 11
816.258583
 21
97.36475
 31
0.0
  0
POLYLINE
  8
1
  6
CONTINUOUS
 62
     7
  5
1E5
 66
     1
 10
0.0
 20
0.0
 30
0.0
  0
VERTEX
  8
1
  6
CONTINUOUS
 62
     7
  5
1E6
 10
828.458583
 20
81.04025
 30
0.0
  0
VERTEX
  8
1
  6
CONTINUOUS
 62
     7
  5
1E7
 10
823.466833
 20
88.529
 30
0.0
  0
VERTEX
  8
1
  6
CONTINUOUS
 62
     7
  5
1E8
 10
830.955583
 20
93.520833
 30
0.0
  0
VERTEX
  8
1
  6
CONTINUOUS
 62
     7
  5
1E9
 10
835.947417
 20
86.032
 30
0.0
  0
VERTEX
  8
1
  6
CONTINUOUS
 62
     7
  5
1EA
 10
828.458583
 20
81.04025
 30
0.0
  0
SEQEND
  8
1
  6
CONTINUOUS
 62
     7
  5
1EB
  0
TEXT
  8
1
  6
CONTINUOUS
 62
     7
  5
1EC
 10
818.30575
 20
91.74425
 30
0.0
 40
1.0
  1
M.P.H.
 50
258.498842
  7
MONOTXT
210
0.0
220
0.0
230
1.0
  0
POLYLINE
  8
1
  6
CONTINUOUS
 62
     7
  5
1ED
 66
     1
 10
0.0
 20
0.0
 30
0.0
  0
VERTEX
  8
1
  6
CONTINUOUS
 62
     7
  5
1EE
 10
816.8185
 20
87.25
 30
0.0
  0
VERTEX
  8
1
  6
CONTINUOUS
 62
     7
  5
1EF
 10
817.848417
 20
92.398
 30
0.0
  0
VERTEX
  8
1
  6
CONTINUOUS
 62
     7
  5
1F0
 10
822.996417
 20
91.368
 30
0.0
  0
VERTEX
  8
1
  6
CONTINUOUS
 62
     7
  5
1F1
 10
821.9665
 20
86.220083
 30
0.0
  0
VERTEX
  8
1
  6
CONTINUOUS
 62
     7
  5
1F2
 10
816.8185
 20
87.25
 30
0.0
  0
SEQEND
  8
1
  6
CONTINUOUS
 62
     7
  5
1F3
  0
INSERT
  8
1
  6
CONTINUOUS
 62
     1
  5
1F4
  2
LDR
 10
816.48175
 20
98.339583
 30
0.0
 41
239.999998
 42
239.999998
 50
176.866544
210
0.0
220
0.0
230
1.0
  0
INSERT
  8
1
  6
CONTINUOUS
 62
     1
  5
1F5
  2
LDR
 10
849.44125
 20
95.324083
 30
0.0
 41
239.999998
 42
239.999998
 50
352.6785
210
0.0
220
0.0
230
1.0
  0
LINE
  8
1
  6
CONTINUOUS
 62
     1
  5
1F6
 10
967.716667
 20
77.60675
 30
0.0
 11
969.33675
 21
73.435667
 31
0.0
  0
LINE
  8
1
  6
CONTINUOUS
 62
     1
  5
1F7
 10
970.964917
 20
69.2445
 30
0.0
 11
972.58525
 21
65.073583
 31
0.0
  0
LINE
  8
1
  6
CONTINUOUS
 62
     1
  5
1F8
 10
969.33675
 20
73.435667
 30
0.0
 11
971.949
 21
73.4205
 31
0.0
  0
LINE
  8
1
  6
CONTINUOUS
 62
     1
  5
1F9
 10
971.949
 20
73.4205
 30
0.0
 11
968.212667
 21
69.3245
 31
0.0
  0
LINE
  8
1
  6
CONTINUOUS
 62
     1
  5
1FA
 10
968.212667
 20
69.3245
 30
0.0
 11
970.964917
 21
69.2445
 31
0.0
  0
LINE
  8
1
  6
CONTINUOUS
 62
     1
  5
1FB
 10
975.43675
 20
80.60525
 30
0.0
 11
977.056833
 21
76.434167
 31
0.0
  0
LINE
  8
1
  6
CONTINUOUS
 62
     1
  5
1FC
 10
977.056833
 20
76.434167
 30
0.0
 11
979.669083
 21
76.419
 31
0.0
  0
LINE
  8
1
  6
CONTINUOUS
 62
     1
  5
1FD
 10
978.685
 20
72.243
 30
0.0
 11
980.305333
 21
68.072083
 31
0.0
  0
LINE
  8
1
  6
CONTINUOUS
 62
     1
  5
1FE
 10
979.669083
 20
76.419
 30
0.0
 11
975.93275
 21
72.323
 31
0.0
  0
LINE
  8
1
  6
CONTINUOUS
 62
     1
  5
1FF
 10
975.93275
 20
72.323
 30
0.0
 11
978.685
 21
72.243
 31
0.0
  0
LINE
  8
1
  6
CONTINUOUS
 62
     7
  5
200
 10
1097.482667
 20
40.8575
 30
0.0
 11
1099.904
 21
51.438833
 31
0.0
  0
INSERT
  8
4
  6
CONTINUOUS
 62
     1
  5
201
  2
1SPT
 10
1125.238083
 20
39.918417
 30
0.0
 41
240.0
 42
240.0
 50
76.80049
210
0.0
220
0.0
230
1.0
  0
LINE
  8
1
  6
CONTINUOUS
 62
     7
  5
202
 10
1126.1895
 20
42.5035
 30
0.0
 11
1127.647833
 21
48.8765
 31
0.0
  0
POLYLINE
  8
1
  6
CONTINUOUS
 62
     7
  5
203
 66
     1
 10
0.0
 20
0.0
 30
0.0
  0
VERTEX
  8
1
  6
CONTINUOUS
 62
     7
  5
204
 10
1115.447833
 20
65.201
 30
0.0
  0
VERTEX
  8
1
  6
CONTINUOUS
 62
     7
  5
205
 10
1120.439583
 20
57.71225
 30
0.0
  0
VERTEX
  8
1
  6
CONTINUOUS
 62
     7
  5
206
 10
1112.950833
 20
52.720417
 30
0.0
  0
VERTEX
  8
1
  6
CONTINUOUS
 62
     7
  5
207
 10
1107.959
 20
60.20925
 30
0.0
  0
VERTEX
  8
1
  6
CONTINUOUS
 62
     7
  5
208
 10
1115.447833
 20
65.201
 30
0.0
  0
SEQEND
  8
1
  6
CONTINUOUS
 62
     7
  5
209
  0
TEXT
  8
1
  6
CONTINUOUS
 62
     7
  5
20A
 10
1125.600667
 20
54.497
 30
0.0
 40
1.0
  1
M.P.H.
 50
78.498842
  7
MONOTXT
210
0.0
220
0.0
230
1.0
  0
POLYLINE
  8
1
  6
CONTINUOUS
 62
     7
  5
20B
 66
     1
 10
0.0
 20
0.0
 30
0.0
  0
VERTEX
  8
1
  6
CONTINUOUS
 62
     7
  5
20C
 10
1127.087917
 20
58.99125
 30
0.0
  0
VERTEX
  8
1
  6
CONTINUOUS
 62
     7
  5
20D
 10
1126.058
 20
53.84325
 30
0.0
  0
VERTEX
  8
1
  6
CONTINUOUS
 62
     7
  5
20E
 10
1120.91
 20
54.87325
 30
0.0
  0
VERTEX
  8
1
  6
CONTINUOUS
 62
     7
  5
20F
 10
1121.939917
 20
60.021167
 30
0.0
  0
VERTEX
  8
1
  6
CONTINUOUS
 62
     7
  5
210
 10
1127.087917
 20
58.99125
 30
0.0
  0
SEQEND
  8
1
  6
CONTINUOUS
 62
     7
  5
211
  0
INSERT
  8
1
  6
CONTINUOUS
 62
     1
  5
212
  2
LDR
 10
1127.424667
 20
47.901667
 30
0.0
 41
239.999998
 42
239.999998
 50
356.866544
210
0.0
220
0.0
230
1.0
  0
INSERT
  8
1
  6
CONTINUOUS
 62
     1
  5
213
  2
LDR
 10
1099.6395
 20
50.282667
 30
0.0
 41
240.000002
 42
240.000002
 50
173.338011
210
0.0
220
0.0
230
1.0
  0
POLYLINE
  8
1
  6
CONTINUOUS
 62
     7
  5
214
 66
     1
 10
0.0
 20
0.0
 30
0.0
  0
VERTEX
  8
1
  6
CONTINUOUS
 62
     7
  5
215
 10
1113.211167
 20
-95.19575
 30
0.0
  0
VERTEX
  8
1
  6
CONTINUOUS
 62
     7
  5
216
 10
1119.60275
 20
-101.531833
 30
0.0
  0
VERTEX
  8
1
  6
CONTINUOUS
 62
     7
  5
217
 10
1113.266667
 20
-107.9235
 30
0.0
  0
VERTEX
  8
1
  6
CONTINUOUS
 62
     7
  5
218
 10
1106.874917
 20
-101.587333
 30
0.0
  0
VERTEX
  8
1
  6
CONTINUOUS
 62
     7
  5
219
 10
1113.211167
 20
-95.19575
 30
0.0
  0
SEQEND
  8
1
  6
CONTINUOUS
 62
     7
  5
21A
  0
INSERT
  8
4
  6
CONTINUOUS
 62
     1
  5
21B
  2
1SPT
 10
1112.936333
 20
-113.985167
 30
0.0
 41
240.0
 42
240.0
 50
89.540432
210
0.0
220
0.0
230
1.0
  0
TEXT
  8
1
  6
CONTINUOUS
 62
     7
  5
21C
 10
1125.303583
 20
-103.64725
 30
0.0
 40
1.0
  1
M.P.H.
 50
90.062486
  7
MONOTXT
210
0.0
220
0.0
230
1.0
  0
POLYLINE
  8
1
  6
CONTINUOUS
 62
     7
  5
21D
 66
     1
 10
0.0
 20
0.0
 30
0.0
  0
VERTEX
  8
1
  6
CONTINUOUS
 62
     7
  5
21E
 10
1125.85975
 20
-98.946083
 30
0.0
  0
VERTEX
  8
1
  6
CONTINUOUS
 62
     7
  5
21F
 10
1125.882667
 20
-104.196083
 30
0.0
  0
VERTEX
  8
1
  6
CONTINUOUS
 62
     7
  5
220
 10
1120.632667
 20
-104.218917
 30
0.0
  0
VERTEX
  8
1
  6
CONTINUOUS
 62
     7
  5
221
 10
1120.60975
 20
-98.969
 30
0.0
  0
VERTEX
  8
1
  6
CONTINUOUS
 62
     7
  5
222
 10
1125.85975
 20
-98.946083
 30
0.0
  0
SEQEND
  8
1
  6
CONTINUOUS
 62
     7
  5
223
  0
ARC
  8
1
  6
DASHED
 62
     1
  5
224
 10
1105.736758
 20
-76.141886
 30
0.0
 40
44.675712
 50
259.712086
 51
273.542008
210
0.0
220
0.0
230
1.0
  0
ARC
  8
1
  6
CONTINUOUS
 62
     1
  5
225
 10
1105.736758
 20
-76.141886
 30
0.0
 40
44.675712
 50
194.568619
 51
259.049133
210
0.0
220
0.0
230
1.0
  0
LINE
  8
1
  6
CONTINUOUS
 62
     7
  5
226
 10
1097.757917
 20
-115.040083
 30
0.0
 11
1097.757917
 21
-109.099333
 31
0.0
  0
LINE
  8
1
  6
CONTINUOUS
 62
     7
  5
227
 10
1113.349167
 20
-111.388417
 30
0.0
 11
1113.349167
 21
-109.099333
 31
0.0
  0
POINT
  8
1
  6
CONTINUOUS
 62
     7
  5
228
 10
1113.052667
 20
-110.150083
 30
0.0
  0
INSERT
  8
1
  6
CONTINUOUS
 62
     1
  5
229
  2
LDR
 10
1097.757917
 20
-110.099333
 30
0.0
 41
240.0
 42
240.0
 50
179.809827
210
0.0
220
0.0
230
1.0
  0
INSERT
  8
1
  6
CONTINUOUS
 62
     1
  5
22A
  2
LDR
 10
1097.757917
 20
-110.099333
 30
0.0
 41
240.0
 42
240.0
 50
179.809827
210
0.0
220
0.0
230
1.0
  0
INSERT
  8
1
  6
CONTINUOUS
 62
     1
  5
22B
  2
LDR
 10
1113.349167
 20
-110.151083
 30
0.0
 41
240.0
 42
240.0
 50
359.809827
210
0.0
220
0.0
230
1.0
  0
INSERT
  8
1
  6
CONTINUOUS
 62
     1
  5
22C
  2
LDR
 10
1113.349167
 20
-110.151083
 30
0.0
 41
240.0
 42
240.0
 50
359.809827
210
0.0
220
0.0
230
1.0
  0
POLYLINE
  8
1
  6
CONTINUOUS
 62
     7
  5
22D
 66
     1
 10
0.0
 20
0.0
 30
0.0
 70
     1
  0
VERTEX
  8
1
  6
CONTINUOUS
 62
     7
  5
22E
 10
1069.6
 20
-113.379417
 30
0.0
  0
VERTEX
  8
1
  6
CONTINUOUS
 62
     7
  5
22F
 10
1053.045
 20
-113.39575
 30
0.0
  0
VERTEX
  8
1
  6
CONTINUOUS
 62
     7
  5
230
 10
1053.0525
 20
-120.9415
 30
0.0
  0
VERTEX
  8
1
  6
CONTINUOUS
 62
     7
  5
231
 10
1069.6075
 20
-120.925083
 30
0.0
  0
SEQEND
  8
1
  6
CONTINUOUS
 62
     7
  5
232
  0
POLYLINE
  8
1
  6
CONTINUOUS
 62
     7
  5
233
 66
     1
 10
0.0
 20
0.0
 30
0.0
 70
     1
  0
VERTEX
  8
1
  6
CONTINUOUS
 62
     7
  5
234
 10
1070.254167
 20
-121.321333
 30
0.0
  0
VERTEX
  8
1
  6
CONTINUOUS
 62
     7
  5
235
 10
1070.270583
 20
-137.876333
 30
0.0
  0
VERTEX
  8
1
  6
CONTINUOUS
 62
     7
  5
236
 10
1077.81625
 20
-137.86875
 30
0.0
  0
VERTEX
  8
1
  6
CONTINUOUS
 62
     7
  5
237
 10
1077.799833
 20
-121.313833
 30
0.0
  0
SEQEND
  8
1
  6
CONTINUOUS
 62
     7
  5
238
  0
INSERT
  8
1
  6
CONTINUOUS
 62
     1
  5
239
  2
ARO
 10
1068.382083
 20
-117.30375
 30
0.0
 41
240.000001
 42
-240.000001
 50
0.056735
210
0.0
220
0.0
230
1.0
  0
INSERT
  8
1
  6
CONTINUOUS
 62
     1
  5
23A
  2
2SPT
 10
1076.213
 20
-118.514833
 30
0.0
 41
240.000003
 42
-240.000003
 50
359.945119
210
0.0
220
0.0
230
1.0
  0
INSERT
  8
1
  6
CONTINUOUS
 62
     1
  5
23B
  2
2SPT
 10
1079.835417
 20
-121.083417
 30
0.0
 41
240.000003
 42
-240.000003
 50
269.945119
210
0.0
220
0.0
230
1.0
  0
INSERT
  8
1
  6
CONTINUOUS
 62
     1
  5
23C
  2
ARO
 10
1074.1785
 20
-122.53925
 30
0.0
 41
240.000001
 42
-240.000001
 50
90.056735
210
0.0
220
0.0
230
1.0
  0
POLYLINE
  8
1
  6
CONTINUOUS
 62
     7
  5
23D
 66
     1
 10
0.0
 20
0.0
 30
0.0
 70
     1
  0
VERTEX
  8
1
  6
CONTINUOUS
 62
     7
  5
23E
 10
1001.781333
 20
-38.639833
 30
0.0
  0
VERTEX
  8
1
  6
CONTINUOUS
 62
     7
  5
23F
 10
986.647917
 20
-31.928083
 30
0.0
  0
VERTEX
  8
1
  6
CONTINUOUS
 62
     7
  5
240
 10
983.588667
 20
-38.825833
 30
0.0
  0
VERTEX
  8
1
  6
CONTINUOUS
 62
     7
  5
241
 10
998.722167
 20
-45.537667
 30
0.0
  0
SEQEND
  8
1
  6
CONTINUOUS
 62
     7
  5
242
  0
INSERT
  8
1
  6
CONTINUOUS
 62
     1
  5
243
  2
ARO
 10
999.073917
 20
-41.730833
 30
0.0
 41
240.000003
 42
-240.000003
 50
336.082314
210
0.0
220
0.0
230
1.0
  0
INSERT
  8
1
  6
CONTINUOUS
 62
     1
  5
244
  2
2SPT
 10
1050.785833
 20
-55.022583
 30
0.0
 41
240.000001
 42
-240.000001
 50
184.495154
210
0.0
220
0.0
230
1.0
  0
INSERT
  8
1
  6
CONTINUOUS
 62
     1
  5
245
  2
2SPT
 10
994.609917
 20
-46.548667
 30
0.0
 41
240.000004
 42
-240.000004
 50
157.923049
210
0.0
220
0.0
230
1.0
  0
POLYLINE
  8
1
  6
CONTINUOUS
 62
     7
  5
246
 66
     1
 10
0.0
 20
0.0
 30
0.0
 70
     1
  0
VERTEX
  8
1
  6
CONTINUOUS
 62
     7
  5
247
 10
1045.338583
 20
-45.402833
 30
0.0
  0
VERTEX
  8
1
  6
CONTINUOUS
 62
     7
  5
248
 10
1061.818
 20
-43.822583
 30
0.0
  0
VERTEX
  8
1
  6
CONTINUOUS
 62
     7
  5
249
 10
1062.53825
 20
-51.333917
 30
0.0
  0
VERTEX
  8
1
  6
CONTINUOUS
 62
     7
  5
24A
 10
1046.05875
 20
-52.914167
 30
0.0
  0
SEQEND
  8
1
  6
CONTINUOUS
 62
     7
  5
24B
  0
INSERT
  8
1
  6
CONTINUOUS
 62
     1
  5
24C
  2
ARO
 10
1046.92925
 20
-49.1915
 30
0.0
 41
240.000001
 42
240.000001
 50
185.477447
210
0.0
220
0.0
230
1.0
  0
POLYLINE
  8
1
  6
CONTINUOUS
 62
     7
  5
24D
 66
     1
 10
0.0
 20
0.0
 30
0.0
 70
     1
  0
VERTEX
  8
1
  6
CONTINUOUS
 62
     7
  5
24E
 10
946.0745
 20
-107.09025
 30
0.0
  0
VERTEX
  8
1
  6
CONTINUOUS
 62
     7
  5
24F
 10
961.207917
 20
-113.802
 30
0.0
  0
VERTEX
  8
1
  6
CONTINUOUS
 62
     7
  5
250
 10
964.267167
 20
-106.90425
 30
0.0
  0
VERTEX
  8
1
  6
CONTINUOUS
 62
     7
  5
251
 10
949.133667
 20
-100.192417
 30
0.0
  0
SEQEND
  8
1
  6
CONTINUOUS
 62
     7
  5
252
  0
POLYLINE
  8
1
  6
CONTINUOUS
 62
     7
  5
253
 66
     1
 10
0.0
 20
0.0
 30
0.0
  0
VERTEX
  8
1
  6
CONTINUOUS
 62
     7
  5
254
 10
834.644667
 20
-50.534333
 30
0.0
  0
VERTEX
  8
1
  6
CONTINUOUS
 62
     7
  5
255
 10
828.253083
 20
-44.19825
 30
0.0
  0
VERTEX
  8
1
  6
CONTINUOUS
 62
     7
  5
256
 10
834.589167
 20
-37.806583
 30
0.0
  0
VERTEX
  8
1
  6
CONTINUOUS
 62
     7
  5
257
 10
840.980917
 20
-44.14275
 30
0.0
  0
VERTEX
  8
1
  6
CONTINUOUS
 62
     7
  5
258
 10
834.644667
 20
-50.534333
 30
0.0
  0
SEQEND
  8
1
  6
CONTINUOUS
 62
     7
  5
259
  0
INSERT
  8
4
  6
CONTINUOUS
 62
     1
  5
25A
  2
1SPT
 10
834.9195
 20
-31.744917
 30
0.0
 41
240.0
 42
240.0
 50
269.540432
210
0.0
220
0.0
230
1.0
  0
TEXT
  8
1
  6
CONTINUOUS
 62
     7
  5
25B
 10
822.55225
 20
-42.082833
 30
0.0
 40
1.0
  1
M.P.H.
 50
270.062486
  7
MONOTXT
210
0.0
220
0.0
230
1.0
  0
POLYLINE
  8
1
  6
CONTINUOUS
 62
     7
  5
25C
 66
     1
 10
0.0
 20
0.0
 30
0.0
  0
VERTEX
  8
1
  6
CONTINUOUS
 62
     7
  5
25D
 10
821.996083
 20
-46.784
 30
0.0
  0
VERTEX
  8
1
  6
CONTINUOUS
 62
     7
  5
25E
 10
821.973167
 20
-41.534
 30
0.0
  0
VERTEX
  8
1
  6
CONTINUOUS
 62
     7
  5
25F
 10
827.223167
 20
-41.511167
 30
0.0
  0
VERTEX
  8
1
  6
CONTINUOUS
 62
     7
  5
260
 10
827.246083
 20
-46.761083
 30
0.0
  0
VERTEX
  8
1
  6
CONTINUOUS
 62
     7
  5
261
 10
821.996083
 20
-46.784
 30
0.0
  0
SEQEND
  8
1
  6
CONTINUOUS
 62
     7
  5
262
  0
LINE
  8
1
  6
CONTINUOUS
 62
     7
  5
263
 10
850.097917
 20
-30.69
 30
0.0
 11
850.097917
 21
-36.63075
 31
0.0
  0
LINE
  8
1
  6
CONTINUOUS
 62
     7
  5
264
 10
834.506667
 20
-34.341667
 30
0.0
 11
834.506667
 21
-36.63075
 31
0.0
  0
INSERT
  8
1
  6
CONTINUOUS
 62
     1
  5
265
  2
LDR
 10
850.097917
 20
-35.63075
 30
0.0
 41
240.0
 42
240.0
 50
359.809827
210
0.0
220
0.0
230
1.0
  0
INSERT
  8
1
  6
CONTINUOUS
 62
     1
  5
266
  2
LDR
 10
850.097917
 20
-35.63075
 30
0.0
 41
240.0
 42
240.0
 50
359.809827
210
0.0
220
0.0
230
1.0
  0
INSERT
  8
1
  6
CONTINUOUS
 62
     1
  5
267
  2
LDR
 10
834.506667
 20
-35.579
 30
0.0
 41
240.0
 42
240.0
 50
179.809827
210
0.0
220
0.0
230
1.0
  0
INSERT
  8
1
  6
CONTINUOUS
 62
     1
  5
268
  2
LDR
 10
834.506667
 20
-35.579
 30
0.0
 41
240.0
 42
240.0
 50
179.809827
210
0.0
220
0.0
230
1.0
  0
POLYLINE
  8
1
  6
CONTINUOUS
 62
     7
  5
269
 66
     1
 10
0.0
 20
0.0
 30
0.0
 70
     1
  0
VERTEX
  8
1
  6
CONTINUOUS
 62
     7
  5
26A
 10
878.255833
 20
-32.350667
 30
0.0
  0
VERTEX
  8
1
  6
CONTINUOUS
 62
     7
  5
26B
 10
894.810833
 20
-32.334333
 30
0.0
  0
VERTEX
  8
1
  6
CONTINUOUS
 62
     7
  5
26C
 10
894.803333
 20
-24.788583
 30
0.0
  0
VERTEX
  8
1
  6
CONTINUOUS
 62
     7
  5
26D
 10
878.248333
 20
-24.805
 30
0.0
  0
SEQEND
  8
1
  6
CONTINUOUS
 62
     7
  5
26E
  0
POLYLINE
  8
1
  6
CONTINUOUS
 62
     7
  5
26F
 66
     1
 10
0.0
 20
0.0
 30
0.0
 70
     1
  0
VERTEX
  8
1
  6
CONTINUOUS
 62
     7
  5
270
 10
877.601667
 20
-24.40875
 30
0.0
  0
VERTEX
  8
1
  6
CONTINUOUS
 62
     7
  5
271
 10
877.58525
 20
-7.85375
 30
0.0
  0
VERTEX
  8
1
  6
CONTINUOUS
 62
     7
  5
272
 10
870.039583
 20
-7.861333
 30
0.0
  0
VERTEX
  8
1
  6
CONTINUOUS
 62
     7
  5
273
 10
870.056
 20
-24.41625
 30
0.0
  0
SEQEND
  8
1
  6
CONTINUOUS
 62
     7
  5
274
  0
INSERT
  8
1
  6
CONTINUOUS
 62
     1
  5
275
  2
ARO
 10
879.47375
 20
-28.426333
 30
0.0
 41
240.000001
 42
-240.000001
 50
180.056735
210
0.0
220
0.0
230
1.0
  0
INSERT
  8
1
  6
CONTINUOUS
 62
     1
  5
276
  2
2SPT
 10
871.642833
 20
-27.21525
 30
0.0
 41
240.000003
 42
-240.000003
 50
179.945119
210
0.0
220
0.0
230
1.0
  0
INSERT
  8
1
  6
CONTINUOUS
 62
     1
  5
277
  2
2SPT
 10
868.020417
 20
-24.646667
 30
0.0
 41
240.000003
 42
-240.000003
 50
89.945119
210
0.0
220
0.0
230
1.0
  0
INSERT
  8
1
  6
CONTINUOUS
 62
     1
  5
278
  2
ARO
 10
873.677333
 20
-23.190833
 30
0.0
 41
240.000001
 42
-240.000001
 50
270.056735
210
0.0
220
0.0
230
1.0
  0
INSERT
  8
1
  6
CONTINUOUS
 62
     1
  5
279
  2
ARO
 10
948.781917
 20
-103.99925
 30
0.0
 41
240.000003
 42
-240.000003
 50
156.082314
210
0.0
220
0.0
230
1.0
  0
INSERT
  8
1
  6
CONTINUOUS
 62
     1
  5
27A
  2
2SPT
 10
897.07
 20
-90.7075
 30
0.0
 41
240.000001
 42
-240.000001
 50
4.495154
210
0.0
220
0.0
230
1.0
  0
INSERT
  8
1
  6
CONTINUOUS
 62
     1
  5
27B
  2
2SPT
 10
953.245917
 20
-99.181417
 30
0.0
 41
240.000004
 42
-240.000004
 50
337.923049
210
0.0
220
0.0
230
1.0
  0
POLYLINE
  8
1
  6
CONTINUOUS
 62
     7
  5
27C
 66
     1
 10
0.0
 20
0.0
 30
0.0
 70
     1
  0
VERTEX
  8
1
  6
CONTINUOUS
 62
     7
  5
27D
 10
902.51725
 20
-100.32725
 30
0.0
  0
VERTEX
  8
1
  6
CONTINUOUS
 62
     7
  5
27E
 10
886.037833
 20
-101.9075
 30
0.0
  0
VERTEX
  8
1
  6
CONTINUOUS
 62
     7
  5
27F
 10
885.317583
 20
-94.396167
 30
0.0
  0
VERTEX
  8
1
  6
CONTINUOUS
 62
     7
  5
280
 10
901.797083
 20
-92.815917
 30
0.0
  0
SEQEND
  8
1
  6
CONTINUOUS
 62
     7
  5
281
  0
INSERT
  8
1
  6
CONTINUOUS
 62
     1
  5
282
  2
ARO
 10
900.926583
 20
-96.538583
 30
0.0
 41
240.000001
 42
240.000001
 50
5.477447
210
0.0
220
0.0
230
1.0
  0
ARC
  8
1
  6
DASHED
 62
     1
  5
283
 10
841.143909
 20
-68.370947
 30
0.0
 40
44.675712
 50
79.712086
 51
93.542008
210
0.0
220
0.0
230
1.0
  0
LINE
  8
1
  6
DASHED
 62
     1
  5
284
 10
822.202583
 20
-23.862667
 30
0.0
 11
838.383833
 21
-23.786167
 31
0.0
  0
LINE
  8
1
  6
CONTINUOUS
 62
     1
  5
285
 10
966.2975
 20
-70.81225
 30
0.0
 11
969.481667
 21
-73.956
 31
0.0
  0
LINE
  8
1
  6
CONTINUOUS
 62
     1
  5
286
 10
972.681417
 20
-77.114833
 30
0.0
 11
975.865833
 21
-80.258417
 31
0.0
  0
LINE
  8
1
  6
CONTINUOUS
 62
     1
  5
287
 10
969.481667
 20
-73.956
 30
0.0
 11
971.871667
 21
-72.901583
 31
0.0
  0
LINE
  8
1
  6
CONTINUOUS
 62
     1
  5
288
 10
971.871667
 20
-72.901583
 30
0.0
 11
970.137167
 21
-78.167417
 31
0.0
  0
LINE
  8
1
  6
CONTINUOUS
 62
     1
  5
289
 10
970.137167
 20
-78.167417
 30
0.0
 11
972.681417
 21
-77.114833
 31
0.0
  0
LINE
  8
1
  6
CONTINUOUS
 62
     1
  5
28A
 10
970.793833
 20
-65.441667
 30
0.0
 11
973.978
 21
-68.585417
 31
0.0
  0
LINE
  8
1
  6
CONTINUOUS
 62
     1
  5
28B
 10
977.17775
 20
-71.74425
 30
0.0
 11
980.362167
 21
-74.887833
 31
0.0
  0
LINE
  8
1
  6
CONTINUOUS
 62
     1
  5
28C
 10
973.978
 20
-68.585417
 30
0.0
 11
976.368
 21
-67.531
 31
0.0
  0
LINE
  8
1
  6
CONTINUOUS
 62
     1
  5
28D
 10
976.368
 20
-67.531
 30
0.0
 11
974.6335
 21
-72.796833
 31
0.0
  0
LINE
  8
1
  6
CONTINUOUS
 62
     1
  5
28E
 10
974.6335
 20
-72.796833
 30
0.0
 11
977.17775
 21
-71.74425
 31
0.0
  0
ARC
  8
1
  6
DASHED
 62
     1
  5
28F
 10
671.0758
 20
-124.295298
 30
0.0
 40
81.743964
 50
83.099611
 51
94.857689
210
0.0
220
0.0
230
1.0
  0
ARC
  8
1
  6
CONTINUOUS
 62
     1
  5
290
 10
671.0758
 20
-124.295298
 30
0.0
 40
81.743964
 50
69.337047
 51
82.909714
210
0.0
220
0.0
230
1.0
  0
ARC
  8
1
  6
DASHED
 62
     1
  5
291
 10
796.6522
 20
-27.090369
 30
0.0
 40
81.743964
 50
263.175533
 51
274.857689
210
0.0
220
0.0
230
1.0
  0
ARC
  8
1
  6
CONTINUOUS
 62
     1
  5
292
 10
796.457367
 20
-20.288535
 30
0.0
 40
88.493964
 50
249.337047
 51
263.655142
210
0.0
220
0.0
230
1.0
  0
POLYLINE
  8
1
  6
CONTINUOUS
 62
     7
  5
293
 66
     1
 10
0.0
 20
0.0
 30
0.0
  0
VERTEX
  8
1
  6
CONTINUOUS
 62
     7
  5
294
 10
670.269417
 20
-66.639083
 30
0.0
  0
VERTEX
  8
1
  6
CONTINUOUS
 62
     7
  5
295
 10
663.877833
 20
-60.303
 30
0.0
  0
VERTEX
  8
1
  6
CONTINUOUS
 62
     7
  5
296
 10
670.213917
 20
-53.911333
 30
0.0
  0
VERTEX
  8
1
  6
CONTINUOUS
 62
     7
  5
297
 10
676.605667
 20
-60.2475
 30
0.0
  0
VERTEX
  8
1
  6
CONTINUOUS
 62
     7
  5
298
 10
670.269417
 20
-66.639083
 30
0.0
  0
SEQEND
  8
1
  6
CONTINUOUS
 62
     7
  5
299
  0
INSERT
  8
4
  6
CONTINUOUS
 62
     1
  5
29A
  2
1SPT
 10
666.143583
 20
-48.65
 30
0.0
 41
240.0
 42
240.0
 50
269.540432
210
0.0
220
0.0
230
1.0
  0
TEXT
  8
1
  6
CONTINUOUS
 62
     7
  5
29B
 10
658.177
 20
-58.187583
 30
0.0
 40
1.0
  1
M.P.H.
 50
270.062486
  7
MONOTXT
210
0.0
220
0.0
230
1.0
  0
POLYLINE
  8
1
  6
CONTINUOUS
 62
     7
  5
29C
 66
     1
 10
0.0
 20
0.0
 30
0.0
  0
VERTEX
  8
1
  6
CONTINUOUS
 62
     7
  5
29D
 10
657.620833
 20
-62.88875
 30
0.0
  0
VERTEX
  8
1
  6
CONTINUOUS
 62
     7
  5
29E
 10
657.597917
 20
-57.63875
 30
0.0
  0
VERTEX
  8
1
  6
CONTINUOUS
 62
     7
  5
29F
 10
662.847917
 20
-57.615917
 30
0.0
  0
VERTEX
  8
1
  6
CONTINUOUS
 62
     7
  5
2A0
 10
662.870833
 20
-62.865833
 30
0.0
  0
VERTEX
  8
1
  6
CONTINUOUS
 62
     7
  5
2A1
 10
657.620833
 20
-62.88875
 30
0.0
  0
SEQEND
  8
1
  6
CONTINUOUS
 62
     7
  5
2A2
  0
LINE
  8
1
  6
CONTINUOUS
 62
     7
  5
2A3
 10
681.322
 20
-47.595083
 30
0.0
 11
681.322
 21
-53.535833
 31
0.0
  0
LINE
  8
1
  6
CONTINUOUS
 62
     7
  5
2A4
 10
665.73075
 20
-51.24675
 30
0.0
 11
665.73075
 21
-53.535833
 31
0.0
  0
INSERT
  8
1
  6
CONTINUOUS
 62
     1
  5
2A5
  2
LDR
 10
681.322
 20
-52.535833
 30
0.0
 41
240.0
 42
240.0
 50
359.809827
210
0.0
220
0.0
230
1.0
  0
INSERT
  8
1
  6
CONTINUOUS
 62
     1
  5
2A6
  2
LDR
 10
681.322
 20
-52.535833
 30
0.0
 41
240.0
 42
240.0
 50
359.809827
210
0.0
220
0.0
230
1.0
  0
INSERT
  8
1
  6
CONTINUOUS
 62
     1
  5
2A7
  2
LDR
 10
665.73075
 20
-52.484083
 30
0.0
 41
240.0
 42
240.0
 50
179.809827
210
0.0
220
0.0
230
1.0
  0
INSERT
  8
1
  6
CONTINUOUS
 62
     1
  5
2A8
  2
LDR
 10
665.73075
 20
-52.484083
 30
0.0
 41
240.0
 42
240.0
 50
179.809827
210
0.0
220
0.0
230
1.0
  0
LINE
  8
1
  6
CONTINUOUS
 62
     7
  5
2A9
 10
786.846917
 20
-103.745667
 30
0.0
 11
786.846917
 21
-97.804917
 31
0.0
  0
POLYLINE
  8
1
  6
CONTINUOUS
 62
     7
  5
2AA
 66
     1
 10
0.0
 20
0.0
 30
0.0
  0
VERTEX
  8
1
  6
CONTINUOUS
 62
     7
  5
2AB
 10
797.8995
 20
-84.701667
 30
0.0
  0
VERTEX
  8
1
  6
CONTINUOUS
 62
     7
  5
2AC
 10
804.291083
 20
-91.03775
 30
0.0
  0
VERTEX
  8
1
  6
CONTINUOUS
 62
     7
  5
2AD
 10
797.955
 20
-97.429417
 30
0.0
  0
VERTEX
  8
1
  6
CONTINUOUS
 62
     7
  5
2AE
 10
791.56325
 20
-91.09325
 30
0.0
  0
VERTEX
  8
1
  6
CONTINUOUS
 62
     7
  5
2AF
 10
797.8995
 20
-84.701667
 30
0.0
  0
SEQEND
  8
1
  6
CONTINUOUS
 62
     7
  5
2B0
  0
INSERT
  8
4
  6
CONTINUOUS
 62
     1
  5
2B1
  2
1SPT
 10
802.025333
 20
-102.69075
 30
0.0
 41
240.0
 42
240.0
 50
89.540432
210
0.0
220
0.0
230
1.0
  0
TEXT
  8
1
  6
CONTINUOUS
 62
     7
  5
2B2
 10
809.991917
 20
-93.153167
 30
0.0
 40
1.0
  1
M.P.H.
 50
90.062486
  7
MONOTXT
210
0.0
220
0.0
230
1.0
  0
POLYLINE
  8
1
  6
CONTINUOUS
 62
     7
  5
2B3
 66
     1
 10
0.0
 20
0.0
 30
0.0
  0
VERTEX
  8
1
  6
CONTINUOUS
 62
     7
  5
2B4
 10
810.548083
 20
-88.452
 30
0.0
  0
VERTEX
  8
1
  6
CONTINUOUS
 62
     7
  5
2B5
 10
810.571
 20
-93.702
 30
0.0
  0
VERTEX
  8
1
  6
CONTINUOUS
 62
     7
  5
2B6
 10
805.321
 20
-93.724833
 30
0.0
  0
VERTEX
  8
1
  6
CONTINUOUS
 62
     7
  5
2B7
 10
805.298083
 20
-88.474917
 30
0.0
  0
VERTEX
  8
1
  6
CONTINUOUS
 62
     7
  5
2B8
 10
810.548083
 20
-88.452
 30
0.0
  0
SEQEND
  8
1
  6
CONTINUOUS
 62
     7
  5
2B9
  0
LINE
  8
1
  6
CONTINUOUS
 62
     7
  5
2BA
 10
802.438167
 20
-100.094
 30
0.0
 11
802.438167
 21
-97.804917
 31
0.0
  0
INSERT
  8
1
  6
CONTINUOUS
 62
     1
  5
2BB
  2
LDR
 10
786.846917
 20
-98.804917
 30
0.0
 41
240.0
 42
240.0
 50
179.809827
210
0.0
220
0.0
230
1.0
  0
INSERT
  8
1
  6
CONTINUOUS
 62
     1
  5
2BC
  2
LDR
 10
786.846917
 20
-98.804917
 30
0.0
 41
240.0
 42
240.0
 50
179.809827
210
0.0
220
0.0
230
1.0
  0
INSERT
  8
1
  6
CONTINUOUS
 62
     1
  5
2BD
  2
LDR
 10
802.438167
 20
-98.856667
 30
0.0
 41
240.0
 42
240.0
 50
359.809827
210
0.0
220
0.0
230
1.0
  0
INSERT
  8
1
  6
CONTINUOUS
 62
     1
  5
2BE
  2
LDR
 10
802.438167
 20
-98.856667
 30
0.0
 41
240.0
 42
240.0
 50
359.809827
210
0.0
220
0.0
230
1.0
  0
ARC
  8
1
  6
DASHED
 62
     1
  5
2BF
 10
573.684941
 20
-183.200055
 30
0.0
 40
121.168751
 50
106.655131
 51
125.842761
210
0.0
220
0.0
230
1.0
  0
ARC
  8
1
  6
CONTINUOUS
 62
     1
  5
2C0
 10
573.684941
 20
-183.200055
 30
0.0
 40
121.168751
 50
54.157239
 51
106.629706
210
0.0
220
0.0
230
1.0
  0
ARC
  8
1
  6
DASHED
 62
     1
  5
2C1
 10
573.362892
 20
-183.645888
 30
0.0
 40
121.168751
 50
54.157239
 51
73.344869
210
0.0
220
0.0
230
1.0
  0
INSERT
  8
4
  6
CONTINUOUS
 62
     1
  5
2C2
  2
1SPT
 10
510.210167
 20
-87.956083
 30
0.0
 41
240.000002
 42
240.000002
 50
307.751766
210
0.0
220
0.0
230
1.0
  0
LINE
  8
1
  6
CONTINUOUS
 62
     7
  5
2C3
 10
511.455333
 20
-90.279333
 30
0.0
 11
516.4245
 21
-97.22525
 31
0.0
  0
LINE
  8
1
  6
CONTINUOUS
 62
     7
  5
2C4
 10
542.1225
 20
-71.9445
 30
0.0
 11
549.108667
 21
-82.813583
 31
0.0
  0
INSERT
  8
1
  6
CONTINUOUS
 62
     1
  5
2C5
  2
LDR
 10
548.568
 20
-81.972417
 30
0.0
 41
240.000002
 42
240.000002
 50
13.934997
210
0.0
220
0.0
230
1.0
  0
INSERT
  8
1
  6
CONTINUOUS
 62
     1
  5
2C6
  2
LDR
 10
548.568
 20
-81.972417
 30
0.0
 41
240.000002
 42
240.000002
 50
13.934997
210
0.0
220
0.0
230
1.0
  0
INSERT
  8
1
  6
CONTINUOUS
 62
     1
  5
2C7
  2
LDR
 10
515.84275
 20
-96.412
 30
0.0
 41
239.999999
 42
239.999999
 50
213.682537
210
0.0
220
0.0
230
1.0
  0
POLYLINE
  8
1
  6
CONTINUOUS
 62
     7
  5
2C8
 66
     1
 10
0.0
 20
0.0
 30
0.0
  0
VERTEX
  8
1
  6
CONTINUOUS
 62
     7
  5
2C9
 10
522.532917
 20
-109.781667
 30
0.0
  0
VERTEX
  8
1
  6
CONTINUOUS
 62
     7
  5
2CA
 10
514.051417
 20
-106.771167
 30
0.0
  0
VERTEX
  8
1
  6
CONTINUOUS
 62
     7
  5
2CB
 10
517.061917
 20
-98.289583
 30
0.0
  0
VERTEX
  8
1
  6
CONTINUOUS
 62
     7
  5
2CC
 10
525.543583
 20
-101.300167
 30
0.0
  0
VERTEX
  8
1
  6
CONTINUOUS
 62
     7
  5
2CD
 10
522.532917
 20
-109.781667
 30
0.0
  0
SEQEND
  8
1
  6
CONTINUOUS
 62
     7
  5
2CE
  0
TEXT
  8
1
  6
CONTINUOUS
 62
     7
  5
2CF
 10
507.9925
 20
-107.285167
 30
0.0
 40
1.0
  1
M.P.H.
 50
295.270081
  7
MONOTXT
210
0.0
220
0.0
230
1.0
  0
POLYLINE
  8
1
  6
CONTINUOUS
 62
     7
  5
2D0
 66
     1
 10
0.0
 20
0.0
 30
0.0
  0
VERTEX
  8
1
  6
CONTINUOUS
 62
     7
  5
2D1
 10
509.491583
 20
-111.7755
 30
0.0
  0
VERTEX
  8
1
  6
CONTINUOUS
 62
     7
  5
2D2
 10
507.234833
 20
-107.035167
 30
0.0
  0
VERTEX
  8
1
  6
CONTINUOUS
 62
     7
  5
2D3
 10
511.975167
 20
-104.778583
 30
0.0
  0
VERTEX
  8
1
  6
CONTINUOUS
 62
     7
  5
2D4
 10
514.231833
 20
-109.51875
 30
0.0
  0
VERTEX
  8
1
  6
CONTINUOUS
 62
     7
  5
2D5
 10
509.491583
 20
-111.7755
 30
0.0
  0
SEQEND
  8
1
  6
CONTINUOUS
 62
     7
  5
2D6
  0
POLYLINE
  8
1
  6
CONTINUOUS
 62
     1
  5
2D7
 66
     1
 10
0.0
 20
0.0
 30
0.0
  0
VERTEX
  8
1
  6
CONTINUOUS
 62
     1
  5
2D8
 10
522.142333
 20
-103.26175
 30
0.0
 42
0.388061
  0
VERTEX
  8
1
  6
CONTINUOUS
 62
     1
  5
2D9
 10
516.292411
 20
-103.357739
 30
0.0
  0
VERTEX
  8
1
  6
CONTINUOUS
 62
     1
  5
2DA
 10
516.292417
 20
-103.35775
 30
0.0
  0
VERTEX
  8
1
  6
CONTINUOUS
 62
     1
  5
2DB
 10
516.80375
 20
-104.431583
 30
0.0
  0
VERTEX
  8
1
  6
CONTINUOUS
 62
     1
  5
2DC
 10
516.803732
 20
-104.431546
 30
0.0
 42
-0.376988
  0
VERTEX
  8
1
  6
CONTINUOUS
 62
     1
  5
2DD
 10
521.015407
 20
-103.798171
 30
0.0
  0
VERTEX
  8
1
  6
CONTINUOUS
 62
     1
  5
2DE
 10
521.015417
 20
-103.798167
 30
0.0
  0
VERTEX
  8
1
  6
CONTINUOUS
 62
     1
  5
2DF
 10
520.22825
 20
-104.173
 30
0.0
  0
VERTEX
  8
1
  6
CONTINUOUS
 62
     1
  5
2E0
 10
523.00025
 20
-106.5525
 30
0.0
  0
VERTEX
  8
1
  6
CONTINUOUS
 62
     1
  5
2E1
 10
522.936833
 20
-102.883417
 30
0.0
  0
VERTEX
  8
1
  6
CONTINUOUS
 62
     1
  5
2E2
 10
522.142333
 20
-103.26175
 30
0.0
  0
SEQEND
  8
1
  6
CONTINUOUS
 62
     1
  5
2E3
  0
INSERT
  8
4
  6
CONTINUOUS
 62
     1
  5
2E4
  2
1SPT
 10
642.146083
 20
-76.503917
 30
0.0
 41
239.999999
 42
239.999999
 50
72.066997
210
0.0
220
0.0
230
1.0
  0
LINE
  8
1
  6
CONTINUOUS
 62
     7
  5
2E5
 10
643.363
 20
-74.165833
 30
0.0
 11
646.21475
 21
-66.37475
 31
0.0
  0
LINE
  8
1
  6
CONTINUOUS
 62
     7
  5
2E6
 10
609.383
 20
-62.82725
 30
0.0
 11
614.078083
 21
-51.741083
 31
0.0
  0
POLYLINE
  8
1
  6
CONTINUOUS
 62
     7
  5
2E7
 66
     1
 10
0.0
 20
0.0
 30
0.0
  0
VERTEX
  8
1
  6
CONTINUOUS
 62
     7
  5
2E8
 10
641.570167
 20
-48.471833
 30
0.0
  0
VERTEX
  8
1
  6
CONTINUOUS
 62
     7
  5
2E9
 10
643.865
 20
-57.17425
 30
0.0
  0
VERTEX
  8
1
  6
CONTINUOUS
 62
     7
  5
2EA
 10
635.162583
 20
-59.469167
 30
0.0
  0
VERTEX
  8
1
  6
CONTINUOUS
 62
     7
  5
2EB
 10
632.867667
 20
-50.766583
 30
0.0
  0
VERTEX
  8
1
  6
CONTINUOUS
 62
     7
  5
2EC
 10
641.570167
 20
-48.471833
 30
0.0
  0
SEQEND
  8
1
  6
CONTINUOUS
 62
     7
  5
2ED
  0
TEXT
  8
1
  6
CONTINUOUS
 62
     7
  5
2EE
 10
647.70525
 20
-61.888833
 30
0.0
 40
1.0
  1
M.P.H.
 50
59.585311
  7
MONOTXT
210
0.0
220
0.0
230
1.0
  0
POLYLINE
  8
1
  6
CONTINUOUS
 62
     7
  5
2EF
 66
     1
 10
0.0
 20
0.0
 30
0.0
  0
VERTEX
  8
1
  6
CONTINUOUS
 62
     7
  5
2F0
 10
650.569
 20
-58.11925
 30
0.0
  0
VERTEX
  8
1
  6
CONTINUOUS
 62
     7
  5
2F1
 10
647.925917
 20
-62.6555
 30
0.0
  0
VERTEX
  8
1
  6
CONTINUOUS
 62
     7
  5
2F2
 10
643.38975
 20
-60.0125
 30
0.0
  0
VERTEX
  8
1
  6
CONTINUOUS
 62
     7
  5
2F3
 10
646.032667
 20
-55.476333
 30
0.0
  0
VERTEX
  8
1
  6
CONTINUOUS
 62
     7
  5
2F4
 10
650.569
 20
-58.11925
 30
0.0
  0
SEQEND
  8
1
  6
CONTINUOUS
 62
     7
  5
2F5
  0
POLYLINE
  8
1
  6
CONTINUOUS
 62
     1
  5
2F6
 66
     1
 10
0.0
 20
0.0
 30
0.0
  0
VERTEX
  8
1
  6
CONTINUOUS
 62
     1
  5
2F7
 10
636.497118
 20
-52.979979
 30
0.0
 42
-0.388061
  0
VERTEX
  8
1
  6
CONTINUOUS
 62
     1
  5
2F8
 10
642.223675
 20
-54.178872
 30
0.0
  0
VERTEX
  8
1
  6
CONTINUOUS
 62
     1
  5
2F9
 10
642.22375
 20
-54.178833
 30
0.0
  0
VERTEX
  8
1
  6
CONTINUOUS
 62
     1
  5
2FA
 10
641.51875
 20
-55.136833
 30
0.0
  0
VERTEX
  8
1
  6
CONTINUOUS
 62
     1
  5
2FB
 10
641.518787
 20
-55.13681
 30
0.0
 42
0.376988
  0
VERTEX
  8
1
  6
CONTINUOUS
 62
     1
  5
2FC
 10
637.502479
 20
-53.719545
 30
0.0
  0
VERTEX
  8
1
  6
CONTINUOUS
 62
     1
  5
2FD
 10
637.5025
 20
-53.7195
 30
0.0
  0
VERTEX
  8
1
  6
CONTINUOUS
 62
     1
  5
2FE
 10
638.20475
 20
-54.23625
 30
0.0
  0
VERTEX
  8
1
  6
CONTINUOUS
 62
     1
  5
2FF
 10
635.03325
 20
-56.0495
 30
0.0
  0
VERTEX
  8
1
  6
CONTINUOUS
 62
     1
  5
300
 10
635.788333
 20
-52.458417
 30
0.0
  0
VERTEX
  8
1
  6
CONTINUOUS
 62
     1
  5
301
 10
636.497083
 20
-52.98
 30
0.0
  0
SEQEND
  8
1
  6
CONTINUOUS
 62
     1
  5
302
  0
INSERT
  8
1
  6
CONTINUOUS
 62
     1
  5
303
  2
LDR
 10
613.688167
 20
-52.661917
 30
0.0
 41
239.999997
 42
239.999997
 50
162.962403
210
0.0
220
0.0
230
1.0
  0
INSERT
  8
1
  6
CONTINUOUS
 62
     1
  5
304
  2
LDR
 10
613.688167
 20
-52.661917
 30
0.0
 41
239.999997
 42
239.999997
 50
162.962403
210
0.0
220
0.0
230
1.0
  0
INSERT
  8
1
  6
CONTINUOUS
 62
     1
  5
305
  2
LDR
 10
645.871083
 20
-67.313833
 30
0.0
 41
240.0
 42
240.0
 50
328.081016
210
0.0
220
0.0
230
1.0
  0
INSERT
  8
1
  6
CONTINUOUS
 62
     1
  5
306
  2
LDR
 10
645.871083
 20
-67.313833
 30
0.0
 41
240.0
 42
240.0
 50
328.081016
210
0.0
220
0.0
230
1.0
  0
TEXT
  8
1
  6
CONTINUOUS
 62
     7
  5
307
 10
523.468167
 20
52.0955
 30
0.0
 40
5.0
  1
*
 50
55.599072
  7
MONOTXT
 11
521.405406
 21
53.507951
 31
0.0
210
0.0
220
0.0
230
1.0
 73
     2
  0
ARC
  8
1
  6
CONTINUOUS
 62
     7
  5
308
 10
620.651454
 20
-14.449624
 30
0.0
 40
120.283032
 50
146.789764
 51
152.242044
210
0.0
220
0.0
230
1.0
  0
ARC
  8
1
  6
CONTINUOUS
 62
     7
  5
309
 10
620.651454
 20
-14.449624
 30
0.0
 40
120.283032
 50
138.956111
 51
143.490256
210
0.0
220
0.0
230
1.0
  0
TEXT
  8
1
  6
CONTINUOUS
 62
     7
  5
30A
 10
623.707
 20
69.09725
 30
0.0
 40
5.0
  1
*
 50
307.634681
  7
MONOTXT
 11
625.6868
 21
70.623812
 31
0.0
210
0.0
220
0.0
230
1.0
 73
     2
  0
ARC
  8
1
  6
CONTINUOUS
 62
     7
  5
30B
 10
530.432275
 20
-2.823947
 30
0.0
 40
120.283032
 50
38.82535
 51
44.277628
210
0.0
220
0.0
230
1.0
  0
ARC
  8
1
  6
CONTINUOUS
 62
     7
  5
30C
 10
530.432275
 20
-2.823947
 30
0.0
 40
120.283032
 50
30.991694
 51
35.525842
210
0.0
220
0.0
230
1.0
  0
TEXT
  8
1
  6
CONTINUOUS
 62
     7
  5
30D
 10
675.19525
 20
106.928917
 30
0.0
 40
5.0
  1
*
 50
354.584811
  7
MONOTXT
 11
675.431181
 21
109.417759
 31
0.0
210
0.0
220
0.0
230
1.0
 73
     2
  0
ARC
  8
1
  6
CONTINUOUS
 62
     7
  5
30E
 10
632.690261
 20
-341.458067
 30
0.0
 40
452.897145
 50
84.901081
 51
86.866544
210
0.0
220
0.0
230
1.0
  0
ARC
  8
1
  6
CONTINUOUS
 62
     7
  5
30F
 10
632.690261
 20
-341.458067
 30
0.0
 40
452.897145
 50
82.303069
 51
84.024494
210
0.0
220
0.0
230
1.0
  0
TEXT
  8
1
  6
CONTINUOUS
 62
     7
  5
310
 10
791.466583
 20
32.466417
 30
0.0
 40
5.0
  1
*
 50
354.584811
  7
MONOTXT
 11
791.702514
 21
34.955259
 31
0.0
210
0.0
220
0.0
230
1.0
 73
     2
  0
ARC
  8
1
  6
CONTINUOUS
 62
     7
  5
311
 10
834.443406
 20
485.831067
 30
0.0
 40
452.897145
 50
265.145128
 51
266.866544
210
0.0
220
0.0
230
1.0
  0
ARC
  8
1
  6
CONTINUOUS
 62
     7
  5
312
 10
834.443406
 20
485.831067
 30
0.0
 40
452.897145
 50
262.303069
 51
264.268542
210
0.0
220
0.0
230
1.0
  0
TEXT
  8
1
  6
CONTINUOUS
 62
     7
  5
313
 10
832.761333
 20
94.643417
 30
0.0
 40
5.0
  1
*
 50
354.772519
  7
MONOTXT
 11
832.989109
 21
97.133019
 31
0.0
210
0.0
220
0.0
230
1.0
 73
     2
  0
ARC
  8
1
  6
CONTINUOUS
 62
     7
  5
314
 10
791.725511
 20
-353.880484
 30
0.0
 40
452.897145
 50
85.088786
 51
86.866544
210
0.0
220
0.0
230
1.0
  0
ARC
  8
1
  6
CONTINUOUS
 62
     7
  5
315
 10
791.725511
 20
-353.880484
 30
0.0
 40
452.897145
 50
82.6785
 51
84.212206
210
0.0
220
0.0
230
1.0
  0
TEXT
  8
1
  6
CONTINUOUS
 62
     7
  5
316
 10
1113.300333
 20
46.387417
 30
0.0
 40
5.0
  1
*
 50
355.102275
  7
MONOTXT
 11
1113.513777
 21
48.878288
 31
0.0
210
0.0
220
0.0
230
1.0
 73
     2
  0
ARC
  8
1
  6
CONTINUOUS
 62
     7
  5
317
 10
1152.180906
 20
500.121734
 30
0.0
 40
452.897145
 50
265.662589
 51
266.866544
210
0.0
220
0.0
230
1.0
  0
ARC
  8
1
  6
CONTINUOUS
 62
     7
  5
318
 10
1152.180906
 20
500.121734
 30
0.0
 40
452.897145
 50
263.338011
 51
264.786011
210
0.0
220
0.0
230
1.0
  0
TEXT
  8
1
  6
CONTINUOUS
 62
     7
  5
319
 10
1105.54525
 20
-112.62525
 30
0.0
 40
5.0
  1
*
 50
359.809825
  7
MONOTXT
 11
1105.553548
 21
-110.125264
 31
0.0
210
0.0
220
0.0
230
1.0
 73
     2
  0
LINE
  8
1
  6
CONTINUOUS
 62
     7
  5
31A
 10
1097.757917
 20
-110.099333
 30
0.0
 11
1103.053583
 21
-110.116917
 31
0.0
  0
LINE
  8
1
  6
CONTINUOUS
 62
     7
  5
31B
 10
1109.982667
 20
-110.139917
 30
0.0
 11
1113.349167
 21
-110.151083
 31
0.0
  0
TEXT
  8
1
  6
CONTINUOUS
 62
     7
  5
31C
 10
842.294
 20
-38.104917
 30
0.0
 40
5.0
  1
*
 50
359.809825
  7
MONOTXT
 11
842.302298
 21
-35.60493
 31
0.0
210
0.0
220
0.0
230
1.0
 73
     2
  0
LINE
  8
1
  6
CONTINUOUS
 62
     7
  5
31D
 10
850.097917
 20
-35.63075
 30
0.0
 11
846.731417
 21
-35.619583
 31
0.0
  0
LINE
  8
1
  6
CONTINUOUS
 62
     7
  5
31E
 10
839.802333
 20
-35.596583
 30
0.0
 11
834.506667
 21
-35.579
 31
0.0
  0
TEXT
  8
1
  6
CONTINUOUS
 62
     7
  5
31F
 10
794.63425
 20
-101.330833
 30
0.0
 40
5.0
  1
*
 50
359.809825
  7
MONOTXT
 11
794.642548
 21
-98.830847
 31
0.0
210
0.0
220
0.0
230
1.0
 73
     2
  0
LINE
  8
1
  6
CONTINUOUS
 62
     7
  5
320
 10
786.846917
 20
-98.804917
 30
0.0
 11
792.142583
 21
-98.8225
 31
0.0
  0
LINE
  8
1
  6
CONTINUOUS
 62
     7
  5
321
 10
799.071667
 20
-98.8455
 30
0.0
 11
802.438167
 21
-98.856667
 31
0.0
  0
TEXT
  8
1
  6
CONTINUOUS
 62
     7
  5
322
 10
673.518083
 20
-55.01
 30
0.0
 40
5.0
  1
*
 50
359.809825
  7
MONOTXT
 11
673.526381
 21
-52.510014
 31
0.0
210
0.0
220
0.0
230
1.0
 73
     2
  0
LINE
  8
1
  6
CONTINUOUS
 62
     7
  5
323
 10
681.322
 20
-52.535833
 30
0.0
 11
677.9555
 21
-52.524667
 31
0.0
  0
LINE
  8
1
  6
CONTINUOUS
 62
     7
  5
324
 10
671.026417
 20
-52.501667
 30
0.0
 11
665.73075
 21
-52.484083
 31
0.0
  0
TEXT
  8
1
  6
CONTINUOUS
 62
     7
  5
325
 10
629.220083
 20
-61.216917
 30
0.0
 40
5.0
  1
*
 50
335.521719
  7
MONOTXT
 11
630.255954
 21
-58.941621
 31
0.0
210
0.0
220
0.0
230
1.0
 73
     2
  0
ARC
  8
1
  6
CONTINUOUS
 62
     7
  5
326
 10
573.684941
 20
-183.200055
 30
0.0
 40
136.530033
 50
66.570719
 51
72.962403
210
0.0
220
0.0
230
1.0
  0
ARC
  8
1
  6
CONTINUOUS
 62
     7
  5
327
 10
573.684941
 20
-183.200055
 30
0.0
 40
136.530033
 50
58.081017
 51
63.663625
210
0.0
220
0.0
230
1.0
  0
TEXT
  8
1
  6
CONTINUOUS
 62
     7
  5
328
 10
532.591
 20
-90.066083
 30
0.0
 40
5.0
  1
*
 50
23.808756
  7
MONOTXT
 11
531.581787
 21
-87.778838
 31
0.0
210
0.0
220
0.0
230
1.0
 73
     2
  0
ARC
  8
1
  6
CONTINUOUS
 62
     7
  5
329
 10
573.684941
 20
-183.200055
 30
0.0
 40
104.297134
 50
115.181842
 51
123.682536
210
0.0
220
0.0
230
1.0
  0
ARC
  8
1
  6
CONTINUOUS
 62
     7
  5
32A
 10
573.684941
 20
-183.200055
 30
0.0
 40
104.297134
 50
103.934997
 51
111.377036
210
0.0
220
0.0
230
1.0
  0
TEXT
  8
1
  6
CONTINUOUS
 62
     7
  5
32B
 10
555.078
 20
67.399417
 30
0.0
 40
5.0
  1
*
  7
MONOTXT
210
0.0
220
0.0
230
1.0
  0
TEXT
  8
1
  6
CONTINUOUS
 62
     7
  5
32C
 10
556.736083
 20
112.69475
 30
0.0
 40
2.5
  1
W1-6
  7
MONOTXT
 72
     4
 11
560.840417
 21
113.94475
 31
0.0
210
0.0
220
0.0
230
1.0
  0
LINE
  8
1
  6
CONTINUOUS
 62
     7
  5
32D
 10
538.252083
 20
106.92525
 30
0.0
 11
555.321333
 21
113.4585
 31
0.0
  0
LINE
  8
1
  6
CONTINUOUS
 62
     7
  5
32E
 10
585.883083
 20
106.590583
 30
0.0
 11
566.663833
 21
113.296417
 31
0.0
  0
INSERT
  8
1
  6
CONTINUOUS
 62
     1
  5
32F
  2
LDR
 10
538.252083
 20
106.92525
 30
0.0
 41
240.000001
 42
240.000001
 50
200.944332
210
0.0
220
0.0
230
1.0
  0
INSERT
  8
1
  6
CONTINUOUS
 62
     1
  5
330
  2
LDR
 10
538.252083
 20
106.92525
 30
0.0
 41
240.000001
 42
240.000001
 50
200.944332
210
0.0
220
0.0
230
1.0
  0
INSERT
  8
1
  6
CONTINUOUS
 62
     1
  5
331
  2
LDR
 10
585.883083
 20
106.590583
 30
0.0
 41
240.0
 42
240.0
 50
340.76549
210
0.0
220
0.0
230
1.0
  0
TEXT
  8
1
  6
CONTINUOUS
 62
     7
  5
332
 10
527.792417
 20
34.22175
 30
0.0
 40
2.5
  1
W1-1
  7
MONOTXT
 72
     4
 11
531.414417
 21
35.47175
 31
0.0
210
0.0
220
0.0
230
1.0
  0
TEXT
  8
1
  6
CONTINUOUS
 62
     7
  5
333
 10
518.1525
 20
24.031417
 30
0.0
 40
2.5
  1
W13-1
  7
MONOTXT
 72
     4
 11
523.014667
 21
25.281417
 31
0.0
210
0.0
220
0.0
230
1.0
  0
TEXT
  8
1
  6
CONTINUOUS
 62
     7
  5
334
 10
506.074917
 20
17.953
 30
0.0
 40
2.5
  1
(30 OR LESS)
  7
MONOTXT
 72
     4
 11
519.529583
 21
19.203
 31
0.0
210
0.0
220
0.0
230
1.0
  0
TEXT
  8
1
  6
CONTINUOUS
 62
     7
  5
335
 10
559.59075
 20
65.538333
 30
0.0
 40
2.5
  1
SEE
  7
MONOTXT
 72
     4
 11
562.789583
 21
66.788333
 31
0.0
210
0.0
220
0.0
230
1.0
  0
TEXT
  8
1
  6
CONTINUOUS
 62
     7
  5
336
 10
548.724667
 20
61.038333
 30
0.0
 40
2.5
  1
ACCOMPANYING
  7
MONOTXT
 72
     4
 11
562.789583
 21
62.288333
 31
0.0
210
0.0
220
0.0
230
1.0
  0
TEXT
  8
1
  6
CONTINUOUS
 62
     7
  5
337
 10
556.992333
 20
56.538333
 30
0.0
 40
2.5
  1
CHART
  7
MONOTXT
 72
     4
 11
562.7895
 21
57.788333
 31
0.0
210
0.0
220
0.0
230
1.0
  0
TEXT
  8
1
  6
CONTINUOUS
 62
     7
  5
338
 10
635.392333
 20
52.457083
 30
0.0
 40
2.5
  1
W13-1
  7
MONOTXT
 72
     4
 11
640.2545
 21
53.707083
 31
0.0
210
0.0
220
0.0
230
1.0
  0
TEXT
  8
1
  6
CONTINUOUS
 62
     7
  5
339
 10
622.421167
 20
44.233333
 30
0.0
 40
2.5
  1
(30 OR LESS)
  7
MONOTXT
 72
     4
 11
635.875833
 21
45.483333
 31
0.0
210
0.0
220
0.0
230
1.0
  0
TEXT
  8
1
  6
CONTINUOUS
 62
     7
  5
33A
 10
634.309083
 20
75.16175
 30
0.0
 40
2.5
  1
W1-1
  7
MONOTXT
 72
     4
 11
637.931083
 21
76.41175
 31
0.0
210
0.0
220
0.0
230
1.0
  0
TEXT
  8
1
  6
CONTINUOUS
 62
     7
  5
33B
 10
761.5435
 20
81.985833
 30
0.0
 40
2.5
  1
SEE
  7
MONOTXT
 72
     4
 11
764.742333
 21
83.235833
 31
0.0
210
0.0
220
0.0
230
1.0
  0
TEXT
  8
1
  6
CONTINUOUS
 62
     7
  5
33C
 10
750.677417
 20
77.485833
 30
0.0
 40
2.5
  1
ACCOMPANYING
  7
MONOTXT
 72
     4
 11
764.742333
 21
78.735833
 31
0.0
210
0.0
220
0.0
230
1.0
  0
TEXT
  8
1
  6
CONTINUOUS
 62
     7
  5
33D
 10
758.945083
 20
72.985833
 30
0.0
 40
2.5
  1
CHART
  7
MONOTXT
 72
     4
 11
764.74225
 21
74.235833
 31
0.0
210
0.0
220
0.0
230
1.0
  0
TEXT
  8
1
  6
CONTINUOUS
 62
     7
  5
33E
 10
757.03075
 20
83.846917
 30
0.0
 40
5.0
  1
*
  7
MONOTXT
210
0.0
220
0.0
230
1.0
  0
TEXT
  8
1
  6
CONTINUOUS
 62
     7
  5
33F
 10
753.051
 20
-50.409
 30
0.0
 40
2.5
  1
SEE
  7
MONOTXT
 72
     4
 11
756.249833
 21
-49.159
 31
0.0
210
0.0
220
0.0
230
1.0
  0
TEXT
  8
1
  6
CONTINUOUS
 62
     7
  5
340
 10
742.184917
 20
-54.909
 30
0.0
 40
2.5
  1
ACCOMPANYING
  7
MONOTXT
 72
     4
 11
756.249833
 21
-53.659
 31
0.0
210
0.0
220
0.0
230
1.0
  0
TEXT
  8
1
  6
CONTINUOUS
 62
     7
  5
341
 10
750.452583
 20
-59.409
 30
0.0
 40
2.5
  1
CHART
  7
MONOTXT
 72
     4
 11
756.24975
 21
-58.159
 31
0.0
210
0.0
220
0.0
230
1.0
  0
TEXT
  8
1
  6
CONTINUOUS
 62
     7
  5
342
 10
748.53825
 20
-48.547917
 30
0.0
 40
5.0
  1
*
  7
MONOTXT
210
0.0
220
0.0
230
1.0
  0
TEXT
  8
1
  6
CONTINUOUS
 62
     7
  5
343
 10
670.59375
 20
92.503167
 30
0.0
 40
2.5
  1
W1-3
  7
MONOTXT
 72
     4
 11
674.757083
 21
93.753167
 31
0.0
210
0.0
220
0.0
230
1.0
  0
TEXT
  8
1
  6
CONTINUOUS
 62
     7
  5
344
 10
656.48125
 20
88.74875
 30
0.0
 40
2.5
  1
W13-1
  7
MONOTXT
 72
     4
 11
661.343417
 21
89.99875
 31
0.0
210
0.0
220
0.0
230
1.0
  0
TEXT
  8
1
  6
CONTINUOUS
 62
     7
  5
345
 10
659.058583
 20
81.59775
 30
0.0
 40
2.5
  1
(30 OR LESS)
  7
MONOTXT
 72
     4
 11
672.51325
 21
82.84775
 31
0.0
210
0.0
220
0.0
230
1.0
  0
TEXT
  8
1
  6
CONTINUOUS
 62
     7
  5
346
 10
738.314833
 20
129.14225
 30
0.0
 40
2.5
  1
W1-6
  7
MONOTXT
 72
     4
 11
742.419167
 21
130.39225
 31
0.0
210
0.0
220
0.0
230
1.0
  0
TEXT
  8
1
  6
CONTINUOUS
 62
     7
  5
347
 10
716.615167
 20
10.690167
 30
0.0
 40
2.5
  1
W1-6
  7
MONOTXT
 72
     4
 11
720.7195
 21
11.940167
 31
0.0
210
0.0
220
0.0
230
1.0
  0
TEXT
  8
1
  6
CONTINUOUS
 62
     7
  5
348
 10
802.187083
 20
57.0275
 30
0.0
 40
2.5
  1
W13-1
  7
MONOTXT
 72
     4
 11
807.04925
 21
58.2775
 31
0.0
210
0.0
220
0.0
230
1.0
  0
TEXT
  8
1
  6
CONTINUOUS
 62
     7
  5
349
 10
789.770917
 20
56.874667
 30
0.0
 40
2.5
  1
W1-3
  7
MONOTXT
 72
     4
 11
793.93425
 21
58.124667
 31
0.0
210
0.0
220
0.0
230
1.0
  0
TEXT
  8
1
  6
CONTINUOUS
 62
     7
  5
34A
 10
785.58375
 20
52.14925
 30
0.0
 40
2.5
  1
(30 OR LESS)
  7
MONOTXT
 72
     4
 11
799.038417
 21
53.39925
 31
0.0
210
0.0
220
0.0
230
1.0
  0
LINE
  8
1
  6
CONTINUOUS
 62
     7
  5
34B
 10
728.736667
 20
26.28775
 30
0.0
 11
726.31425
 21
12.487083
 31
0.0
  0
LINE
  8
1
  6
CONTINUOUS
 62
     7
  5
34C
 10
726.31425
 20
12.487083
 30
0.0
 11
739.986
 21
15.54425
 31
0.0
  0
INSERT
  8
1
  6
CONTINUOUS
 62
     1
  5
34D
  2
LDR
 10
728.736667
 20
26.28775
 30
0.0
 41
239.999998
 42
239.999998
 50
80.044351
210
0.0
220
0.0
230
1.0
  0
INSERT
  8
1
  6
CONTINUOUS
 62
     1
  5
34E
  2
LDR
 10
728.736667
 20
26.28775
 30
0.0
 41
239.999998
 42
239.999998
 50
80.044351
210
0.0
220
0.0
230
1.0
  0
INSERT
  8
1
  6
CONTINUOUS
 62
     1
  5
34F
  2
LDR
 10
739.986
 20
15.54425
 30
0.0
 41
239.999999
 42
239.999999
 50
12.604664
210
0.0
220
0.0
230
1.0
  0
LINE
  8
1
  6
CONTINUOUS
 62
     7
  5
350
 10
725.142167
 20
129.032583
 30
0.0
 11
737.698417
 21
130.49475
 31
0.0
  0
LINE
  8
1
  6
CONTINUOUS
 62
     7
  5
351
 10
737.698417
 20
130.49475
 30
0.0
 11
735.885667
 21
117.783333
 31
0.0
  0
INSERT
  8
1
  6
CONTINUOUS
 62
     1
  5
352
  2
LDR
 10
725.142167
 20
129.032583
 30
0.0
 41
240.0
 42
240.0
 50
186.642139
210
0.0
220
0.0
230
1.0
  0
INSERT
  8
1
  6
CONTINUOUS
 62
     1
  5
353
  2
LDR
 10
725.142167
 20
129.032583
 30
0.0
 41
240.0
 42
240.0
 50
186.642139
210
0.0
220
0.0
230
1.0
  0
INSERT
  8
1
  6
CONTINUOUS
 62
     1
  5
354
  2
LDR
 10
735.885667
 20
117.783333
 30
0.0
 41
240.000001
 42
240.000001
 50
261.883886
210
0.0
220
0.0
230
1.0
  0
TEXT
  8
1
  6
CONTINUOUS
 62
     7
  5
355
 10
831.278167
 20
79.072833
 30
0.0
 40
2.5
  1
W1-5
  7
MONOTXT
 72
     4
 11
835.4415
 21
80.322833
 31
0.0
210
0.0
220
0.0
230
1.0
  0
TEXT
  8
1
  6
CONTINUOUS
 62
     7
  5
356
 10
816.31325
 20
79.155583
 30
0.0
 40
2.5
  1
W13-1
  7
MONOTXT
 72
     4
 11
821.175417
 21
80.405583
 31
0.0
210
0.0
220
0.0
230
1.0
  0
TEXT
  8
1
  6
CONTINUOUS
 62
     7
  5
357
 10
1009.510417
 20
58.701083
 30
0.0
 40
2.5
  1
SEE
  7
MONOTXT
 72
     4
 11
1012.70925
 21
59.951083
 31
0.0
210
0.0
220
0.0
230
1.0
  0
TEXT
  8
1
  6
CONTINUOUS
 62
     7
  5
358
 10
998.644333
 20
54.201083
 30
0.0
 40
2.5
  1
ACCOMPANYING
  7
MONOTXT
 72
     4
 11
1012.70925
 21
55.451083
 31
0.0
210
0.0
220
0.0
230
1.0
  0
TEXT
  8
1
  6
CONTINUOUS
 62
     7
  5
359
 10
1006.912
 20
49.701083
 30
0.0
 40
2.5
  1
CHART
  7
MONOTXT
 72
     4
 11
1012.709167
 21
50.951083
 31
0.0
210
0.0
220
0.0
230
1.0
  0
TEXT
  8
1
  6
CONTINUOUS
 62
     7
  5
35A
 10
1004.997667
 20
60.562167
 30
0.0
 40
5.0
  1
*
  7
MONOTXT
210
0.0
220
0.0
230
1.0
  0
TEXT
  8
1
  6
CONTINUOUS
 62
     7
  5
35B
 10
1103.866417
 20
74.685417
 30
0.0
 40
2.5
  1
W1-5
  7
MONOTXT
 72
     4
 11
1108.02975
 21
75.935417
 31
0.0
210
0.0
220
0.0
230
1.0
  0
TEXT
  8
1
  6
CONTINUOUS
 62
     7
  5
35C
 10
1117.414
 20
74.602667
 30
0.0
 40
2.5
  1
W13-1
  7
MONOTXT
 72
     4
 11
1122.276167
 21
75.852667
 31
0.0
210
0.0
220
0.0
230
1.0
  0
TEXT
  8
1
  6
CONTINUOUS
 62
     7
  5
35D
 10
574.161417
 20
-92.968833
 30
0.0
 40
2.5
  1
SEE
  7
MONOTXT
 72
     4
 11
577.36025
 21
-91.718833
 31
0.0
210
0.0
220
0.0
230
1.0
  0
TEXT
  8
1
  6
CONTINUOUS
 62
     7
  5
35E
 10
563.295333
 20
-97.468833
 30
0.0
 40
2.5
  1
ACCOMPANYING
  7
MONOTXT
 72
     4
 11
577.36025
 21
-96.218833
 31
0.0
210
0.0
220
0.0
230
1.0
  0
TEXT
  8
1
  6
CONTINUOUS
 62
     7
  5
35F
 10
571.563
 20
-101.968833
 30
0.0
 40
2.5
  1
CHART
  7
MONOTXT
 72
     4
 11
577.360167
 21
-100.718833
 31
0.0
210
0.0
220
0.0
230
1.0
  0
TEXT
  8
1
  6
CONTINUOUS
 62
     7
  5
360
 10
569.648667
 20
-91.10775
 30
0.0
 40
5.0
  1
*
  7
MONOTXT
210
0.0
220
0.0
230
1.0
  0
TEXT
  8
1
  6
CONTINUOUS
 62
     7
  5
361
 10
625.191667
 20
-39.236583
 30
0.0
 40
2.5
  1
W1-2
  7
MONOTXT
 72
     4
 11
629.355
 21
-37.986583
 31
0.0
210
0.0
220
0.0
230
1.0
  0
TEXT
  8
1
  6
CONTINUOUS
 62
     7
  5
362
 10
638.73925
 20
-39.319333
 30
0.0
 40
2.5
  1
W13-1
  7
MONOTXT
 72
     4
 11
643.601417
 21
-38.069333
 31
0.0
210
0.0
220
0.0
230
1.0
  0
TEXT
  8
1
  6
CONTINUOUS
 62
     7
  5
363
 10
503.789
 20
-117.4765
 30
0.0
 40
2.5
  1
W13-1
  7
MONOTXT
 72
     4
 11
508.651167
 21
-116.2265
 31
0.0
210
0.0
220
0.0
230
1.0
  0
TEXT
  8
1
  6
CONTINUOUS
 62
     7
  5
364
 10
518.753917
 20
-117.55925
 30
0.0
 40
2.5
  1
W1-2
  7
MONOTXT
 72
     4
 11
522.91725
 21
-116.30925
 31
0.0
210
0.0
220
0.0
230
1.0
  0
TEXT
  8
1
  6
CONTINUOUS
 62
     7
  5
365
 10
798.948917
 20
-75.22575
 30
0.0
 40
2.5
  1
W13-1
  7
MONOTXT
 72
     4
 11
803.811083
 21
-73.97575
 31
0.0
210
0.0
220
0.0
230
1.0
  0
TEXT
  8
1
  6
CONTINUOUS
 62
     7
  5
366
 10
785.34225
 20
-75.143
 30
0.0
 40
2.5
  1
W1-4
  7
MONOTXT
 72
     4
 11
789.564667
 21
-73.893
 31
0.0
210
0.0
220
0.0
230
1.0
  0
TEXT
  8
1
  6
CONTINUOUS
 62
     7
  5
367
 10
670.667083
 20
-72.761833
 30
0.0
 40
2.5
  1
W1-4
  7
MONOTXT
 72
     4
 11
674.8895
 21
-71.511833
 31
0.0
210
0.0
220
0.0
230
1.0
  0
TEXT
  8
1
  6
CONTINUOUS
 62
     7
  5
368
 10
655.76125
 20
-72.679083
 30
0.0
 40
2.5
  1
W13-1
  7
MONOTXT
 72
     4
 11
660.623417
 21
-71.429083
 31
0.0
210
0.0
220
0.0
230
1.0
  0
TEXT
  8
1
  6
CONTINUOUS
 62
     7
  5
369
 10
886.82625
 20
-15.234667
 30
0.0
 40
2.5
  1
W1-6
  7
MONOTXT
 72
     4
 11
890.930583
 21
-13.984667
 31
0.0
210
0.0
220
0.0
230
1.0
  0
TEXT
  8
1
  6
CONTINUOUS
 62
     7
  5
36A
 10
918.217417
 20
-120.496917
 30
0.0
 40
2.5
  1
W1-6
  7
MONOTXT
 72
     4
 11
922.32175
 21
-119.246917
 31
0.0
210
0.0
220
0.0
230
1.0
  0
TEXT
  8
1
  6
CONTINUOUS
 62
     7
  5
36B
 10
1019.601
 20
-27.880917
 30
0.0
 40
2.5
  1
W1-6
  7
MONOTXT
 72
     4
 11
1023.705333
 21
-26.630917
 31
0.0
210
0.0
220
0.0
230
1.0
  0
TEXT
  8
1
  6
CONTINUOUS
 62
     7
  5
36C
 10
1048.810583
 20
-132.797333
 30
0.0
 40
2.5
  1
W1-6
  7
MONOTXT
 72
     4
 11
1052.914917
 21
-131.547333
 31
0.0
210
0.0
220
0.0
230
1.0
  0
TEXT
  8
1
  6
CONTINUOUS
 62
     7
  5
36D
 10
836.230167
 20
-56.234667
 30
0.0
 40
2.5
  1
W1-5
  7
MONOTXT
 72
     4
 11
840.3935
 21
-54.984667
 31
0.0
210
0.0
220
0.0
230
1.0
  0
TEXT
  8
1
  6
CONTINUOUS
 62
     7
  5
36E
 10
820.088083
 20
-62.774167
 30
0.0
 40
2.5
  1
(30 OR LESS)
  7
MONOTXT
 72
     4
 11
833.54275
 21
-61.524167
 31
0.0
210
0.0
220
0.0
230
1.0
  0
TEXT
  8
1
  6
CONTINUOUS
 62
     7
  5
36F
 10
821.26525
 20
-56.151917
 30
0.0
 40
2.5
  1
W13-1
  7
MONOTXT
 72
     4
 11
826.127417
 21
-54.901917
 31
0.0
210
0.0
220
0.0
230
1.0
  0
TEXT
  8
1
  6
CONTINUOUS
 62
     7
  5
370
 10
1102.394333
 20
-90.479333
 30
0.0
 40
2.5
  1
(30 OR LESS)
  7
MONOTXT
 72
     4
 11
1115.849
 21
-89.229333
 31
0.0
210
0.0
220
0.0
230
1.0
  0
TEXT
  8
1
  6
CONTINUOUS
 62
     7
  5
371
 10
1117.82775
 20
-83.939833
 30
0.0
 40
2.5
  1
W13-1
  7
MONOTXT
 72
     4
 11
1122.689917
 21
-82.689833
 31
0.0
210
0.0
220
0.0
230
1.0
  0
TEXT
  8
1
  6
CONTINUOUS
 62
     7
  5
372
 10
1104.280167
 20
-83.857083
 30
0.0
 40
2.5
  1
W1-5
  7
MONOTXT
 72
     4
 11
1108.4435
 21
-82.607083
 31
0.0
210
0.0
220
0.0
230
1.0
  0
TEXT
  8
1
  6
CONTINUOUS
 62
     7
  5
373
 10
1008.232917
 20
-77.211417
 30
0.0
 40
5.0
  1
*
  7
MONOTXT
210
0.0
220
0.0
230
1.0
  0
TEXT
  8
1
  6
CONTINUOUS
 62
     7
  5
374
 10
1012.745667
 20
-79.0725
 30
0.0
 40
2.5
  1
SEE
  7
MONOTXT
 72
     4
 11
1015.9445
 21
-77.8225
 31
0.0
210
0.0
220
0.0
230
1.0
  0
TEXT
  8
1
  6
CONTINUOUS
 62
     7
  5
375
 10
1001.879583
 20
-83.5725
 30
0.0
 40
2.5
  1
ACCOMPANYING
  7
MONOTXT
 72
     4
 11
1015.9445
 21
-82.3225
 31
0.0
210
0.0
220
0.0
230
1.0
  0
TEXT
  8
1
  6
CONTINUOUS
 62
     7
  5
376
 10
1010.14725
 20
-88.0725
 30
0.0
 40
2.5
  1
CHART
  7
MONOTXT
 72
     4
 11
1015.944417
 21
-86.8225
 31
0.0
210
0.0
220
0.0
230
1.0
  0
LINE
  8
1
  6
CONTINUOUS
 62
     7
  5
377
 10
877.5935
 20
-16.13125
 30
0.0
 11
886.19025
 21
-14.359833
 31
0.0
  0
LINE
  8
1
  6
CONTINUOUS
 62
     7
  5
378
 10
886.19025
 20
-14.359833
 30
0.0
 11
886.525833
 21
-24.796833
 31
0.0
  0
INSERT
  8
1
  6
CONTINUOUS
 62
     1
  5
379
  2
LDR
 10
877.5935
 20
-16.13125
 30
0.0
 41
239.999998
 42
239.999998
 50
191.643208
210
0.0
220
0.0
230
1.0
  0
INSERT
  8
1
  6
CONTINUOUS
 62
     1
  5
37A
  2
LDR
 10
877.5935
 20
-16.13125
 30
0.0
 41
239.999998
 42
239.999998
 50
191.643208
210
0.0
220
0.0
230
1.0
  0
INSERT
  8
1
  6
CONTINUOUS
 62
     1
  5
37B
  2
LDR
 10
886.525833
 20
-24.796833
 30
0.0
 41
240.0
 42
240.0
 50
271.84161
210
0.0
220
0.0
230
1.0
  0
LINE
  8
1
  6
CONTINUOUS
 62
     7
  5
37C
 10
894.277583
 20
-101.117417
 30
0.0
 11
917.06975
 21
-119.24325
 31
0.0
  0
LINE
  8
1
  6
CONTINUOUS
 62
     7
  5
37D
 10
953.64125
 20
-110.446167
 30
0.0
 11
927.3585
 21
-119.34125
 31
0.0
  0
INSERT
  8
1
  6
CONTINUOUS
 62
     1
  5
37E
  2
LDR
 10
894.277583
 20
-101.117417
 30
0.0
 41
239.999998
 42
239.999998
 50
141.505966
210
0.0
220
0.0
230
1.0
  0
INSERT
  8
1
  6
CONTINUOUS
 62
     1
  5
37F
  2
LDR
 10
894.277583
 20
-101.117417
 30
0.0
 41
239.999998
 42
239.999998
 50
141.505966
210
0.0
220
0.0
230
1.0
  0
INSERT
  8
1
  6
CONTINUOUS
 62
     1
  5
380
  2
LDR
 10
953.64125
 20
-110.446167
 30
0.0
 41
239.999999
 42
239.999999
 50
18.697776
210
0.0
220
0.0
230
1.0
  0
LINE
  8
1
  6
CONTINUOUS
 62
     7
  5
381
 10
994.214667
 20
-35.284
 30
0.0
 11
1018.828333
 21
-26.829167
 31
0.0
  0
LINE
  8
1
  6
CONTINUOUS
 62
     7
  5
382
 10
1053.578333
 20
-44.61275
 30
0.0
 11
1028.951833
 21
-26.729917
 31
0.0
  0
INSERT
  8
1
  6
CONTINUOUS
 62
     1
  5
383
  2
LDR
 10
994.214667
 20
-35.284
 30
0.0
 41
240.0
 42
240.0
 50
198.957677
210
0.0
220
0.0
230
1.0
  0
INSERT
  8
1
  6
CONTINUOUS
 62
     1
  5
384
  2
LDR
 10
994.214667
 20
-35.284
 30
0.0
 41
240.0
 42
240.0
 50
198.957677
210
0.0
220
0.0
230
1.0
  0
INSERT
  8
1
  6
CONTINUOUS
 62
     1
  5
385
  2
LDR
 10
1053.578333
 20
-44.61275
 30
0.0
 41
240.0
 42
240.0
 50
324.014266
210
0.0
220
0.0
230
1.0
  0
LINE
  8
1
  6
CONTINUOUS
 62
     7
  5
386
 10
1061.33
 20
-120.933333
 30
0.0
 11
1057.860083
 21
-131.266
 31
0.0
  0
LINE
  8
1
  6
CONTINUOUS
 62
     7
  5
387
 10
1057.860083
 20
-131.266
 30
0.0
 11
1070.262417
 21
-129.598833
 31
0.0
  0
INSERT
  8
1
  6
CONTINUOUS
 62
     1
  5
388
  2
LDR
 10
1061.33
 20
-120.933333
 30
0.0
 41
240.000001
 42
240.000001
 50
71.436917
210
0.0
220
0.0
230
1.0
  0
INSERT
  8
1
  6
CONTINUOUS
 62
     1
  5
389
  2
LDR
 10
1061.33
 20
-120.933333
 30
0.0
 41
240.000001
 42
240.000001
 50
71.436917
210
0.0
220
0.0
230
1.0
  0
INSERT
  8
1
  6
CONTINUOUS
 62
     1
  5
38A
  2
LDR
 10
1070.262417
 20
-129.598833
 30
0.0
 41
240.0
 42
240.0
 50
7.656012
210
0.0
220
0.0
230
1.0
  0
TEXT
  8
1
  6
CONTINUOUS
 62
     7
  5
38B
 10
495.889167
 20
-122.736333
 30
0.0
 40
2.5
  1
(35 OR MORE)
  7
MONOTXT
 72
     4
 11
509.698167
 21
-121.486333
 31
0.0
210
0.0
220
0.0
230
1.0
  0
TEXT
  8
1
  6
CONTINUOUS
 62
     7
  5
38C
 10
622.146
 20
-44.862167
 30
0.0
 40
2.5
  1
(35 OR MORE)
  7
MONOTXT
 72
     4
 11
635.955
 21
-43.612167
 31
0.0
210
0.0
220
0.0
230
1.0
  0
TEXT
  8
1
  6
CONTINUOUS
 62
     7
  5
38D
 10
654.984083
 20
-78.5605
 30
0.0
 40
2.5
  1
(35 OR MORE)
  7
MONOTXT
 72
     4
 11
668.793083
 21
-77.3105
 31
0.0
210
0.0
220
0.0
230
1.0
  0
TEXT
  8
1
  6
CONTINUOUS
 62
     7
  5
38E
 10
785.06125
 20
-80.67125
 30
0.0
 40
2.5
  1
(35 OR MORE)
  7
MONOTXT
 72
     4
 11
798.87025
 21
-79.42125
 31
0.0
210
0.0
220
0.0
230
1.0
  0
TEXT
  8
1
  6
CONTINUOUS
 62
     7
  5
38F
 10
815.18325
 20
74.17925
 30
0.0
 40
2.5
  1
(35 OR MORE)
  7
MONOTXT
 72
     4
 11
828.99225
 21
75.42925
 31
0.0
210
0.0
220
0.0
230
1.0
  0
TEXT
  8
1
  6
CONTINUOUS
 62
     7
  5
390
 10
1103.87425
 20
69.35525
 30
0.0
 40
2.5
  1
(35 OR MORE)
  7
MONOTXT
 72
     4
 11
1117.68325
 21
70.60525
 31
0.0
210
0.0
220
0.0
230
1.0
  0
TEXT
  8
1
  6
CONTINUOUS
 62
     7
  5
391
 10
559.4035
 20
10.714167
 30
0.0
 40
4.0
  1
C-2A
  7
txt
 72
     4
 11
565.810167
 21
12.714167
 31
0.0
210
0.0
220
0.0
230
1.0
  0
TEXT
  8
1
  6
CONTINUOUS
 62
     7
  5
392
 10
672.928167
 20
35.854583
 30
0.0
 40
4.0
  1
C-2B
  7
txt
 72
     4
 11
679.133667
 21
37.854583
 31
0.0
210
0.0
220
0.0
230
1.0
  0
TEXT
  8
1
  6
CONTINUOUS
 62
     7
  5
393
 10
572.198083
 20
-125.04375
 30
0.0
 40
4.0
  1
C-3A
  7
txt
 72
     4
 11
578.60475
 21
-123.04375
 31
0.0
210
0.0
220
0.0
230
1.0
  0
TEXT
  8
1
  6
CONTINUOUS
 62
     7
  5
394
 10
698.97425
 20
-118.644333
 30
0.0
 40
4.0
  1
C-3B
  7
txt
 72
     4
 11
705.17975
 21
-116.644333
 31
0.0
210
0.0
220
0.0
230
1.0
  0
TEXT
  8
1
  6
CONTINUOUS
 62
     7
  5
395
 10
950.805083
 20
17.248833
 30
0.0
 40
4.0
  1
C-4
  7
txt
 72
     4
 11
955.333583
 21
19.248833
 31
0.0
210
0.0
220
0.0
230
1.0
  0
TEXT
  8
1
  6
CONTINUOUS
 62
     7
  5
396
 10
959.553833
 20
-129.6715
 30
0.0
 40
4.0
  1
C-5
  7
txt
 72
     4
 11
964.039833
 21
-127.6715
 31
0.0
210
0.0
220
0.0
230
1.0
  0
LINE
  8
1
  6
CONTINUOUS
 62
   132
  5
397
 10
815.60225
 20
-150.904
 30
0.0
 11
950.60225
 21
-150.904
 31
0.0
  0
LINE
  8
1
  6
CONTINUOUS
 62
   132
  5
398
 10
950.60225
 20
-150.904
 30
0.0
 11
950.60225
 21
-265.904
 31
0.0
  0
LINE
  8
1
  6
CONTINUOUS
 62
   132
  5
399
 10
950.60225
 20
-265.904
 30
0.0
 11
815.60225
 21
-265.904
 31
0.0
  0
LINE
  8
1
  6
CONTINUOUS
 62
   132
  5
39A
 10
815.60225
 20
-175.904
 30
0.0
 11
950.60225
 21
-175.904
 31
0.0
  0
LINE
  8
1
  6
CONTINUOUS
 62
   132
  5
39B
 10
905.60225
 20
-150.904
 30
0.0
 11
905.60225
 21
-265.904
 31
0.0
  0
LINE
  8
1
  6
CONTINUOUS
 62
   132
  5
39C
 10
860.60225
 20
-150.904
 30
0.0
 11
860.60225
 21
-265.904
 31
0.0
  0
LINE
  8
1
  6
CONTINUOUS
 62
   132
  5
39D
 10
815.60225
 20
-150.904
 30
0.0
 11
815.60225
 21
-265.904
 31
0.0
  0
LINE
  8
1
  6
CONTINUOUS
 62
   132
  5
39E
 10
810.60225
 20
-150.904
 30
0.0
 11
810.60225
 21
-265.904
 31
0.0
  0
LINE
  8
1
  6
CONTINUOUS
 62
   132
  5
39F
 10
675.60225
 20
-150.904
 30
0.0
 11
810.60225
 21
-150.904
 31
0.0
  0
LINE
  8
1
  6
CONTINUOUS
 62
   132
  5
3A0
 10
810.60225
 20
-265.904
 30
0.0
 11
675.60225
 21
-265.904
 31
0.0
  0
LINE
  8
1
  6
CONTINUOUS
 62
   132
  5
3A1
 10
675.60225
 20
-175.904
 30
0.0
 11
810.60225
 21
-175.904
 31
0.0
  0
LINE
  8
1
  6
CONTINUOUS
 62
   132
  5
3A2
 10
765.60225
 20
-150.904
 30
0.0
 11
765.60225
 21
-265.904
 31
0.0
  0
LINE
  8
1
  6
CONTINUOUS
 62
   132
  5
3A3
 10
720.60225
 20
-150.904
 30
0.0
 11
720.60225
 21
-265.904
 31
0.0
  0
LINE
  8
1
  6
CONTINUOUS
 62
   132
  5
3A4
 10
675.60225
 20
-150.904
 30
0.0
 11
675.60225
 21
-265.904
 31
0.0
  0
TEXT
  8
1
  6
CONTINUOUS
 62
     7
  5
3A5
 10
767.51975
 20
-155.729917
 30
0.0
 40
2.5
  1
DESIRABLE DISTANCE
  7
MONOTXT
 11
767.51975
 21
-153.229917
 31
0.0
210
0.0
220
0.0
230
1.0
 73
     3
  0
TEXT
  8
1
  6
CONTINUOUS
 62
     7
  5
3A6
 10
767.51975
 20
-160.229917
 30
0.0
 40
2.5
  1
FROM START OF
  7
MONOTXT
 11
767.51975
 21
-157.729917
 31
0.0
210
0.0
220
0.0
230
1.0
 73
     3
  0
TEXT
  8
1
  6
CONTINUOUS
 62
     7
  5
3A7
 10
767.51975
 20
-164.729917
 30
0.0
 40
2.5
  1
CURVE TO ADVISORY
  7
MONOTXT
 11
767.51975
 21
-162.229917
 31
0.0
210
0.0
220
0.0
230
1.0
 73
     3
  0
TEXT
  8
1
  6
CONTINUOUS
 62
     7
  5
3A8
 10
767.51975
 20
-169.229917
 30
0.0
 40
2.5
  1
CURVE SIGN
  7
MONOTXT
 11
767.51975
 21
-166.729917
 31
0.0
210
0.0
220
0.0
230
1.0
 73
     3
  0
TEXT
  8
1
  6
CONTINUOUS
 62
     7
  5
3A9
 10
767.51975
 20
-173.729917
 30
0.0
 40
2.5
  1
      (FEET)
  7
MONOTXT
 11
767.51975
 21
-171.229917
 31
0.0
210
0.0
220
0.0
230
1.0
 73
     3
  0
TEXT
  8
1
  6
CONTINUOUS
 62
     7
  5
3AA
 10
907.501667
 20
-155.459583
 30
0.0
 40
2.5
  1
DESIRABLE DISTANCE
  7
MONOTXT
 11
907.501667
 21
-152.959583
 31
0.0
210
0.0
220
0.0
230
1.0
 73
     3
  0
TEXT
  8
1
  6
CONTINUOUS
 62
     7
  5
3AB
 10
907.501667
 20
-159.959583
 30
0.0
 40
2.5
  1
FROM START OF
  7
MONOTXT
 11
907.501667
 21
-157.459583
 31
0.0
210
0.0
220
0.0
230
1.0
 73
     3
  0
TEXT
  8
1
  6
CONTINUOUS
 62
     7
  5
3AC
 10
907.501667
 20
-164.459583
 30
0.0
 40
2.5
  1
CURVE TO ADVISORY
  7
MONOTXT
 11
907.501667
 21
-161.959583
 31
0.0
210
0.0
220
0.0
230
1.0
 73
     3
  0
TEXT
  8
1
  6
CONTINUOUS
 62
     7
  5
3AD
 10
907.501667
 20
-168.959583
 30
0.0
 40
2.5
  1
CURVE SIGN
  7
MONOTXT
 11
907.501667
 21
-166.459583
 31
0.0
210
0.0
220
0.0
230
1.0
 73
     3
  0
TEXT
  8
1
  6
CONTINUOUS
 62
     7
  5
3AE
 10
907.501667
 20
-173.459583
 30
0.0
 40
2.5
  1
      (FEET)
  7
MONOTXT
 11
907.501667
 21
-170.959583
 31
0.0
210
0.0
220
0.0
230
1.0
 73
     3
  0
TEXT
  8
1
  6
CONTINUOUS
 62
     7
  5
3AF
 10
683.119333
 20
-160.792833
 30
0.0
 40
2.5
  1
POSTED SPEED
  7
MONOTXT
 72
     4
 11
697.538583
 21
-159.542833
 31
0.0
210
0.0
220
0.0
230
1.0
  0
TEXT
  8
1
  6
CONTINUOUS
 62
     7
  5
3B0
 10
693.394917
 20
-165.292833
 30
0.0
 40
2.5
  1
LIMIT
  7
MONOTXT
 72
     4
 11
697.538583
 21
-164.042833
 31
0.0
210
0.0
220
0.0
230
1.0
  0
TEXT
  8
1
  6
CONTINUOUS
 62
     7
  5
3B1
 10
692.578
 20
-169.792833
 30
0.0
 40
2.5
  1
(MPH)
  7
MONOTXT
 72
     4
 11
697.52875
 21
-168.542833
 31
0.0
210
0.0
220
0.0
230
1.0
  0
TEXT
  8
1
  6
CONTINUOUS
 62
     7
  5
3B2
 10
823.10125
 20
-160.252167
 30
0.0
 40
2.5
  1
POSTED SPEED
  7
MONOTXT
 72
     4
 11
837.5205
 21
-159.002167
 31
0.0
210
0.0
220
0.0
230
1.0
  0
TEXT
  8
1
  6
CONTINUOUS
 62
     7
  5
3B3
 10
833.376833
 20
-164.752167
 30
0.0
 40
2.5
  1
LIMIT
  7
MONOTXT
 72
     4
 11
837.5205
 21
-163.502167
 31
0.0
210
0.0
220
0.0
230
1.0
  0
TEXT
  8
1
  6
CONTINUOUS
 62
     7
  5
3B4
 10
832.559917
 20
-169.252167
 30
0.0
 40
2.5
  1
(MPH)
  7
MONOTXT
 72
     4
 11
837.510667
 21
-168.002167
 31
0.0
210
0.0
220
0.0
230
1.0
  0
TEXT
  8
1
  6
CONTINUOUS
 62
     7
  5
3B5
 10
733.411417
 20
-160.5225
 30
0.0
 40
2.5
  1
ADVISORY
  7
MONOTXT
 72
     4
 11
742.397583
 21
-159.2725
 31
0.0
210
0.0
220
0.0
230
1.0
  0
TEXT
  8
1
  6
CONTINUOUS
 62
     7
  5
3B6
 10
736.718583
 20
-165.0225
 30
0.0
 40
2.5
  1
SPEED
  7
MONOTXT
 72
     4
 11
742.397667
 21
-163.7725
 31
0.0
210
0.0
220
0.0
230
1.0
  0
TEXT
  8
1
  6
CONTINUOUS
 62
     7
  5
3B7
 10
737.437083
 20
-169.5225
 30
0.0
 40
2.5
  1
(MPH)
  7
MONOTXT
 72
     4
 11
742.387833
 21
-168.2725
 31
0.0
210
0.0
220
0.0
230
1.0
  0
TEXT
  8
1
  6
CONTINUOUS
 62
     7
  5
3B8
 10
873.933833
 20
-160.5225
 30
0.0
 40
2.5
  1
ADVISORY
  7
MONOTXT
 72
     4
 11
882.92
 21
-159.2725
 31
0.0
210
0.0
220
0.0
230
1.0
  0
TEXT
  8
1
  6
CONTINUOUS
 62
     7
  5
3B9
 10
877.241
 20
-165.0225
 30
0.0
 40
2.5
  1
SPEED
  7
MONOTXT
 72
     4
 11
882.920083
 21
-163.7725
 31
0.0
210
0.0
220
0.0
230
1.0
  0
TEXT
  8
1
  6
CONTINUOUS
 62
     7
  5
3BA
 10
877.9595
 20
-169.5225
 30
0.0
 40
2.5
  1
(MPH)
  7
MONOTXT
 72
     4
 11
882.91025
 21
-168.2725
 31
0.0
210
0.0
220
0.0
230
1.0
  0
TEXT
  8
1
  6
CONTINUOUS
 62
     7
  5
3BB
 10
881.798583
 20
-181.040417
 30
0.0
 40
2.25
  1
10
  7
MONOTXT
 72
     4
 11
883.180417
 21
-179.915417
 31
0.0
210
0.0
220
0.0
230
1.0
  0
TEXT
  8
1
  6
CONTINUOUS
 62
     7
  5
3BC
 10
881.798583
 20
-184.290417
 30
0.0
 40
2.25
  1
15
  7
MONOTXT
 72
     4
 11
883.18925
 21
-183.165417
 31
0.0
210
0.0
220
0.0
230
1.0
  0
TEXT
  8
1
  6
CONTINUOUS
 62
     7
  5
3BD
 10
881.32025
 20
-187.540417
 30
0.0
 40
2.25
  1
20
  7
MONOTXT
 72
     4
 11
883.180417
 21
-186.415417
 31
0.0
210
0.0
220
0.0
230
1.0
  0
TEXT
  8
1
  6
CONTINUOUS
 62
     7
  5
3BE
 10
881.32025
 20
-190.790417
 30
0.0
 40
2.25
  1
25
  7
MONOTXT
 72
     4
 11
883.189333
 21
-189.665417
 31
0.0
210
0.0
220
0.0
230
1.0
  0
TEXT
  8
1
  6
CONTINUOUS
 62
     7
  5
3BF
 10
881.32025
 20
-194.040417
 30
0.0
 40
2.25
  1
30
  7
MONOTXT
 72
     4
 11
883.180417
 21
-192.915417
 31
0.0
210
0.0
220
0.0
230
1.0
  0
TEXT
  8
1
  6
CONTINUOUS
 62
     7
  5
3C0
 10
881.32025
 20
-197.290417
 30
0.0
 40
2.25
  1
35
  7
MONOTXT
 72
     4
 11
883.189333
 21
-196.165417
 31
0.0
210
0.0
220
0.0
230
1.0
  0
TEXT
  8
1
  6
CONTINUOUS
 62
     7
  5
3C1
 10
881.267083
 20
-200.540417
 30
0.0
 40
2.25
  1
40
  7
MONOTXT
 72
     4
 11
883.180417
 21
-199.415417
 31
0.0
210
0.0
220
0.0
230
1.0
  0
TEXT
  8
1
  6
CONTINUOUS
 62
     7
  5
3C2
 10
882.427583
 20
-203.790417
 30
0.0
 40
2.25
  1
 
  7
MONOTXT
 72
     4
 11
883.177583
 21
-202.665417
 31
0.0
210
0.0
220
0.0
230
1.0
  0
TEXT
  8
1
  6
CONTINUOUS
 62
     7
  5
3C3
 10
881.798583
 20
-207.040417
 30
0.0
 40
2.25
  1
10
  7
MONOTXT
 72
     4
 11
883.180417
 21
-205.915417
 31
0.0
210
0.0
220
0.0
230
1.0
  0
TEXT
  8
1
  6
CONTINUOUS
 62
     7
  5
3C4
 10
881.798583
 20
-210.290417
 30
0.0
 40
2.25
  1
15
  7
MONOTXT
 72
     4
 11
883.18925
 21
-209.165417
 31
0.0
210
0.0
220
0.0
230
1.0
  0
TEXT
  8
1
  6
CONTINUOUS
 62
     7
  5
3C5
 10
881.32025
 20
-213.540417
 30
0.0
 40
2.25
  1
20
  7
MONOTXT
 72
     4
 11
883.180417
 21
-212.415417
 31
0.0
210
0.0
220
0.0
230
1.0
  0
TEXT
  8
1
  6
CONTINUOUS
 62
     7
  5
3C6
 10
881.32025
 20
-216.790417
 30
0.0
 40
2.25
  1
25
  7
MONOTXT
 72
     4
 11
883.189333
 21
-215.665417
 31
0.0
210
0.0
220
0.0
230
1.0
  0
TEXT
  8
1
  6
CONTINUOUS
 62
     7
  5
3C7
 10
881.32025
 20
-220.040417
 30
0.0
 40
2.25
  1
30
  7
MONOTXT
 72
     4
 11
883.180417
 21
-218.915417
 31
0.0
210
0.0
220
0.0
230
1.0
  0
TEXT
  8
1
  6
CONTINUOUS
 62
     7
  5
3C8
 10
881.32025
 20
-223.290417
 30
0.0
 40
2.25
  1
35
  7
MONOTXT
 72
     4
 11
883.189333
 21
-222.165417
 31
0.0
210
0.0
220
0.0
230
1.0
  0
TEXT
  8
1
  6
CONTINUOUS
 62
     7
  5
3C9
 10
881.267083
 20
-226.540417
 30
0.0
 40
2.25
  1
40
  7
MONOTXT
 72
     4
 11
883.180417
 21
-225.415417
 31
0.0
210
0.0
220
0.0
230
1.0
  0
TEXT
  8
1
  6
CONTINUOUS
 62
     7
  5
3CA
 10
881.267083
 20
-229.790417
 30
0.0
 40
2.25
  1
45
  7
MONOTXT
 72
     4
 11
883.18925
 21
-228.665417
 31
0.0
210
0.0
220
0.0
230
1.0
  0
TEXT
  8
1
  6
CONTINUOUS
 62
     7
  5
3CB
 10
882.427583
 20
-233.040417
 30
0.0
 40
2.25
  1
 
  7
MONOTXT
 72
     4
 11
883.177583
 21
-231.915417
 31
0.0
210
0.0
220
0.0
230
1.0
  0
TEXT
  8
1
  6
CONTINUOUS
 62
     7
  5
3CC
 10
881.798583
 20
-236.290417
 30
0.0
 40
2.25
  1
10
  7
MONOTXT
 72
     4
 11
883.180417
 21
-235.165417
 31
0.0
210
0.0
220
0.0
230
1.0
  0
TEXT
  8
1
  6
CONTINUOUS
 62
     7
  5
3CD
 10
881.798583
 20
-239.540417
 30
0.0
 40
2.25
  1
15
  7
MONOTXT
 72
     4
 11
883.18925
 21
-238.415417
 31
0.0
210
0.0
220
0.0
230
1.0
  0
TEXT
  8
1
  6
CONTINUOUS
 62
     7
  5
3CE
 10
881.32025
 20
-242.790417
 30
0.0
 40
2.25
  1
20
  7
MONOTXT
 72
     4
 11
883.180417
 21
-241.665417
 31
0.0
210
0.0
220
0.0
230
1.0
  0
TEXT
  8
1
  6
CONTINUOUS
 62
     7
  5
3CF
 10
881.32025
 20
-246.040417
 30
0.0
 40
2.25
  1
25
  7
MONOTXT
 72
     4
 11
883.189333
 21
-244.915417
 31
0.0
210
0.0
220
0.0
230
1.0
  0
TEXT
  8
1
  6
CONTINUOUS
 62
     7
  5
3D0
 10
881.32025
 20
-249.290417
 30
0.0
 40
2.25
  1
30
  7
MONOTXT
 72
     4
 11
883.180417
 21
-248.165417
 31
0.0
210
0.0
220
0.0
230
1.0
  0
TEXT
  8
1
  6
CONTINUOUS
 62
     7
  5
3D1
 10
881.32025
 20
-252.540417
 30
0.0
 40
2.25
  1
35
  7
MONOTXT
 72
     4
 11
883.189333
 21
-251.415417
 31
0.0
210
0.0
220
0.0
230
1.0
  0
TEXT
  8
1
  6
CONTINUOUS
 62
     7
  5
3D2
 10
881.267083
 20
-255.790417
 30
0.0
 40
2.25
  1
40
  7
MONOTXT
 72
     4
 11
883.180417
 21
-254.665417
 31
0.0
210
0.0
220
0.0
230
1.0
  0
TEXT
  8
1
  6
CONTINUOUS
 62
     7
  5
3D3
 10
881.267083
 20
-259.040417
 30
0.0
 40
2.25
  1
45
  7
MONOTXT
 72
     4
 11
883.18925
 21
-257.915417
 31
0.0
210
0.0
220
0.0
230
1.0
  0
TEXT
  8
1
  6
CONTINUOUS
 62
     7
  5
3D4
 10
881.32025
 20
-262.290417
 30
0.0
 40
2.25
  1
50
  7
MONOTXT
 72
     4
 11
883.180417
 21
-261.165417
 31
0.0
210
0.0
220
0.0
230
1.0
  0
TEXT
  8
1
  6
CONTINUOUS
 62
     7
  5
3D5
 10
740.73725
 20
-181.0665
 30
0.0
 40
2.25
  1
10
  7
MONOTXT
 72
     4
 11
742.119083
 21
-179.9415
 31
0.0
210
0.0
220
0.0
230
1.0
  0
TEXT
  8
1
  6
CONTINUOUS
 62
     7
  5
3D6
 10
740.73725
 20
-184.3165
 30
0.0
 40
2.25
  1
15
  7
MONOTXT
 72
     4
 11
742.127917
 21
-183.1915
 31
0.0
210
0.0
220
0.0
230
1.0
  0
TEXT
  8
1
  6
CONTINUOUS
 62
     7
  5
3D7
 10
740.258917
 20
-187.5665
 30
0.0
 40
2.25
  1
20
  7
MONOTXT
 72
     4
 11
742.119083
 21
-186.4415
 31
0.0
210
0.0
220
0.0
230
1.0
  0
TEXT
  8
1
  6
CONTINUOUS
 62
     7
  5
3D8
 10
741.36625
 20
-190.8165
 30
0.0
 40
2.25
  1
 
  7
MONOTXT
 72
     4
 11
742.11625
 21
-189.6915
 31
0.0
210
0.0
220
0.0
230
1.0
  0
TEXT
  8
1
  6
CONTINUOUS
 62
     7
  5
3D9
 10
740.73725
 20
-194.0665
 30
0.0
 40
2.25
  1
10
  7
MONOTXT
 72
     4
 11
742.119083
 21
-192.9415
 31
0.0
210
0.0
220
0.0
230
1.0
  0
TEXT
  8
1
  6
CONTINUOUS
 62
     7
  5
3DA
 10
740.73725
 20
-197.3165
 30
0.0
 40
2.25
  1
15
  7
MONOTXT
 72
     4
 11
742.127917
 21
-196.1915
 31
0.0
210
0.0
220
0.0
230
1.0
  0
TEXT
  8
1
  6
CONTINUOUS
 62
     7
  5
3DB
 10
740.258917
 20
-200.5665
 30
0.0
 40
2.25
  1
20
  7
MONOTXT
 72
     4
 11
742.119083
 21
-199.4415
 31
0.0
210
0.0
220
0.0
230
1.0
  0
TEXT
  8
1
  6
CONTINUOUS
 62
     7
  5
3DC
 10
740.258917
 20
-203.8165
 30
0.0
 40
2.25
  1
25
  7
MONOTXT
 72
     4
 11
742.128
 21
-202.6915
 31
0.0
210
0.0
220
0.0
230
1.0
  0
TEXT
  8
1
  6
CONTINUOUS
 62
     7
  5
3DD
 10
741.36625
 20
-207.0665
 30
0.0
 40
2.25
  1
 
  7
MONOTXT
 72
     4
 11
742.11625
 21
-205.9415
 31
0.0
210
0.0
220
0.0
230
1.0
  0
TEXT
  8
1
  6
CONTINUOUS
 62
     7
  5
3DE
 10
740.73725
 20
-210.3165
 30
0.0
 40
2.25
  1
10
  7
MONOTXT
 72
     4
 11
742.119083
 21
-209.1915
 31
0.0
210
0.0
220
0.0
230
1.0
  0
TEXT
  8
1
  6
CONTINUOUS
 62
     7
  5
3DF
 10
740.73725
 20
-213.5665
 30
0.0
 40
2.25
  1
15
  7
MONOTXT
 72
     4
 11
742.127917
 21
-212.4415
 31
0.0
210
0.0
220
0.0
230
1.0
  0
TEXT
  8
1
  6
CONTINUOUS
 62
     7
  5
3E0
 10
740.258917
 20
-216.8165
 30
0.0
 40
2.25
  1
20
  7
MONOTXT
 72
     4
 11
742.119083
 21
-215.6915
 31
0.0
210
0.0
220
0.0
230
1.0
  0
TEXT
  8
1
  6
CONTINUOUS
 62
     7
  5
3E1
 10
740.258917
 20
-220.0665
 30
0.0
 40
2.25
  1
25
  7
MONOTXT
 72
     4
 11
742.128
 21
-218.9415
 31
0.0
210
0.0
220
0.0
230
1.0
  0
TEXT
  8
1
  6
CONTINUOUS
 62
     7
  5
3E2
 10
740.258917
 20
-223.3165
 30
0.0
 40
2.25
  1
30
  7
MONOTXT
 72
     4
 11
742.119083
 21
-222.1915
 31
0.0
210
0.0
220
0.0
230
1.0
  0
TEXT
  8
1
  6
CONTINUOUS
 62
     7
  5
3E3
 10
741.36625
 20
-226.5665
 30
0.0
 40
2.25
  1
 
  7
MONOTXT
 72
     4
 11
742.11625
 21
-225.4415
 31
0.0
210
0.0
220
0.0
230
1.0
  0
TEXT
  8
1
  6
CONTINUOUS
 62
     7
  5
3E4
 10
740.73725
 20
-229.8165
 30
0.0
 40
2.25
  1
10
  7
MONOTXT
 72
     4
 11
742.119083
 21
-228.6915
 31
0.0
210
0.0
220
0.0
230
1.0
  0
TEXT
  8
1
  6
CONTINUOUS
 62
     7
  5
3E5
 10
740.73725
 20
-233.0665
 30
0.0
 40
2.25
  1
15
  7
MONOTXT
 72
     4
 11
742.127917
 21
-231.9415
 31
0.0
210
0.0
220
0.0
230
1.0
  0
TEXT
  8
1
  6
CONTINUOUS
 62
     7
  5
3E6
 10
740.258917
 20
-236.3165
 30
0.0
 40
2.25
  1
20
  7
MONOTXT
 72
     4
 11
742.119083
 21
-235.1915
 31
0.0
210
0.0
220
0.0
230
1.0
  0
TEXT
  8
1
  6
CONTINUOUS
 62
     7
  5
3E7
 10
740.258917
 20
-239.5665
 30
0.0
 40
2.25
  1
25
  7
MONOTXT
 72
     4
 11
742.128
 21
-238.4415
 31
0.0
210
0.0
220
0.0
230
1.0
  0
TEXT
  8
1
  6
CONTINUOUS
 62
     7
  5
3E8
 10
740.258917
 20
-242.8165
 30
0.0
 40
2.25
  1
30
  7
MONOTXT
 72
     4
 11
742.119083
 21
-241.6915
 31
0.0
210
0.0
220
0.0
230
1.0
  0
TEXT
  8
1
  6
CONTINUOUS
 62
     7
  5
3E9
 10
740.258917
 20
-246.0665
 30
0.0
 40
2.25
  1
35
  7
MONOTXT
 72
     4
 11
742.128
 21
-244.9415
 31
0.0
210
0.0
220
0.0
230
1.0
  0
TEXT
  8
1
  6
CONTINUOUS
 62
     7
  5
3EA
 10
695.32925
 20
-181.677833
 30
0.0
 40
2.25
  1
25
  7
MONOTXT
 72
     4
 11
697.198333
 21
-180.552833
 31
0.0
210
0.0
220
0.0
230
1.0
  0
TEXT
  8
1
  6
CONTINUOUS
 62
     7
  5
3EB
 10
696.436583
 20
-184.927833
 30
0.0
 40
2.25
  1
 
  7
MONOTXT
 72
     4
 11
697.186583
 21
-183.802833
 31
0.0
210
0.0
220
0.0
230
1.0
  0
TEXT
  8
1
  6
CONTINUOUS
 62
     7
  5
3EC
 10
696.436583
 20
-188.177833
 30
0.0
 40
2.25
  1
 
  7
MONOTXT
 72
     4
 11
697.186583
 21
-187.052833
 31
0.0
210
0.0
220
0.0
230
1.0
  0
TEXT
  8
1
  6
CONTINUOUS
 62
     7
  5
3ED
 10
696.436583
 20
-191.427833
 30
0.0
 40
2.25
  1
 
  7
MONOTXT
 72
     4
 11
697.186583
 21
-190.302833
 31
0.0
210
0.0
220
0.0
230
1.0
  0
TEXT
  8
1
  6
CONTINUOUS
 62
     7
  5
3EE
 10
695.32925
 20
-194.677833
 30
0.0
 40
2.25
  1
30
  7
MONOTXT
 72
     4
 11
697.189417
 21
-193.552833
 31
0.0
210
0.0
220
0.0
230
1.0
  0
TEXT
  8
1
  6
CONTINUOUS
 62
     7
  5
3EF
 10
696.436583
 20
-197.927833
 30
0.0
 40
2.25
  1
 
  7
MONOTXT
 72
     4
 11
697.186583
 21
-196.802833
 31
0.0
210
0.0
220
0.0
230
1.0
  0
TEXT
  8
1
  6
CONTINUOUS
 62
     7
  5
3F0
 10
696.436583
 20
-201.177833
 30
0.0
 40
2.25
  1
 
  7
MONOTXT
 72
     4
 11
697.186583
 21
-200.052833
 31
0.0
210
0.0
220
0.0
230
1.0
  0
TEXT
  8
1
  6
CONTINUOUS
 62
     7
  5
3F1
 10
696.436583
 20
-204.427833
 30
0.0
 40
2.25
  1
 
  7
MONOTXT
 72
     4
 11
697.186583
 21
-203.302833
 31
0.0
210
0.0
220
0.0
230
1.0
  0
TEXT
  8
1
  6
CONTINUOUS
 62
     7
  5
3F2
 10
696.436583
 20
-207.677833
 30
0.0
 40
2.25
  1
 
  7
MONOTXT
 72
     4
 11
697.186583
 21
-206.552833
 31
0.0
210
0.0
220
0.0
230
1.0
  0
TEXT
  8
1
  6
CONTINUOUS
 62
     7
  5
3F3
 10
695.32925
 20
-210.927833
 30
0.0
 40
2.25
  1
35
  7
MONOTXT
 72
     4
 11
697.198333
 21
-209.802833
 31
0.0
210
0.0
220
0.0
230
1.0
  0
TEXT
  8
1
  6
CONTINUOUS
 62
     7
  5
3F4
 10
696.436583
 20
-214.177833
 30
0.0
 40
2.25
  1
 
  7
MONOTXT
 72
     4
 11
697.186583
 21
-213.052833
 31
0.0
210
0.0
220
0.0
230
1.0
  0
TEXT
  8
1
  6
CONTINUOUS
 62
     7
  5
3F5
 10
696.436583
 20
-217.427833
 30
0.0
 40
2.25
  1
 
  7
MONOTXT
 72
     4
 11
697.186583
 21
-216.302833
 31
0.0
210
0.0
220
0.0
230
1.0
  0
TEXT
  8
1
  6
CONTINUOUS
 62
     7
  5
3F6
 10
696.436583
 20
-220.677833
 30
0.0
 40
2.25
  1
 
  7
MONOTXT
 72
     4
 11
697.186583
 21
-219.552833
 31
0.0
210
0.0
220
0.0
230
1.0
  0
TEXT
  8
1
  6
CONTINUOUS
 62
     7
  5
3F7
 10
696.436583
 20
-223.927833
 30
0.0
 40
2.25
  1
 
  7
MONOTXT
 72
     4
 11
697.186583
 21
-222.802833
 31
0.0
210
0.0
220
0.0
230
1.0
  0
TEXT
  8
1
  6
CONTINUOUS
 62
     7
  5
3F8
 10
696.436583
 20
-227.177833
 30
0.0
 40
2.25
  1
 
  7
MONOTXT
 72
     4
 11
697.186583
 21
-226.052833
 31
0.0
210
0.0
220
0.0
230
1.0
  0
TEXT
  8
1
  6
CONTINUOUS
 62
     7
  5
3F9
 10
695.276083
 20
-230.427833
 30
0.0
 40
2.25
  1
40
  7
MONOTXT
 72
     4
 11
697.189417
 21
-229.302833
 31
0.0
210
0.0
220
0.0
230
1.0
  0
TEXT
  8
1
  6
CONTINUOUS
 62
     7
  5
3FA
 10
834.98825
 20
-181.653
 30
0.0
 40
2.25
  1
45
  7
MONOTXT
 72
     4
 11
836.910417
 21
-180.528
 31
0.0
210
0.0
220
0.0
230
1.0
  0
TEXT
  8
1
  6
CONTINUOUS
 62
     7
  5
3FB
 10
836.14875
 20
-184.903
 30
0.0
 40
2.25
  1
 
  7
MONOTXT
 72
     4
 11
836.89875
 21
-183.778
 31
0.0
210
0.0
220
0.0
230
1.0
  0
TEXT
  8
1
  6
CONTINUOUS
 62
     7
  5
3FC
 10
836.14875
 20
-188.153
 30
0.0
 40
2.25
  1
 
  7
MONOTXT
 72
     4
 11
836.89875
 21
-187.028
 31
0.0
210
0.0
220
0.0
230
1.0
  0
TEXT
  8
1
  6
CONTINUOUS
 62
     7
  5
3FD
 10
836.14875
 20
-191.403
 30
0.0
 40
2.25
  1
 
  7
MONOTXT
 72
     4
 11
836.89875
 21
-190.278
 31
0.0
210
0.0
220
0.0
230
1.0
  0
TEXT
  8
1
  6
CONTINUOUS
 62
     7
  5
3FE
 10
836.14875
 20
-194.653
 30
0.0
 40
2.25
  1
 
  7
MONOTXT
 72
     4
 11
836.89875
 21
-193.528
 31
0.0
210
0.0
220
0.0
230
1.0
  0
TEXT
  8
1
  6
CONTINUOUS
 62
     7
  5
3FF
 10
836.14875
 20
-197.903
 30
0.0
 40
2.25
  1
 
  7
MONOTXT
 72
     4
 11
836.89875
 21
-196.778
 31
0.0
210
0.0
220
0.0
230
1.0
  0
TEXT
  8
1
  6
CONTINUOUS
 62
     7
  5
400
 10
836.14875
 20
-201.153
 30
0.0
 40
2.25
  1
 
  7
MONOTXT
 72
     4
 11
836.89875
 21
-200.028
 31
0.0
210
0.0
220
0.0
230
1.0
  0
TEXT
  8
1
  6
CONTINUOUS
 62
     7
  5
401
 10
836.14875
 20
-204.403
 30
0.0
 40
2.25
  1
 
  7
MONOTXT
 72
     4
 11
836.89875
 21
-203.278
 31
0.0
210
0.0
220
0.0
230
1.0
  0
TEXT
  8
1
  6
CONTINUOUS
 62
     7
  5
402
 10
835.041417
 20
-207.653
 30
0.0
 40
2.25
  1
50
  7
MONOTXT
 72
     4
 11
836.901583
 21
-206.528
 31
0.0
210
0.0
220
0.0
230
1.0
  0
TEXT
  8
1
  6
CONTINUOUS
 62
     7
  5
403
 10
836.14875
 20
-210.903
 30
0.0
 40
2.25
  1
 
  7
MONOTXT
 72
     4
 11
836.89875
 21
-209.778
 31
0.0
210
0.0
220
0.0
230
1.0
  0
TEXT
  8
1
  6
CONTINUOUS
 62
     7
  5
404
 10
836.14875
 20
-214.153
 30
0.0
 40
2.25
  1
 
  7
MONOTXT
 72
     4
 11
836.89875
 21
-213.028
 31
0.0
210
0.0
220
0.0
230
1.0
  0
TEXT
  8
1
  6
CONTINUOUS
 62
     7
  5
405
 10
836.14875
 20
-217.403
 30
0.0
 40
2.25
  1
 
  7
MONOTXT
 72
     4
 11
836.89875
 21
-216.278
 31
0.0
210
0.0
220
0.0
230
1.0
  0
TEXT
  8
1
  6
CONTINUOUS
 62
     7
  5
406
 10
836.14875
 20
-220.653
 30
0.0
 40
2.25
  1
 
  7
MONOTXT
 72
     4
 11
836.89875
 21
-219.528
 31
0.0
210
0.0
220
0.0
230
1.0
  0
TEXT
  8
1
  6
CONTINUOUS
 62
     7
  5
407
 10
836.14875
 20
-223.903
 30
0.0
 40
2.25
  1
 
  7
MONOTXT
 72
     4
 11
836.89875
 21
-222.778
 31
0.0
210
0.0
220
0.0
230
1.0
  0
TEXT
  8
1
  6
CONTINUOUS
 62
     7
  5
408
 10
836.14875
 20
-227.153
 30
0.0
 40
2.25
  1
 
  7
MONOTXT
 72
     4
 11
836.89875
 21
-226.028
 31
0.0
210
0.0
220
0.0
230
1.0
  0
TEXT
  8
1
  6
CONTINUOUS
 62
     7
  5
409
 10
836.14875
 20
-230.403
 30
0.0
 40
2.25
  1
 
  7
MONOTXT
 72
     4
 11
836.89875
 21
-229.278
 31
0.0
210
0.0
220
0.0
230
1.0
  0
TEXT
  8
1
  6
CONTINUOUS
 62
     7
  5
40A
 10
836.14875
 20
-233.653
 30
0.0
 40
2.25
  1
 
  7
MONOTXT
 72
     4
 11
836.89875
 21
-232.528
 31
0.0
210
0.0
220
0.0
230
1.0
  0
TEXT
  8
1
  6
CONTINUOUS
 62
     7
  5
40B
 10
835.041417
 20
-236.903
 30
0.0
 40
2.25
  1
55
  7
MONOTXT
 72
     4
 11
836.9105
 21
-235.778
 31
0.0
210
0.0
220
0.0
230
1.0
  0
TEXT
  8
1
  6
CONTINUOUS
 62
     7
  5
40C
 10
785.773083
 20
-181.61575
 30
0.0
 40
2.25
  1
100
  7
MONOTXT
 72
     4
 11
788.271083
 21
-180.49075
 31
0.0
210
0.0
220
0.0
230
1.0
  0
TEXT
  8
1
  6
CONTINUOUS
 62
     7
  5
40D
 10
785.773083
 20
-184.86575
 30
0.0
 40
2.25
  1
100
  7
MONOTXT
 72
     4
 11
788.271083
 21
-183.74075
 31
0.0
210
0.0
220
0.0
230
1.0
  0
TEXT
  8
1
  6
CONTINUOUS
 62
     7
  5
40E
 10
785.773083
 20
-188.11575
 30
0.0
 40
2.25
  1
100
  7
MONOTXT
 72
     4
 11
788.271083
 21
-186.99075
 31
0.0
210
0.0
220
0.0
230
1.0
  0
TEXT
  8
1
  6
CONTINUOUS
 62
     7
  5
40F
 10
787.518167
 20
-191.36575
 30
0.0
 40
2.25
  1
 
  7
MONOTXT
 72
     4
 11
788.268167
 21
-190.24075
 31
0.0
210
0.0
220
0.0
230
1.0
  0
TEXT
  8
1
  6
CONTINUOUS
 62
     7
  5
410
 10
785.773083
 20
-194.61575
 30
0.0
 40
2.25
  1
150
  7
MONOTXT
 72
     4
 11
788.271083
 21
-193.49075
 31
0.0
210
0.0
220
0.0
230
1.0
  0
TEXT
  8
1
  6
CONTINUOUS
 62
     7
  5
411
 10
785.773083
 20
-197.86575
 30
0.0
 40
2.25
  1
125
  7
MONOTXT
 72
     4
 11
788.279917
 21
-196.74075
 31
0.0
210
0.0
220
0.0
230
1.0
  0
TEXT
  8
1
  6
CONTINUOUS
 62
     7
  5
412
 10
785.773083
 20
-201.11575
 30
0.0
 40
2.25
  1
100
  7
MONOTXT
 72
     4
 11
788.271083
 21
-199.99075
 31
0.0
210
0.0
220
0.0
230
1.0
  0
TEXT
  8
1
  6
CONTINUOUS
 62
     7
  5
413
 10
785.773083
 20
-204.36575
 30
0.0
 40
2.25
  1
100
  7
MONOTXT
 72
     4
 11
788.271083
 21
-203.24075
 31
0.0
210
0.0
220
0.0
230
1.0
  0
TEXT
  8
1
  6
CONTINUOUS
 62
     7
  5
414
 10
787.518167
 20
-207.61575
 30
0.0
 40
2.25
  1
 
  7
MONOTXT
 72
     4
 11
788.268167
 21
-206.49075
 31
0.0
210
0.0
220
0.0
230
1.0
  0
TEXT
  8
1
  6
CONTINUOUS
 62
     7
  5
415
 10
785.294667
 20
-210.86575
 30
0.0
 40
2.25
  1
200
  7
MONOTXT
 72
     4
 11
788.271
 21
-209.74075
 31
0.0
210
0.0
220
0.0
230
1.0
  0
TEXT
  8
1
  6
CONTINUOUS
 62
     7
  5
416
 10
785.773083
 20
-214.11575
 30
0.0
 40
2.25
  1
185
  7
MONOTXT
 72
     4
 11
788.279917
 21
-212.99075
 31
0.0
210
0.0
220
0.0
230
1.0
  0
TEXT
  8
1
  6
CONTINUOUS
 62
     7
  5
417
 10
785.755333
 20
-217.36575
 30
0.0
 40
2.25
  1
175
  7
MONOTXT
 72
     4
 11
788.279917
 21
-216.24075
 31
0.0
210
0.0
220
0.0
230
1.0
  0
TEXT
  8
1
  6
CONTINUOUS
 62
     7
  5
418
 10
785.826167
 20
-220.61575
 30
0.0
 40
2.25
  1
160
  7
MONOTXT
 72
     4
 11
788.271
 21
-219.49075
 31
0.0
210
0.0
220
0.0
230
1.0
  0
TEXT
  8
1
  6
CONTINUOUS
 62
     7
  5
419
 10
785.773083
 20
-223.86575
 30
0.0
 40
2.25
  1
150
  7
MONOTXT
 72
     4
 11
788.271083
 21
-222.74075
 31
0.0
210
0.0
220
0.0
230
1.0
  0
TEXT
  8
1
  6
CONTINUOUS
 62
     7
  5
41A
 10
787.518167
 20
-227.11575
 30
0.0
 40
2.25
  1
 
  7
MONOTXT
 72
     4
 11
788.268167
 21
-225.99075
 31
0.0
210
0.0
220
0.0
230
1.0
  0
TEXT
  8
1
  6
CONTINUOUS
 62
     7
  5
41B
 10
785.277
 20
-230.36575
 30
0.0
 40
2.25
  1
275
  7
MONOTXT
 72
     4
 11
788.279917
 21
-229.24075
 31
0.0
210
0.0
220
0.0
230
1.0
  0
TEXT
  8
1
  6
CONTINUOUS
 62
     7
  5
41C
 10
785.347833
 20
-233.61575
 30
0.0
 40
2.25
  1
265
  7
MONOTXT
 72
     4
 11
788.279917
 21
-232.49075
 31
0.0
210
0.0
220
0.0
230
1.0
  0
TEXT
  8
1
  6
CONTINUOUS
 62
     7
  5
41D
 10
785.294667
 20
-236.86575
 30
0.0
 40
2.25
  1
250
  7
MONOTXT
 72
     4
 11
788.271
 21
-235.74075
 31
0.0
210
0.0
220
0.0
230
1.0
  0
TEXT
  8
1
  6
CONTINUOUS
 62
     7
  5
41E
 10
785.773083
 20
-240.11575
 30
0.0
 40
2.25
  1
210
  7
MONOTXT
 72
     4
 11
788.271083
 21
-238.99075
 31
0.0
210
0.0
220
0.0
230
1.0
  0
TEXT
  8
1
  6
CONTINUOUS
 62
     7
  5
41F
 10
785.755333
 20
-243.36575
 30
0.0
 40
2.25
  1
175
  7
MONOTXT
 72
     4
 11
788.279917
 21
-242.24075
 31
0.0
210
0.0
220
0.0
230
1.0
  0
TEXT
  8
1
  6
CONTINUOUS
 62
     7
  5
420
 10
785.773083
 20
-246.61575
 30
0.0
 40
2.25
  1
150
  7
MONOTXT
 72
     4
 11
788.271083
 21
-245.49075
 31
0.0
210
0.0
220
0.0
230
1.0
  0
TEXT
  8
1
  6
CONTINUOUS
 62
     7
  5
421
 10
925.466583
 20
-181.1065
 30
0.0
 40
2.25
  1
350
  7
MONOTXT
 72
     4
 11
928.442917
 21
-179.9815
 31
0.0
210
0.0
220
0.0
230
1.0
  0
TEXT
  8
1
  6
CONTINUOUS
 62
     7
  5
422
 10
925.466583
 20
-184.3565
 30
0.0
 40
2.25
  1
325
  7
MONOTXT
 72
     4
 11
928.45175
 21
-183.2315
 31
0.0
210
0.0
220
0.0
230
1.0
  0
TEXT
  8
1
  6
CONTINUOUS
 62
     7
  5
423
 10
925.466583
 20
-187.6065
 30
0.0
 40
2.25
  1
300
  7
MONOTXT
 72
     4
 11
928.442917
 21
-186.4815
 31
0.0
210
0.0
220
0.0
230
1.0
  0
TEXT
  8
1
  6
CONTINUOUS
 62
     7
  5
424
 10
925.448917
 20
-190.8565
 30
0.0
 40
2.25
  1
275
  7
MONOTXT
 72
     4
 11
928.451833
 21
-189.7315
 31
0.0
210
0.0
220
0.0
230
1.0
  0
TEXT
  8
1
  6
CONTINUOUS
 62
     7
  5
425
 10
925.466583
 20
-194.1065
 30
0.0
 40
2.25
  1
250
  7
MONOTXT
 72
     4
 11
928.442917
 21
-192.9815
 31
0.0
210
0.0
220
0.0
230
1.0
  0
TEXT
  8
1
  6
CONTINUOUS
 62
     7
  5
426
 10
925.466583
 20
-197.3565
 30
0.0
 40
2.25
  1
225
  7
MONOTXT
 72
     4
 11
928.45175
 21
-196.2315
 31
0.0
210
0.0
220
0.0
230
1.0
  0
TEXT
  8
1
  6
CONTINUOUS
 62
     7
  5
427
 10
925.466583
 20
-200.6065
 30
0.0
 40
2.25
  1
200
  7
MONOTXT
 72
     4
 11
928.442917
 21
-199.4815
 31
0.0
210
0.0
220
0.0
230
1.0
  0
TEXT
  8
1
  6
CONTINUOUS
 62
     7
  5
428
 10
927.690083
 20
-203.8565
 30
0.0
 40
2.25
  1
 
  7
MONOTXT
 72
     4
 11
928.440083
 21
-202.7315
 31
0.0
210
0.0
220
0.0
230
1.0
  0
TEXT
  8
1
  6
CONTINUOUS
 62
     7
  5
429
 10
925.4135
 20
-207.1065
 30
0.0
 40
2.25
  1
425
  7
MONOTXT
 72
     4
 11
928.451833
 21
-205.9815
 31
0.0
210
0.0
220
0.0
230
1.0
  0
TEXT
  8
1
  6
CONTINUOUS
 62
     7
  5
42A
 10
925.891833
 20
-210.3565
 30
0.0
 40
2.25
  1
415
  7
MONOTXT
 72
     4
 11
928.451833
 21
-209.2315
 31
0.0
210
0.0
220
0.0
230
1.0
  0
TEXT
  8
1
  6
CONTINUOUS
 62
     7
  5
42B
 10
925.4135
 20
-213.6065
 30
0.0
 40
2.25
  1
400
  7
MONOTXT
 72
     4
 11
928.443
 21
-212.4815
 31
0.0
210
0.0
220
0.0
230
1.0
  0
TEXT
  8
1
  6
CONTINUOUS
 62
     7
  5
42C
 10
925.448917
 20
-216.8565
 30
0.0
 40
2.25
  1
375
  7
MONOTXT
 72
     4
 11
928.451833
 21
-215.7315
 31
0.0
210
0.0
220
0.0
230
1.0
  0
TEXT
  8
1
  6
CONTINUOUS
 62
     7
  5
42D
 10
925.466583
 20
-220.1065
 30
0.0
 40
2.25
  1
325
  7
MONOTXT
 72
     4
 11
928.45175
 21
-218.9815
 31
0.0
210
0.0
220
0.0
230
1.0
  0
TEXT
  8
1
  6
CONTINUOUS
 62
     7
  5
42E
 10
925.466583
 20
-223.3565
 30
0.0
 40
2.25
  1
285
  7
MONOTXT
 72
     4
 11
928.45175
 21
-222.2315
 31
0.0
210
0.0
220
0.0
230
1.0
  0
TEXT
  8
1
  6
CONTINUOUS
 62
     7
  5
42F
 10
925.466583
 20
-226.6065
 30
0.0
 40
2.25
  1
225
  7
MONOTXT
 72
     4
 11
928.45175
 21
-225.4815
 31
0.0
210
0.0
220
0.0
230
1.0
  0
TEXT
  8
1
  6
CONTINUOUS
 62
     7
  5
430
 10
925.466583
 20
-229.8565
 30
0.0
 40
2.25
  1
200
  7
MONOTXT
 72
     4
 11
928.442917
 21
-228.7315
 31
0.0
210
0.0
220
0.0
230
1.0
  0
TEXT
  8
1
  6
CONTINUOUS
 62
     7
  5
431
 10
927.690083
 20
-233.1065
 30
0.0
 40
2.25
  1
 
  7
MONOTXT
 72
     4
 11
928.440083
 21
-231.9815
 31
0.0
210
0.0
220
0.0
230
1.0
  0
TEXT
  8
1
  6
CONTINUOUS
 62
     7
  5
432
 10
925.466583
 20
-236.3565
 30
0.0
 40
2.25
  1
500
  7
MONOTXT
 72
     4
 11
928.442917
 21
-235.2315
 31
0.0
210
0.0
220
0.0
230
1.0
  0
TEXT
  8
1
  6
CONTINUOUS
 62
     7
  5
433
 10
925.4135
 20
-239.6065
 30
0.0
 40
2.25
  1
480
  7
MONOTXT
 72
     4
 11
928.443
 21
-238.4815
 31
0.0
210
0.0
220
0.0
230
1.0
  0
TEXT
  8
1
  6
CONTINUOUS
 62
     7
  5
434
 10
925.39575
 20
-242.8565
 30
0.0
 40
2.25
  1
475
  7
MONOTXT
 72
     4
 11
928.451833
 21
-241.7315
 31
0.0
210
0.0
220
0.0
230
1.0
  0
TEXT
  8
1
  6
CONTINUOUS
 62
     7
  5
435
 10
925.4135
 20
-246.1065
 30
0.0
 40
2.25
  1
450
  7
MONOTXT
 72
     4
 11
928.443
 21
-244.9815
 31
0.0
210
0.0
220
0.0
230
1.0
  0
TEXT
  8
1
  6
CONTINUOUS
 62
     7
  5
436
 10
925.4135
 20
-249.3565
 30
0.0
 40
2.25
  1
400
  7
MONOTXT
 72
     4
 11
928.443
 21
-248.2315
 31
0.0
210
0.0
220
0.0
230
1.0
  0
TEXT
  8
1
  6
CONTINUOUS
 62
     7
  5
437
 10
925.51975
 20
-252.6065
 30
0.0
 40
2.25
  1
360
  7
MONOTXT
 72
     4
 11
928.442917
 21
-251.4815
 31
0.0
210
0.0
220
0.0
230
1.0
  0
TEXT
  8
1
  6
CONTINUOUS
 62
     7
  5
438
 10
925.466583
 20
-255.8565
 30
0.0
 40
2.25
  1
300
  7
MONOTXT
 72
     4
 11
928.442917
 21
-254.7315
 31
0.0
210
0.0
220
0.0
230
1.0
  0
TEXT
  8
1
  6
CONTINUOUS
 62
     7
  5
439
 10
925.448917
 20
-259.1065
 30
0.0
 40
2.25
  1
275
  7
MONOTXT
 72
     4
 11
928.451833
 21
-257.9815
 31
0.0
210
0.0
220
0.0
230
1.0
  0
TEXT
  8
1
  6
CONTINUOUS
 62
     7
  5
43A
 10
925.466583
 20
-262.3565
 30
0.0
 40
2.25
  1
250
  7
MONOTXT
 72
     4
 11
928.442917
 21
-261.2315
 31
0.0
210
0.0
220
0.0
230
1.0
  0
TEXT
  8
1
  6
CONTINUOUS
 62
     7
  5
43B
 10
747.88575
 20
-147.2535
 30
0.0
 40
4.0
  1
CHART FOR ADVISORY CURVE DRAWINGS
  7
MONOTXT
 72
     4
 11
811.492
 21
-145.2535
 31
0.0
210
0.0
220
0.0
230
1.0
  0
LINE
  8
1
  6
CONTINUOUS
 62
     7
  5
43C
 10
745.787333
 20
-148.993167
 30
0.0
 11
877.204417
 21
-148.993167
 31
0.0
  0
TEXT
  8
1
  6
CONTINUOUS
 62
     7
  5
43D
 10
573.354833
 20
-143.28525
 30
0.0
 40
2.0
  1
GENERAL NOTES
  7
MONOTXT
 72
     4
 11
585.693333
 21
-142.28525
 31
0.0
210
0.0
220
0.0
230
1.0
  0
LINE
  8
1
  6
CONTINUOUS
 62
     7
  5
43E
 10
572.643333
 20
-144.149
 30
0.0
 11
598.8085
 21
-144.149
 31
0.0
  0
POLYLINE
  8
1
  6
CONTINUOUS
 62
     7
  5
43F
 66
     1
 10
0.0
 20
0.0
 30
0.0
  0
VERTEX
  8
1
  6
CONTINUOUS
 62
     7
  5
440
 10
963.242333
 20
-172.801667
 30
0.0
  0
VERTEX
  8
1
  6
CONTINUOUS
 62
     7
  5
441
 10
961.242333
 20
-176.26575
 30
0.0
  0
VERTEX
  8
1
  6
CONTINUOUS
 62
     7
  5
442
 10
965.242333
 20
-176.26575
 30
0.0
  0
VERTEX
  8
1
  6
CONTINUOUS
 62
     7
  5
443
 10
963.242333
 20
-172.801667
 30
0.0
  0
SEQEND
  8
1
  6
CONTINUOUS
 62
     7
  5
444
  0
POLYLINE
  8
1
  6
CONTINUOUS
 62
     7
  5
445
 66
     1
 10
0.0
 20
0.0
 30
0.0
  0
VERTEX
  8
1
  6
CONTINUOUS
 62
     7
  5
446
 10
963.242333
 20
-168.296917
 30
0.0
  0
VERTEX
  8
1
  6
CONTINUOUS
 62
     7
  5
447
 10
961.242333
 20
-171.761
 30
0.0
  0
VERTEX
  8
1
  6
CONTINUOUS
 62
     7
  5
448
 10
965.242333
 20
-171.761
 30
0.0
  0
VERTEX
  8
1
  6
CONTINUOUS
 62
     7
  5
449
 10
963.242333
 20
-168.296917
 30
0.0
  0
SEQEND
  8
1
  6
CONTINUOUS
 62
     7
  5
44A
  0
POLYLINE
  8
1
  6
CONTINUOUS
 62
     7
  5
44B
 66
     1
 10
0.0
 20
0.0
 30
0.0
  0
VERTEX
  8
1
  6
CONTINUOUS
 62
     7
  5
44C
 10
966.122583
 20
-238.341
 30
0.0
  0
VERTEX
  8
1
  6
CONTINUOUS
 62
     7
  5
44D
 10
964.122583
 20
-241.805083
 30
0.0
  0
VERTEX
  8
1
  6
CONTINUOUS
 62
     7
  5
44E
 10
968.122583
 20
-241.805083
 30
0.0
  0
VERTEX
  8
1
  6
CONTINUOUS
 62
     7
  5
44F
 10
966.122583
 20
-238.341
 30
0.0
  0
SEQEND
  8
1
  6
CONTINUOUS
 62
     7
  5
450
  0
POLYLINE
  8
1
  6
CONTINUOUS
 62
     7
  5
451
 66
     1
 10
0.0
 20
0.0
 30
0.0
  0
VERTEX
  8
1
  6
CONTINUOUS
 62
     7
  5
452
 10
966.197583
 20
-242.844667
 30
0.0
  0
VERTEX
  8
1
  6
CONTINUOUS
 62
     7
  5
453
 10
964.197583
 20
-246.30875
 30
0.0
  0
VERTEX
  8
1
  6
CONTINUOUS
 62
     7
  5
454
 10
968.197583
 20
-246.30875
 30
0.0
  0
VERTEX
  8
1
  6
CONTINUOUS
 62
     7
  5
455
 10
966.197583
 20
-242.844667
 30
0.0
  0
SEQEND
  8
1
  6
CONTINUOUS
 62
     7
  5
456
  0
TEXT
  8
1
  6
CONTINUOUS
 62
     1
  5
457
 10
968.178583
 20
-207.475833
 30
0.0
 40
6.992667
  1
TYPICAL LAYOUT FOR ADVISORY
  7
txt
 72
     1
 11
1046.81425
 21
-200.483167
 31
0.0
210
0.0
220
0.0
230
1.0
 73
     3
  0
TEXT
  8
1
  6
CONTINUOUS
 62
     1
  5
458
 10
1009.0865
 20
-217.423167
 30
0.0
 40
6.992667
  1
CURVE SIGNING
  7
txt
 72
     1
 11
1046.985667
 21
-210.4305
 31
0.0
210
0.0
220
0.0
230
1.0
 73
     3
  0
TEXT
  8
1
  6
CONTINUOUS
 62
     7
  5
459
 10
962.945083
 20
-171.129583
 30
0.0
 40
1.5
  1
1
  7
MONOTXT
 72
     4
 11
963.12225
 21
-170.379583
 31
0.0
210
0.0
220
0.0
230
1.0
  0
TEXT
  8
1
  6
CONTINUOUS
 62
     7
  5
45A
 10
962.74625
 20
-175.634333
 30
0.0
 40
1.5
  1
2
  7
MONOTXT
 72
     4
 11
963.248167
 21
-174.884333
 31
0.0
210
0.0
220
0.0
230
1.0
  0
TEXT
  8
1
  6
CONTINUOUS
 62
     7
  5
45B
 10
966.118833
 20
-170.769167
 30
0.0
 40
1.5
  1
DELETED SIGNATURE BLOCK
  7
MONOTXT
 72
     4
 11
982.282167
 21
-170.019167
 31
0.0
210
0.0
220
0.0
230
1.0
  0
TEXT
  8
1
  6
CONTINUOUS
 62
     7
  5
45C
 10
966.12625
 20
-175.273917
 30
0.0
 40
1.5
  1
CHANGED CHART
  7
MONOTXT
 72
     4
 11
975.55725
 21
-174.523917
 31
0.0
210
0.0
220
0.0
230
1.0
  0
TEXT
  8
1
  6
CONTINUOUS
 62
     7
  5
45D
 10
965.907833
 20
-241.203917
 30
0.0
 40
1.5
  1
1
  7
MONOTXT
 72
     4
 11
966.085
 21
-240.453917
 31
0.0
210
0.0
220
0.0
230
1.0
  0
TEXT
  8
1
  6
CONTINUOUS
 62
     7
  5
45E
 10
965.664
 20
-245.745167
 30
0.0
 40
1.5
  1
2
  7
MONOTXT
 72
     4
 11
966.165917
 21
-244.995167
 31
0.0
210
0.0
220
0.0
230
1.0
  0
TEXT
  8
1
  6
CONTINUOUS
 62
     7
  5
45F
 10
500.3215
 20
-146.66675
 30
0.0
 40
2.0
  1
1.    STANDARD DRAWING C-2A AND C-2B
  7
MONOTXT
 11
500.3215
 21
-144.66675
 31
0.0
210
0.0
220
0.0
230
1.0
 73
     3
  0
TEXT
  8
1
  6
CONTINUOUS
 62
     7
  5
460
 10
500.3215
 20
-149.66675
 30
0.0
 40
2.0
  1
 
  7
MONOTXT
 11
500.3215
 21
-147.66675
 31
0.0
210
0.0
220
0.0
230
1.0
 73
     3
  0
TEXT
  8
1
  6
CONTINUOUS
 62
     7
  5
461
 10
500.3215
 20
-152.66675
 30
0.0
 40
2.0
  1
   1.1    THIS STANDARD IS TO BE USED FOR ADVISORY CURVE SPEEDS OF 30 MPH OR LESS, UNLESS
  7
MONOTXT
 11
500.3215
 21
-150.66675
 31
0.0
210
0.0
220
0.0
230
1.0
 73
     3
  0
TEXT
  8
1
  6
CONTINUOUS
 62
     7
  5
462
 10
500.3215
 20
-155.66675
 30
0.0
 40
2.0
  1
       SPECIFICALLY NOTED OTHERWISE IN THE SIGN PLANS.
  7
MONOTXT
 11
500.3215
 21
-153.66675
 31
0.0
210
0.0
220
0.0
230
1.0
 73
     3
  0
TEXT
  8
1
  6
CONTINUOUS
 62
     7
  5
463
 10
500.3215
 20
-158.66675
 30
0.0
 40
2.0
  1
 
  7
MONOTXT
 11
500.3215
 21
-156.66675
 31
0.0
210
0.0
220
0.0
230
1.0
 73
     3
  0
TEXT
  8
1
  6
CONTINUOUS
 62
     7
  5
464
 10
500.3215
 20
-161.66675
 30
0.0
 40
2.0
  1
   1.2  THE SIGNS SHALL BE A STANDARD SIZE W1-1 OR W1-3, W1-6 AND W13-1, UNLESS SPECIFICALLY
  7
MONOTXT
 11
500.3215
 21
-159.66675
 31
0.0
210
0.0
220
0.0
230
1.0
 73
     3
  0
TEXT
  8
1
  6
CONTINUOUS
 62
     7
  5
465
 10
500.3215
 20
-164.66675
 30
0.0
 40
2.0
  1
       NOTED OTHERWISE IN THE SIGN PLANS.
  7
MONOTXT
 11
500.3215
 21
-162.66675
 31
0.0
210
0.0
220
0.0
230
1.0
 73
     3
  0
TEXT
  8
1
  6
CONTINUOUS
 62
     7
  5
466
 10
500.3215
 20
-167.66675
 30
0.0
 40
2.0
  1
 
  7
MONOTXT
 11
500.3215
 21
-165.66675
 31
0.0
210
0.0
220
0.0
230
1.0
 73
     3
  0
TEXT
  8
1
  6
CONTINUOUS
 62
     7
  5
467
 10
500.3215
 20
-170.66675
 30
0.0
 40
2.0
  1
   1.3  THE STANDARD W1-6 SIGNS SHALL BE ERECTED ON THE OUTSIDE OF A TURN IN LINE WITH, AND
  7
MONOTXT
 11
500.3215
 21
-168.66675
 31
0.0
210
0.0
220
0.0
230
1.0
 73
     3
  0
TEXT
  8
1
  6
CONTINUOUS
 62
     7
  5
468
 10
500.3215
 20
-173.66675
 30
0.0
 40
2.0
  1
       AT RIGHT ANGLES TO, APPROACHING TRAFFIC. NO EXACT SPECIFICATIONS CAN BE GIVEN FOR THE
  7
MONOTXT
 11
500.3215
 21
-171.66675
 31
0.0
210
0.0
220
0.0
230
1.0
 73
     3
  0
TEXT
  8
1
  6
CONTINUOUS
 62
     7
  5
469
 10
500.3215
 20
-176.66675
 30
0.0
 40
2.0
  1
       PLACEMENT OF THE WI-6. ITS LOCATION IS TO BE DETERMINED AT THE TIME THE SIGNS ARE TO
  7
MONOTXT
 11
500.3215
 21
-174.66675
 31
0.0
210
0.0
220
0.0
230
1.0
 73
     3
  0
TEXT
  8
1
  6
CONTINUOUS
 62
     7
  5
46A
 10
500.3215
 20
-179.66675
 30
0.0
 40
2.0
  1
       BE ERECTED.
  7
MONOTXT
 11
500.3215
 21
-177.66675
 31
0.0
210
0.0
220
0.0
230
1.0
 73
     3
  0
TEXT
  8
1
  6
CONTINUOUS
 62
     7
  5
46B
 10
500.3215
 20
-182.66675
 30
0.0
 40
2.0
  1
 
  7
MONOTXT
 11
500.3215
 21
-180.66675
 31
0.0
210
0.0
220
0.0
230
1.0
 73
     3
  0
TEXT
  8
1
  6
CONTINUOUS
 62
     7
  5
46C
 10
500.3215
 20
-185.66675
 30
0.0
 40
2.0
  1
2.   STANDARD DRAWING C-3A AND C-3B
  7
MONOTXT
 11
500.3215
 21
-183.66675
 31
0.0
210
0.0
220
0.0
230
1.0
 73
     3
  0
TEXT
  8
1
  6
CONTINUOUS
 62
     7
  5
46D
 10
500.3215
 20
-188.66675
 30
0.0
 40
2.0
  1
 
  7
MONOTXT
 11
500.3215
 21
-186.66675
 31
0.0
210
0.0
220
0.0
230
1.0
 73
     3
  0
TEXT
  8
1
  6
CONTINUOUS
 62
     7
  5
46E
 10
500.3215
 20
-191.66675
 30
0.0
 40
2.0
  1
   2.1   THIS STANDARD IS TO BE USED FOR ADVISORY CURVE SPEEDS OF 35 MPH OR MORE, UNLESS
  7
MONOTXT
 11
500.3215
 21
-189.66675
 31
0.0
210
0.0
220
0.0
230
1.0
 73
     3
  0
TEXT
  8
1
  6
CONTINUOUS
 62
     7
  5
46F
 10
500.3215
 20
-194.66675
 30
0.0
 40
2.0
  1
       SPECIFICALLY NOTED OTHERWISE IN THE SIGN PLANS.
  7
MONOTXT
 11
500.3215
 21
-192.66675
 31
0.0
210
0.0
220
0.0
230
1.0
 73
     3
  0
TEXT
  8
1
  6
CONTINUOUS
 62
     7
  5
470
 10
500.3215
 20
-197.66675
 30
0.0
 40
2.0
  1
 
  7
MONOTXT
 11
500.3215
 21
-195.66675
 31
0.0
210
0.0
220
0.0
230
1.0
 73
     3
  0
TEXT
  8
1
  6
CONTINUOUS
 62
     7
  5
471
 10
500.3215
 20
-200.66675
 30
0.0
 40
2.0
  1
   2.2 THE SIGNS SHALL BE A STANDARD SIZE W1-2 OR W1-4 AND W13-1, UNLESS SPECIFICALLY NOTED
  7
MONOTXT
 11
500.3215
 21
-198.66675
 31
0.0
210
0.0
220
0.0
230
1.0
 73
     3
  0
TEXT
  8
1
  6
CONTINUOUS
 62
     7
  5
472
 10
500.3215
 20
-203.66675
 30
0.0
 40
2.0
  1
       OTHERWISE IN THE SIGN PLANS.
  7
MONOTXT
 11
500.3215
 21
-201.66675
 31
0.0
210
0.0
220
0.0
230
1.0
 73
     3
  0
TEXT
  8
1
  6
CONTINUOUS
 62
     7
  5
473
 10
500.3215
 20
-206.66675
 30
0.0
 40
2.0
  1
 
  7
MONOTXT
 11
500.3215
 21
-204.66675
 31
0.0
210
0.0
220
0.0
230
1.0
 73
     3
  0
TEXT
  8
1
  6
CONTINUOUS
 62
     7
  5
474
 10
500.3215
 20
-209.66675
 30
0.0
 40
2.0
  1
3.   STANDARD DRAWING C-4
  7
MONOTXT
 11
500.3215
 21
-207.66675
 31
0.0
210
0.0
220
0.0
230
1.0
 73
     3
  0
TEXT
  8
1
  6
CONTINUOUS
 62
     7
  5
475
 10
500.3215
 20
-212.66675
 30
0.0
 40
2.0
  1
 
  7
MONOTXT
 11
500.3215
 21
-210.66675
 31
0.0
210
0.0
220
0.0
230
1.0
 73
     3
  0
TEXT
  8
1
  6
CONTINUOUS
 62
     7
  5
476
 10
500.3215
 20
-215.66675
 30
0.0
 40
2.0
  1
   3.1   THIS STANDARD IS USED FOR A SERIES OF CURVES, 35 MPH OR MORE, UNLESS SPECIFICALLY
  7
MONOTXT
 11
500.3215
 21
-213.66675
 31
0.0
210
0.0
220
0.0
230
1.0
 73
     3
  0
TEXT
  8
1
  6
CONTINUOUS
 62
     7
  5
477
 10
500.3215
 20
-218.66675
 30
0.0
 40
2.0
  1
       NOTED OTHERWISE IN THE SIGN PLANS.
  7
MONOTXT
 11
500.3215
 21
-216.66675
 31
0.0
210
0.0
220
0.0
230
1.0
 73
     3
  0
TEXT
  8
1
  6
CONTINUOUS
 62
     7
  5
478
 10
500.3215
 20
-221.66675
 30
0.0
 40
2.0
  1
 
  7
MONOTXT
 11
500.3215
 21
-219.66675
 31
0.0
210
0.0
220
0.0
230
1.0
 73
     3
  0
TEXT
  8
1
  6
CONTINUOUS
 62
     7
  5
479
 10
500.3215
 20
-224.66675
 30
0.0
 40
2.0
  1
   3.2 THE SIGNS SHALL BE A STANDARD SIZE W1-2, W1-5 AND W13-1, UNLESS SPECIFICALLY NOTED
  7
MONOTXT
 11
500.3215
 21
-222.66675
 31
0.0
210
0.0
220
0.0
230
1.0
 73
     3
  0
TEXT
  8
1
  6
CONTINUOUS
 62
     7
  5
47A
 10
500.3215
 20
-227.66675
 30
0.0
 40
2.0
  1
       OTHERWISE IN THE SIGN PLANS.
  7
MONOTXT
 11
500.3215
 21
-225.66675
 31
0.0
210
0.0
220
0.0
230
1.0
 73
     3
  0
TEXT
  8
1
  6
CONTINUOUS
 62
     7
  5
47B
 10
500.3215
 20
-230.66675
 30
0.0
 40
2.0
  1
 
  7
MONOTXT
 11
500.3215
 21
-228.66675
 31
0.0
210
0.0
220
0.0
230
1.0
 73
     3
  0
TEXT
  8
1
  6
CONTINUOUS
 62
     7
  5
47C
 10
500.3215
 20
-233.66675
 30
0.0
 40
2.0
  1
4.   STANDARD DRAWING C-5
  7
MONOTXT
 11
500.3215
 21
-231.66675
 31
0.0
210
0.0
220
0.0
230
1.0
 73
     3
  0
TEXT
  8
1
  6
CONTINUOUS
 62
     7
  5
47D
 10
500.3215
 20
-236.66675
 30
0.0
 40
2.0
  1
 
  7
MONOTXT
 11
500.3215
 21
-234.66675
 31
0.0
210
0.0
220
0.0
230
1.0
 73
     3
  0
TEXT
  8
1
  6
CONTINUOUS
 62
     7
  5
47E
 10
500.3215
 20
-239.66675
 30
0.0
 40
2.0
  1
   4.1   THIS STANDARD IS USED FOR A SERIES OF CURVES, 30 MPH OR LESS, UNLESS SPECIFICALLY
  7
MONOTXT
 11
500.3215
 21
-237.66675
 31
0.0
210
0.0
220
0.0
230
1.0
 73
     3
  0
TEXT
  8
1
  6
CONTINUOUS
 62
     7
  5
47F
 10
500.3215
 20
-242.66675
 30
0.0
 40
2.0
  1
       NOTED OTHERWISE IN THE SIGN PLANS.
  7
MONOTXT
 11
500.3215
 21
-240.66675
 31
0.0
210
0.0
220
0.0
230
1.0
 73
     3
  0
TEXT
  8
1
  6
CONTINUOUS
 62
     7
  5
480
 10
500.3215
 20
-245.66675
 30
0.0
 40
2.0
  1
 
  7
MONOTXT
 11
500.3215
 21
-243.66675
 31
0.0
210
0.0
220
0.0
230
1.0
 73
     3
  0
TEXT
  8
1
  6
CONTINUOUS
 62
     7
  5
481
 10
500.3215
 20
-248.66675
 30
0.0
 40
2.0
  1
   4.2 THE SIGNS SHALL BE A STANDARD SIZE W1-1 OR W1-5, AND W1-6 AND W13-1, UNLESS SPECIFICAL-
  7
MONOTXT
 11
500.3215
 21
-246.66675
 31
0.0
210
0.0
220
0.0
230
1.0
 73
     3
  0
TEXT
  8
1
  6
CONTINUOUS
 62
     7
  5
482
 10
500.3215
 20
-251.66675
 30
0.0
 40
2.0
  1
       LY NOTED OTHERWISE IN THE SIGN PLANS.
  7
MONOTXT
 11
500.3215
 21
-249.66675
 31
0.0
210
0.0
220
0.0
230
1.0
 73
     3
  0
TEXT
  8
1
  6
CONTINUOUS
 62
     7
  5
483
 10
500.3215
 20
-254.66675
 30
0.0
 40
2.0
  1
 
  7
MONOTXT
 11
500.3215
 21
-252.66675
 31
0.0
210
0.0
220
0.0
230
1.0
 73
     3
  0
TEXT
  8
1
  6
CONTINUOUS
 62
     7
  5
484
 10
500.3215
 20
-257.66675
 30
0.0
 40
2.0
  1
   4.3 THE STANDARD W1-6 SIGNS SHOULD BE ERECTED ON THE OUTSIDE OF A TURN, IN LINE WITH, AND
  7
MONOTXT
 11
500.3215
 21
-255.66675
 31
0.0
210
0.0
220
0.0
230
1.0
 73
     3
  0
TEXT
  8
1
  6
CONTINUOUS
 62
     7
  5
485
 10
500.3215
 20
-260.66675
 30
0.0
 40
2.0
  1
       AT RIGHT ANGLES TO, APPROACHING TRAFFIC. NO EXACT SPECIFICATIONS CAN BE GIVEN FOR THE
  7
MONOTXT
 11
500.3215
 21
-258.66675
 31
0.0
210
0.0
220
0.0
230
1.0
 73
     3
  0
TEXT
  8
1
  6
CONTINUOUS
 62
     7
  5
486
 10
500.3215
 20
-263.66675
 30
0.0
 40
2.0
  1
       PLACEMENT OF THE W1-6. ITS LOCATION IS TO BE DETERMINED AT THE TIME THE SIGNS ARE TO
  7
MONOTXT
 11
500.3215
 21
-261.66675
 31
0.0
210
0.0
220
0.0
230
1.0
 73
     3
  0
TEXT
  8
1
  6
CONTINUOUS
 62
     7
  5
487
 10
500.3215
 20
-266.66675
 30
0.0
 40
2.0
  1
       BE ERECTED.
  7
MONOTXT
 11
500.3215
 21
-264.66675
 31
0.0
210
0.0
220
0.0
230
1.0
 73
     3
  0
POLYLINE
  8
1
  6
CONTINUOUS
 62
     1
  5
488
 66
     1
 10
0.0
 20
0.0
 30
0.0
  0
VERTEX
  8
1
  6
CONTINUOUS
 62
     1
  5
489
 10
666.92975
 20
-59.421583
 30
0.0
  0
VERTEX
  8
1
  6
CONTINUOUS
 62
     1
  5
48A
 10
666.92975
 20
-58.123
 30
0.0
  0
VERTEX
  8
1
  6
CONTINUOUS
 62
     1
  5
48B
 10
668.036833
 20
-58.123
 30
0.0
  0
VERTEX
  8
1
  6
CONTINUOUS
 62
     1
  5
48C
 10
668.040866
 20
-58.120019
 30
0.0
 42
-0.241827
  0
VERTEX
  8
1
  6
CONTINUOUS
 62
     1
  5
48D
 10
669.555864
 20
-58.893833
 30
0.0
  0
VERTEX
  8
1
  6
CONTINUOUS
 62
     1
  5
48E
 10
669.551917
 20
-58.897167
 30
0.0
  0
VERTEX
  8
1
  6
CONTINUOUS
 62
     1
  5
48F
 10
670.850417
 20
-60.695167
 30
0.0
  0
VERTEX
  8
1
  6
CONTINUOUS
 62
     1
  5
490
 10
670.851769
 20
-60.693183
 30
0.0
 42
0.239506
  0
VERTEX
  8
1
  6
CONTINUOUS
 62
     1
  5
491
 10
671.303937
 20
-60.926259
 30
0.0
  0
VERTEX
  8
1
  6
CONTINUOUS
 62
     1
  5
492
 10
671.383167
 20
-60.92825
 30
0.0
  0
VERTEX
  8
1
  6
CONTINUOUS
 62
     1
  5
493
 10
671.116833
 20
-60.070917
 30
0.0
  0
VERTEX
  8
1
  6
CONTINUOUS
 62
     1
  5
494
 10
671.117476
 20
-60.068538
 30
0.0
 42
-0.686095
  0
VERTEX
  8
1
  6
CONTINUOUS
 62
     1
  5
495
 10
671.546337
 20
-59.742231
 30
0.0
  0
VERTEX
  8
1
  6
CONTINUOUS
 62
     1
  5
496
 10
671.549667
 20
-59.74625
 30
0.0
  0
VERTEX
  8
1
  6
CONTINUOUS
 62
     1
  5
497
 10
674.19675
 20
-61.5775
 30
0.0
  0
VERTEX
  8
1
  6
CONTINUOUS
 62
     1
  5
498
 10
671.549667
 20
-63.417167
 30
0.0
  0
VERTEX
  8
1
  6
CONTINUOUS
 62
     1
  5
499
 10
671.546337
 20
-63.415516
 30
0.0
 42
-0.686315
  0
VERTEX
  8
1
  6
CONTINUOUS
 62
     1
  5
49A
 10
671.117476
 20
-63.089209
 30
0.0
  0
VERTEX
  8
1
  6
CONTINUOUS
 62
     1
  5
49B
 10
671.116833
 20
-63.092583
 30
0.0
  0
VERTEX
  8
1
  6
CONTINUOUS
 62
     1
  5
49C
 10
671.383167
 20
-62.235167
 30
0.0
  0
VERTEX
  8
1
  6
CONTINUOUS
 62
     1
  5
49D
 10
671.308599
 20
-62.231488
 30
0.0
 42
-0.241827
  0
VERTEX
  8
1
  6
CONTINUOUS
 62
     1
  5
49E
 10
669.793602
 20
-61.457674
 30
0.0
  0
VERTEX
  8
1
  6
CONTINUOUS
 62
     1
  5
49F
 10
669.79325
 20
-61.461
 30
0.0
  0
VERTEX
  8
1
  6
CONTINUOUS
 62
     1
  5
4A0
 10
668.49475
 20
-59.654667
 30
0.0
  0
VERTEX
  8
1
  6
CONTINUOUS
 62
     1
  5
4A1
 10
668.497696
 20
-59.658323
 30
0.0
 42
0.242646
  0
VERTEX
  8
1
  6
CONTINUOUS
 62
     1
  5
4A2
 10
668.045528
 20
-59.425247
 30
0.0
  0
VERTEX
  8
1
  6
CONTINUOUS
 62
     1
  5
4A3
 10
668.045167
 20
-59.421583
 30
0.0
  0
VERTEX
  8
1
  6
CONTINUOUS
 62
     1
  5
4A4
 10
666.92975
 20
-59.421583
 30
0.0
  0
SEQEND
  8
1
  6
CONTINUOUS
 62
     1
  5
4A5
  0
POLYLINE
  8
1
  6
CONTINUOUS
 62
     1
  5
4A6
 66
     1
 10
0.0
 20
0.0
 30
0.0
  0
VERTEX
  8
1
  6
CONTINUOUS
 62
     1
  5
4A7
 10
801.081167
 20
-92.084667
 30
0.0
  0
VERTEX
  8
1
  6
CONTINUOUS
 62
     1
  5
4A8
 10
801.081167
 20
-93.38325
 30
0.0
  0
VERTEX
  8
1
  6
CONTINUOUS
 62
     1
  5
4A9
 10
799.974083
 20
-93.38325
 30
0.0
  0
VERTEX
  8
1
  6
CONTINUOUS
 62
     1
  5
4AA
 10
799.97005
 20
-93.386231
 30
0.0
 42
-0.241827
  0
VERTEX
  8
1
  6
CONTINUOUS
 62
     1
  5
4AB
 10
798.455053
 20
-92.612417
 30
0.0
  0
VERTEX
  8
1
  6
CONTINUOUS
 62
     1
  5
4AC
 10
798.459
 20
-92.609083
 30
0.0
  0
VERTEX
  8
1
  6
CONTINUOUS
 62
     1
  5
4AD
 10
797.1605
 20
-90.811083
 30
0.0
  0
VERTEX
  8
1
  6
CONTINUOUS
 62
     1
  5
4AE
 10
797.159148
 20
-90.813067
 30
0.0
 42
0.239506
  0
VERTEX
  8
1
  6
CONTINUOUS
 62
     1
  5
4AF
 10
796.706979
 20
-90.579991
 30
0.0
  0
VERTEX
  8
1
  6
CONTINUOUS
 62
     1
  5
4B0
 10
796.62775
 20
-90.578
 30
0.0
  0
VERTEX
  8
1
  6
CONTINUOUS
 62
     1
  5
4B1
 10
796.894083
 20
-91.435333
 30
0.0
  0
VERTEX
  8
1
  6
CONTINUOUS
 62
     1
  5
4B2
 10
796.893441
 20
-91.437712
 30
0.0
 42
-0.686095
  0
VERTEX
  8
1
  6
CONTINUOUS
 62
     1
  5
4B3
 10
796.46458
 20
-91.764019
 30
0.0
  0
VERTEX
  8
1
  6
CONTINUOUS
 62
     1
  5
4B4
 10
796.46125
 20
-91.76
 30
0.0
  0
VERTEX
  8
1
  6
CONTINUOUS
 62
     1
  5
4B5
 10
793.814167
 20
-89.92875
 30
0.0
  0
VERTEX
  8
1
  6
CONTINUOUS
 62
     1
  5
4B6
 10
796.46125
 20
-88.089083
 30
0.0
  0
VERTEX
  8
1
  6
CONTINUOUS
 62
     1
  5
4B7
 10
796.46458
 20
-88.090734
 30
0.0
 42
-0.686315
  0
VERTEX
  8
1
  6
CONTINUOUS
 62
     1
  5
4B8
 10
796.893441
 20
-88.417041
 30
0.0
  0
VERTEX
  8
1
  6
CONTINUOUS
 62
     1
  5
4B9
 10
796.894083
 20
-88.413667
 30
0.0
  0
VERTEX
  8
1
  6
CONTINUOUS
 62
     1
  5
4BA
 10
796.62775
 20
-89.271083
 30
0.0
  0
VERTEX
  8
1
  6
CONTINUOUS
 62
     1
  5
4BB
 10
796.702318
 20
-89.274762
 30
0.0
 42
-0.241827
  0
VERTEX
  8
1
  6
CONTINUOUS
 62
     1
  5
4BC
 10
798.217315
 20
-90.048576
 30
0.0
  0
VERTEX
  8
1
  6
CONTINUOUS
 62
     1
  5
4BD
 10
798.217667
 20
-90.04525
 30
0.0
  0
VERTEX
  8
1
  6
CONTINUOUS
 62
     1
  5
4BE
 10
799.516167
 20
-91.851583
 30
0.0
  0
VERTEX
  8
1
  6
CONTINUOUS
 62
     1
  5
4BF
 10
799.51322
 20
-91.847927
 30
0.0
 42
0.242646
  0
VERTEX
  8
1
  6
CONTINUOUS
 62
     1
  5
4C0
 10
799.965389
 20
-92.081003
 30
0.0
  0
VERTEX
  8
1
  6
CONTINUOUS
 62
     1
  5
4C1
 10
799.96575
 20
-92.084667
 30
0.0
  0
VERTEX
  8
1
  6
CONTINUOUS
 62
     1
  5
4C2
 10
801.081167
 20
-92.084667
 30
0.0
  0
SEQEND
  8
1
  6
CONTINUOUS
 62
     1
  5
4C3
  0
POLYLINE
  8
1
  6
CONTINUOUS
 62
     1
  5
4C4
 66
     1
 10
0.0
 20
0.0
 30
0.0
  0
VERTEX
  8
1
  6
CONTINUOUS
 62
     1
  5
4C5
 10
830.265
 20
-44.487583
 30
0.0
  0
VERTEX
  8
1
  6
CONTINUOUS
 62
     1
  5
4C6
 10
830.265
 20
-43.280667
 30
0.0
  0
VERTEX
  8
1
  6
CONTINUOUS
 62
     1
  5
4C7
 10
830.84075
 20
-43.280667
 30
0.0
  0
VERTEX
  8
1
  6
CONTINUOUS
 62
     1
  5
4C8
 10
830.840724
 20
-43.279619
 30
0.0
 42
-0.298603
  0
VERTEX
  8
1
  6
CONTINUOUS
 62
     1
  5
4C9
 10
832.248507
 20
-44.202602
 30
0.0
  0
VERTEX
  8
1
  6
CONTINUOUS
 62
     1
  5
4CA
 10
832.248506
 20
-44.202602
 30
0.0
 42
0.700308
  0
VERTEX
  8
1
  6
CONTINUOUS
 62
     1
  5
4CB
 10
832.859167
 20
-44.16531
 30
0.0
  0
VERTEX
  8
1
  6
CONTINUOUS
 62
     1
  5
4CC
 10
832.862167
 20
-44.163
 30
0.0
  0
VERTEX
  8
1
  6
CONTINUOUS
 62
     1
  5
4CD
 10
833.128583
 20
-43.263917
 30
0.0
  0
VERTEX
  8
1
  6
CONTINUOUS
 62
     1
  5
4CE
 10
833.124873
 20
-43.260973
 30
0.0
 42
-0.805227
  0
VERTEX
  8
1
  6
CONTINUOUS
 62
     1
  5
4CF
 10
836.122238
 20
-43.46608
 30
0.0
  0
VERTEX
  8
1
  6
CONTINUOUS
 62
     1
  5
4D0
 10
836.122237
 20
-43.466081
 30
0.0
 42
0.374835
  0
VERTEX
  8
1
  6
CONTINUOUS
 62
     1
  5
4D1
 10
836.443883
 20
-43.745772
 30
0.0
  0
VERTEX
  8
1
  6
CONTINUOUS
 62
     1
  5
4D2
 10
836.441583
 20
-43.74675
 30
0.0
  0
VERTEX
  8
1
  6
CONTINUOUS
 62
     1
  5
4D3
 10
836.641333
 20
-43.74675
 30
0.0
  0
VERTEX
  8
1
  6
CONTINUOUS
 62
     1
  5
4D4
 10
836.399917
 20
-42.947667
 30
0.0
  0
VERTEX
  8
1
  6
CONTINUOUS
 62
     1
  5
4D5
 10
836.401929
 20
-42.948651
 30
0.0
 42
-0.691256
  0
VERTEX
  8
1
  6
CONTINUOUS
 62
     1
  5
4D6
 10
836.798159
 20
-42.645651
 30
0.0
  0
VERTEX
  8
1
  6
CONTINUOUS
 62
     1
  5
4D7
 10
836.7995
 20
-42.648
 30
0.0
  0
VERTEX
  8
1
  6
CONTINUOUS
 62
     1
  5
4D8
 10
839.2635
 20
-44.354417
 30
0.0
  0
VERTEX
  8
1
  6
CONTINUOUS
 62
     1
  5
4D9
 10
836.7995
 20
-46.060917
 30
0.0
  0
VERTEX
  8
1
  6
CONTINUOUS
 62
     1
  5
4DA
 10
836.798159
 20
-46.057891
 30
0.0
 42
-0.691256
  0
VERTEX
  8
1
  6
CONTINUOUS
 62
     1
  5
4DB
 10
836.401929
 20
-45.754892
 30
0.0
  0
VERTEX
  8
1
  6
CONTINUOUS
 62
     1
  5
4DC
 10
836.399917
 20
-45.752917
 30
0.0
  0
VERTEX
  8
1
  6
CONTINUOUS
 62
     1
  5
4DD
 10
836.641333
 20
-44.95375
 30
0.0
  0
VERTEX
  8
1
  6
CONTINUOUS
 62
     1
  5
4DE
 10
836.448544
 20
-44.957771
 30
0.0
 42
-0.371734
  0
VERTEX
  8
1
  6
CONTINUOUS
 62
     1
  5
4DF
 10
834.924224
 20
-43.652542
 30
0.0
  0
VERTEX
  8
1
  6
CONTINUOUS
 62
     1
  5
4E0
 10
834.924224
 20
-43.652542
 30
0.0
 42
0.805919
  0
VERTEX
  8
1
  6
CONTINUOUS
 62
     1
  5
4E1
 10
834.285595
 20
-43.605927
 30
0.0
  0
VERTEX
  8
1
  6
CONTINUOUS
 62
     1
  5
4E2
 10
834.285583
 20
-43.60525
 30
0.0
  0
VERTEX
  8
1
  6
CONTINUOUS
 62
     1
  5
4E3
 10
834.0275
 20
-44.512583
 30
0.0
  0
VERTEX
  8
1
  6
CONTINUOUS
 62
     1
  5
4E4
 10
834.02455
 20
-44.510263
 30
0.0
 42
-0.701436
  0
VERTEX
  8
1
  6
CONTINUOUS
 62
     1
  5
4E5
 10
831.139062
 20
-44.696725
 30
0.0
  0
VERTEX
  8
1
  6
CONTINUOUS
 62
     1
  5
4E6
 10
831.139062
 20
-44.696724
 30
0.0
 42
0.298446
  0
VERTEX
  8
1
  6
CONTINUOUS
 62
     1
  5
4E7
 10
830.840724
 20
-44.491617
 30
0.0
  0
VERTEX
  8
1
  6
CONTINUOUS
 62
     1
  5
4E8
 10
830.839417
 20
-44.487583
 30
0.0
  0
VERTEX
  8
1
  6
CONTINUOUS
 62
     1
  5
4E9
 10
830.265
 20
-44.487583
 30
0.0
  0
SEQEND
  8
1
  6
CONTINUOUS
 62
     1
  5
4EA
  0
POLYLINE
  8
1
  6
CONTINUOUS
 62
     1
  5
4EB
 66
     1
 10
0.0
 20
0.0
 30
0.0
  0
VERTEX
  8
1
  6
CONTINUOUS
 62
     1
  5
4EC
 10
1117.337167
 20
-101.2665
 30
0.0
  0
VERTEX
  8
1
  6
CONTINUOUS
 62
     1
  5
4ED
 10
1117.337167
 20
-102.473417
 30
0.0
  0
VERTEX
  8
1
  6
CONTINUOUS
 62
     1
  5
4EE
 10
1116.761417
 20
-102.473417
 30
0.0
  0
VERTEX
  8
1
  6
CONTINUOUS
 62
     1
  5
4EF
 10
1116.761442
 20
-102.474464
 30
0.0
 42
-0.298603
  0
VERTEX
  8
1
  6
CONTINUOUS
 62
     1
  5
4F0
 10
1115.35366
 20
-101.551481
 30
0.0
  0
VERTEX
  8
1
  6
CONTINUOUS
 62
     1
  5
4F1
 10
1115.35366
 20
-101.551481
 30
0.0
 42
0.700308
  0
VERTEX
  8
1
  6
CONTINUOUS
 62
     1
  5
4F2
 10
1114.743
 20
-101.588773
 30
0.0
  0
VERTEX
  8
1
  6
CONTINUOUS
 62
     1
  5
4F3
 10
1114.74
 20
-101.591083
 30
0.0
  0
VERTEX
  8
1
  6
CONTINUOUS
 62
     1
  5
4F4
 10
1114.473583
 20
-102.490167
 30
0.0
  0
VERTEX
  8
1
  6
CONTINUOUS
 62
     1
  5
4F5
 10
1114.477293
 20
-102.49311
 30
0.0
 42
-0.805227
  0
VERTEX
  8
1
  6
CONTINUOUS
 62
     1
  5
4F6
 10
1111.479929
 20
-102.288003
 30
0.0
  0
VERTEX
  8
1
  6
CONTINUOUS
 62
     1
  5
4F7
 10
1111.479929
 20
-102.288003
 30
0.0
 42
0.374835
  0
VERTEX
  8
1
  6
CONTINUOUS
 62
     1
  5
4F8
 10
1111.158284
 20
-102.008311
 30
0.0
  0
VERTEX
  8
1
  6
CONTINUOUS
 62
     1
  5
4F9
 10
1111.160583
 20
-102.007333
 30
0.0
  0
VERTEX
  8
1
  6
CONTINUOUS
 62
     1
  5
4FA
 10
1110.960833
 20
-102.007333
 30
0.0
  0
VERTEX
  8
1
  6
CONTINUOUS
 62
     1
  5
4FB
 10
1111.20225
 20
-102.806417
 30
0.0
  0
VERTEX
  8
1
  6
CONTINUOUS
 62
     1
  5
4FC
 10
1111.200238
 20
-102.805432
 30
0.0
 42
-0.691256
  0
VERTEX
  8
1
  6
CONTINUOUS
 62
     1
  5
4FD
 10
1110.804008
 20
-103.108432
 30
0.0
  0
VERTEX
  8
1
  6
CONTINUOUS
 62
     1
  5
4FE
 10
1110.802667
 20
-103.106083
 30
0.0
  0
VERTEX
  8
1
  6
CONTINUOUS
 62
     1
  5
4FF
 10
1108.338667
 20
-101.399667
 30
0.0
  0
VERTEX
  8
1
  6
CONTINUOUS
 62
     1
  5
500
 10
1110.802667
 20
-99.693167
 30
0.0
  0
VERTEX
  8
1
  6
CONTINUOUS
 62
     1
  5
501
 10
1110.804008
 20
-99.696192
 30
0.0
 42
-0.691256
  0
VERTEX
  8
1
  6
CONTINUOUS
 62
     1
  5
502
 10
1111.200238
 20
-99.999192
 30
0.0
  0
VERTEX
  8
1
  6
CONTINUOUS
 62
     1
  5
503
 10
1111.20225
 20
-100.001167
 30
0.0
  0
VERTEX
  8
1
  6
CONTINUOUS
 62
     1
  5
504
 10
1110.960833
 20
-100.800333
 30
0.0
  0
VERTEX
  8
1
  6
CONTINUOUS
 62
     1
  5
505
 10
1111.153622
 20
-100.796313
 30
0.0
 42
-0.371734
  0
VERTEX
  8
1
  6
CONTINUOUS
 62
     1
  5
506
 10
1112.677943
 20
-102.101541
 30
0.0
  0
VERTEX
  8
1
  6
CONTINUOUS
 62
     1
  5
507
 10
1112.677942
 20
-102.101542
 30
0.0
 42
0.805919
  0
VERTEX
  8
1
  6
CONTINUOUS
 62
     1
  5
508
 10
1113.316572
 20
-102.148157
 30
0.0
  0
VERTEX
  8
1
  6
CONTINUOUS
 62
     1
  5
509
 10
1113.316583
 20
-102.148833
 30
0.0
  0
VERTEX
  8
1
  6
CONTINUOUS
 62
     1
  5
50A
 10
1113.574667
 20
-101.2415
 30
0.0
  0
VERTEX
  8
1
  6
CONTINUOUS
 62
     1
  5
50B
 10
1113.577617
 20
-101.24382
 30
0.0
 42
-0.701436
  0
VERTEX
  8
1
  6
CONTINUOUS
 62
     1
  5
50C
 10
1116.463105
 20
-101.057359
 30
0.0
  0
VERTEX
  8
1
  6
CONTINUOUS
 62
     1
  5
50D
 10
1116.463104
 20
-101.057359
 30
0.0
 42
0.298446
  0
VERTEX
  8
1
  6
CONTINUOUS
 62
     1
  5
50E
 10
1116.761442
 20
-101.262466
 30
0.0
  0
VERTEX
  8
1
  6
CONTINUOUS
 62
     1
  5
50F
 10
1116.76275
 20
-101.2665
 30
0.0
  0
VERTEX
  8
1
  6
CONTINUOUS
 62
     1
  5
510
 10
1117.337167
 20
-101.2665
 30
0.0
  0
SEQEND
  8
1
  6
CONTINUOUS
 62
     1
  5
511
  0
POLYLINE
  8
1
  6
CONTINUOUS
 62
     1
  5
512
 66
     1
 10
0.0
 20
0.0
 30
0.0
  0
VERTEX
  8
1
  6
CONTINUOUS
 62
     1
  5
513
 10
825.294583
 20
87.661167
 30
0.0
  0
VERTEX
  8
1
  6
CONTINUOUS
 62
     1
  5
514
 10
825.460667
 20
88.856583
 30
0.0
  0
VERTEX
  8
1
  6
CONTINUOUS
 62
     1
  5
515
 10
826.030917
 20
88.777417
 30
0.0
  0
VERTEX
  8
1
  6
CONTINUOUS
 62
     1
  5
516
 10
826.031048
 20
88.778432
 30
0.0
 42
-0.298603
  0
VERTEX
  8
1
  6
CONTINUOUS
 62
     1
  5
517
 10
827.298425
 20
87.670503
 30
0.0
  0
VERTEX
  8
1
  6
CONTINUOUS
 62
     1
  5
518
 10
827.298424
 20
87.670503
 30
0.0
 42
0.700308
  0
VERTEX
  8
1
  6
CONTINUOUS
 62
     1
  5
519
 10
827.908407
 20
87.623407
 30
0.0
  0
VERTEX
  8
1
  6
CONTINUOUS
 62
     1
  5
51A
 10
827.911667
 20
87.62525
 30
0.0
  0
VERTEX
  8
1
  6
CONTINUOUS
 62
     1
  5
51B
 10
828.299333
 20
88.479167
 30
0.0
  0
VERTEX
  8
1
  6
CONTINUOUS
 62
     1
  5
51C
 10
828.296032
 20
88.482576
 30
0.0
 42
-0.805227
  0
VERTEX
  8
1
  6
CONTINUOUS
 62
     1
  5
51D
 10
831.236656
 20
87.866951
 30
0.0
  0
VERTEX
  8
1
  6
CONTINUOUS
 62
     1
  5
51E
 10
831.236656
 20
87.866951
 30
0.0
 42
0.374835
  0
VERTEX
  8
1
  6
CONTINUOUS
 62
     1
  5
51F
 10
831.516753
 20
87.545658
 30
0.0
  0
VERTEX
  8
1
  6
CONTINUOUS
 62
     1
  5
520
 10
831.514333
 20
87.545
 30
0.0
  0
VERTEX
  8
1
  6
CONTINUOUS
 62
     1
  5
521
 10
831.712167
 20
87.5175
 30
0.0
  0
VERTEX
  8
1
  6
CONTINUOUS
 62
     1
  5
522
 10
831.583
 20
88.34225
 30
0.0
  0
VERTEX
  8
1
  6
CONTINUOUS
 62
     1
  5
523
 10
831.58489
 20
88.34097
 30
0.0
 42
-0.691256
  0
VERTEX
  8
1
  6
CONTINUOUS
 62
     1
  5
524
 10
832.019047
 20
88.586561
 30
0.0
  0
VERTEX
  8
1
  6
CONTINUOUS
 62
     1
  5
525
 10
832.020083
 20
88.584083
 30
0.0
  0
VERTEX
  8
1
  6
CONTINUOUS
 62
     1
  5
526
 10
834.22575
 20
86.554833
 30
0.0
  0
VERTEX
  8
1
  6
CONTINUOUS
 62
     1
  5
527
 10
831.550417
 20
85.203583
 30
0.0
  0
VERTEX
  8
1
  6
CONTINUOUS
 62
     1
  5
528
 10
831.549486
 20
85.206784
 30
0.0
 42
-0.691256
  0
VERTEX
  8
1
  6
CONTINUOUS
 62
     1
  5
529
 10
831.198722
 20
85.561426
 30
0.0
  0
VERTEX
  8
1
  6
CONTINUOUS
 62
     1
  5
52A
 10
831.197
 20
85.563667
 30
0.0
  0
VERTEX
  8
1
  6
CONTINUOUS
 62
     1
  5
52B
 10
831.546083
 20
86.322
 30
0.0
  0
VERTEX
  8
1
  6
CONTINUOUS
 62
     1
  5
52C
 10
831.354586
 20
86.344549
 30
0.0
 42
-0.371734
  0
VERTEX
  8
1
  6
CONTINUOUS
 62
     1
  5
52D
 10
830.02438
 20
87.847123
 30
0.0
  0
VERTEX
  8
1
  6
CONTINUOUS
 62
     1
  5
52E
 10
830.024381
 20
87.847123
 30
0.0
 42
0.805919
  0
VERTEX
  8
1
  6
CONTINUOUS
 62
     1
  5
52F
 10
829.398242
 20
87.981177
 30
0.0
  0
VERTEX
  8
1
  6
CONTINUOUS
 62
     1
  5
530
 10
829.398333
 20
87.981833
 30
0.0
  0
VERTEX
  8
1
  6
CONTINUOUS
 62
     1
  5
531
 10
829.017833
 20
87.118667
 30
0.0
  0
VERTEX
  8
1
  6
CONTINUOUS
 62
     1
  5
532
 10
829.015234
 20
87.121366
 30
0.0
 42
-0.701436
  0
VERTEX
  8
1
  6
CONTINUOUS
 62
     1
  5
533
 10
826.131538
 20
87.333753
 30
0.0
  0
VERTEX
  8
1
  6
CONTINUOUS
 62
     1
  5
534
 10
826.131539
 20
87.333753
 30
0.0
 42
0.298446
  0
VERTEX
  8
1
  6
CONTINUOUS
 62
     1
  5
535
 10
825.864264
 20
87.577964
 30
0.0
  0
VERTEX
  8
1
  6
CONTINUOUS
 62
     1
  5
536
 10
825.8635
 20
87.582167
 30
0.0
  0
VERTEX
  8
1
  6
CONTINUOUS
 62
     1
  5
537
 10
825.294583
 20
87.661167
 30
0.0
  0
SEQEND
  8
1
  6
CONTINUOUS
 62
     1
  5
538
  0
POLYLINE
  8
1
  6
CONTINUOUS
 62
     1
  5
539
 66
     1
 10
0.0
 20
0.0
 30
0.0
  0
VERTEX
  8
1
  6
CONTINUOUS
 62
     1
  5
53A
 10
1118.468083
 20
58.699
 30
0.0
  0
VERTEX
  8
1
  6
CONTINUOUS
 62
     1
  5
53B
 10
1118.303917
 20
57.50325
 30
0.0
  0
VERTEX
  8
1
  6
CONTINUOUS
 62
     1
  5
53C
 10
1117.7335
 20
57.581583
 30
0.0
  0
VERTEX
  8
1
  6
CONTINUOUS
 62
     1
  5
53D
 10
1117.733367
 20
57.580555
 30
0.0
 42
-0.298603
  0
VERTEX
  8
1
  6
CONTINUOUS
 62
     1
  5
53E
 10
1116.46423
 20
58.686466
 30
0.0
  0
VERTEX
  8
1
  6
CONTINUOUS
 62
     1
  5
53F
 10
1116.464231
 20
58.686466
 30
0.0
 42
0.700308
  0
VERTEX
  8
1
  6
CONTINUOUS
 62
     1
  5
540
 10
1115.854174
 20
58.732592
 30
0.0
  0
VERTEX
  8
1
  6
CONTINUOUS
 62
     1
  5
541
 10
1115.850917
 20
58.73075
 30
0.0
  0
VERTEX
  8
1
  6
CONTINUOUS
 62
     1
  5
542
 10
1115.464667
 20
57.87625
 30
0.0
  0
VERTEX
  8
1
  6
CONTINUOUS
 62
     1
  5
543
 10
1115.467915
 20
57.872807
 30
0.0
 42
-0.805227
  0
VERTEX
  8
1
  6
CONTINUOUS
 62
     1
  5
544
 10
1112.526316
 20
58.483756
 30
0.0
  0
VERTEX
  8
1
  6
CONTINUOUS
 62
     1
  5
545
 10
1112.526317
 20
58.483756
 30
0.0
 42
0.374835
  0
VERTEX
  8
1
  6
CONTINUOUS
 62
     1
  5
546
 10
1112.245709
 20
58.804603
 30
0.0
  0
VERTEX
  8
1
  6
CONTINUOUS
 62
     1
  5
547
 10
1112.248083
 20
58.80525
 30
0.0
  0
VERTEX
  8
1
  6
CONTINUOUS
 62
     1
  5
548
 10
1112.05025
 20
58.832417
 30
0.0
  0
VERTEX
  8
1
  6
CONTINUOUS
 62
     1
  5
549
 10
1112.180667
 20
58.007917
 30
0.0
  0
VERTEX
  8
1
  6
CONTINUOUS
 62
     1
  5
54A
 10
1112.178836
 20
58.009184
 30
0.0
 42
-0.691256
  0
VERTEX
  8
1
  6
CONTINUOUS
 62
     1
  5
54B
 10
1111.745071
 20
57.762903
 30
0.0
  0
VERTEX
  8
1
  6
CONTINUOUS
 62
     1
  5
54C
 10
1111.744083
 20
57.765417
 30
0.0
  0
VERTEX
  8
1
  6
CONTINUOUS
 62
     1
  5
54D
 10
1109.535083
 20
59.791167
 30
0.0
  0
VERTEX
  8
1
  6
CONTINUOUS
 62
     1
  5
54E
 10
1112.208333
 20
61.146583
 30
0.0
  0
VERTEX
  8
1
  6
CONTINUOUS
 62
     1
  5
54F
 10
1112.209256
 20
61.143422
 30
0.0
 42
-0.691256
  0
VERTEX
  8
1
  6
CONTINUOUS
 62
     1
  5
550
 10
1112.560584
 20
60.789338
 30
0.0
  0
VERTEX
  8
1
  6
CONTINUOUS
 62
     1
  5
551
 10
1112.562333
 20
60.787083
 30
0.0
  0
VERTEX
  8
1
  6
CONTINUOUS
 62
     1
  5
552
 10
1112.214417
 20
60.02825
 30
0.0
  0
VERTEX
  8
1
  6
CONTINUOUS
 62
     1
  5
553
 10
1112.405966
 20
60.005968
 30
0.0
 42
-0.371734
  0
VERTEX
  8
1
  6
CONTINUOUS
 62
     1
  5
554
 10
1113.738559
 20
58.505512
 30
0.0
  0
VERTEX
  8
1
  6
CONTINUOUS
 62
     1
  5
555
 10
1113.738558
 20
58.505511
 30
0.0
 42
0.805919
  0
VERTEX
  8
1
  6
CONTINUOUS
 62
     1
  5
556
 10
1114.36491
 20
58.372453
 30
0.0
  0
VERTEX
  8
1
  6
CONTINUOUS
 62
     1
  5
557
 10
1114.364833
 20
58.37175
 30
0.0
  0
VERTEX
  8
1
  6
CONTINUOUS
 62
     1
  5
558
 10
1114.743917
 20
59.235583
 30
0.0
  0
VERTEX
  8
1
  6
CONTINUOUS
 62
     1
  5
559
 10
1114.74655
 20
59.232872
 30
0.0
 42
-0.701436
  0
VERTEX
  8
1
  6
CONTINUOUS
 62
     1
  5
55A
 10
1117.63058
 20
59.025071
 30
0.0
  0
VERTEX
  8
1
  6
CONTINUOUS
 62
     1
  5
55B
 10
1117.630579
 20
59.025071
 30
0.0
 42
0.298446
  0
VERTEX
  8
1
  6
CONTINUOUS
 62
     1
  5
55C
 10
1117.898242
 20
58.781286
 30
0.0
  0
VERTEX
  8
1
  6
CONTINUOUS
 62
     1
  5
55D
 10
1117.899
 20
58.777083
 30
0.0
  0
VERTEX
  8
1
  6
CONTINUOUS
 62
     1
  5
55E
 10
1118.468083
 20
58.699
 30
0.0
  0
SEQEND
  8
1
  6
CONTINUOUS
 62
     1
  5
55F
  0
ENDSEC
  0
EOF
