  0
SECTION
  2
HEADER
  9
$ACADVER
  1
AC1014
  9
$ACADMAINTVER
 70
     0
  9
$DWGCODEPAGE
  3
ANSI_1252
  9
$INSBASE
 10
0.0
 20
0.0
 30
0.0
  9
$EXTMIN
 10
13.9868
 20
-16.5108
 30
0.0
  9
$EXTMAX
 10
811.9868
 20
520.8892
 30
0.0
  9
$LIMMIN
 10
0.0
 20
0.0
  9
$LIMMAX
 10
12.0
 20
9.0
  9
$ORTHOMODE
 70
     0
  9
$REGENMODE
 70
     1
  9
$FILLMODE
 70
     1
  9
$QTEXTMODE
 70
     0
  9
$MIRRTEXT
 70
     1
  9
$DRAGMODE
 70
     2
  9
$LTSCALE
 40
1.0
  9
$OSMODE
 70
     0
  9
$ATTMODE
 70
     1
  9
$TEXTSIZE
 40
0.2
  9
$TRACEWID
 40
0.05
  9
$TEXTSTYLE
  7
STANDARD
  9
$CLAYER
  8
0
  9
$CELTYPE
  6
CONTINUOUS
  9
$CECOLOR
 62
   256
  9
$CELTSCALE
 40
1.0
  9
$DELOBJ
 70
     1
  9
$DISPSILH
 70
     0
  9
$DIMSCALE
 40
1.0
  9
$DIMASZ
 40
0.18
  9
$DIMEXO
 40
0.0625
  9
$DIMDLI
 40
0.38
  9
$DIMRND
 40
0.0
  9
$DIMDLE
 40
0.0
  9
$DIMEXE
 40
0.18
  9
$DIMTP
 40
0.0
  9
$DIMTM
 40
0.0
  9
$DIMTXT
 40
0.18
  9
$DIMCEN
 40
0.09
  9
$DIMTSZ
 40
0.0
  9
$DIMTOL
 70
     0
  9
$DIMLIM
 70
     0
  9
$DIMTIH
 70
     1
  9
$DIMTOH
 70
     1
  9
$DIMSE1
 70
     0
  9
$DIMSE2
 70
     0
  9
$DIMTAD
 70
     0
  9
$DIMZIN
 70
     0
  9
$DIMBLK
  1

  9
$DIMASO
 70
     1
  9
$DIMSHO
 70
     1
  9
$DIMPOST
  1

  9
$DIMAPOST
  1

  9
$DIMALT
 70
     0
  9
$DIMALTD
 70
     2
  9
$DIMALTF
 40
25.4
  9
$DIMLFAC
 40
1.0
  9
$DIMTOFL
 70
     0
  9
$DIMTVP
 40
0.0
  9
$DIMTIX
 70
     0
  9
$DIMSOXD
 70
     0
  9
$DIMSAH
 70
     0
  9
$DIMBLK1
  1

  9
$DIMBLK2
  1

  9
$DIMSTYLE
  2
STANDARD
  9
$DIMCLRD
 70
     0
  9
$DIMCLRE
 70
     0
  9
$DIMCLRT
 70
     0
  9
$DIMTFAC
 40
1.0
  9
$DIMGAP
 40
0.09
  9
$DIMJUST
 70
     0
  9
$DIMSD1
 70
     0
  9
$DIMSD2
 70
     0
  9
$DIMTOLJ
 70
     1
  9
$DIMTZIN
 70
     0
  9
$DIMALTZ
 70
     0
  9
$DIMALTTZ
 70
     0
  9
$DIMFIT
 70
     3
  9
$DIMUPT
 70
     0
  9
$DIMUNIT
 70
     2
  9
$DIMDEC
 70
     4
  9
$DIMTDEC
 70
     4
  9
$DIMALTU
 70
     2
  9
$DIMALTTD
 70
     2
  9
$DIMTXSTY
  7
STANDARD
  9
$DIMAUNIT
 70
     0
  9
$LUNITS
 70
     2
  9
$LUPREC
 70
     4
  9
$SKETCHINC
 40
0.1
  9
$FILLETRAD
 40
0.0
  9
$AUNITS
 70
     0
  9
$AUPREC
 70
     0
  9
$MENU
  1
acad
  9
$ELEVATION
 40
0.0
  9
$PELEVATION
 40
0.0
  9
$THICKNESS
 40
0.0
  9
$LIMCHECK
 70
     0
  9
$BLIPMODE
 70
     1
  9
$CHAMFERA
 40
0.0
  9
$CHAMFERB
 40
0.0
  9
$CHAMFERC
 40
0.0
  9
$CHAMFERD
 40
0.0
  9
$SKPOLY
 70
     0
  9
$TDCREATE
 40
2451803.476087963
  9
$TDUPDATE
 40
2451803.476087963
  9
$TDINDWG
 40
0.0000000000
  9
$TDUSRTIMER
 40
0.0000000000
  9
$USRTIMER
 70
     1
  9
$ANGBASE
 50
0.0
  9
$ANGDIR
 70
     0
  9
$PDMODE
 70
     0
  9
$PDSIZE
 40
0.0
  9
$PLINEWID
 40
0.0
  9
$COORDS
 70
     0
  9
$SPLFRAME
 70
     0
  9
$SPLINETYPE
 70
     6
  9
$SPLINESEGS
 70
    10
  9
$ATTDIA
 70
     0
  9
$ATTREQ
 70
     1
  9
$HANDLING
 70
     1
  9
$HANDSEED
  5
268
  9
$SURFTAB1
 70
     6
  9
$SURFTAB2
 70
     6
  9
$SURFTYPE
 70
     6
  9
$SURFU
 70
     6
  9
$SURFV
 70
     6
  9
$UCSNAME
  2

  9
$UCSORG
 10
0.0
 20
0.0
 30
0.0
  9
$UCSXDIR
 10
1.0
 20
0.0
 30
0.0
  9
$UCSYDIR
 10
0.0
 20
1.0
 30
0.0
  9
$PUCSNAME
  2

  9
$PUCSORG
 10
0.0
 20
0.0
 30
0.0
  9
$PUCSXDIR
 10
1.0
 20
0.0
 30
0.0
  9
$PUCSYDIR
 10
0.0
 20
1.0
 30
0.0
  9
$USERI1
 70
     0
  9
$USERI2
 70
     0
  9
$USERI3
 70
     0
  9
$USERI4
 70
     0
  9
$USERI5
 70
     0
  9
$USERR1
 40
0.0
  9
$USERR2
 40
0.0
  9
$USERR3
 40
0.0
  9
$USERR4
 40
0.0
  9
$USERR5
 40
0.0
  9
$WORLDVIEW
 70
     1
  9
$SHADEDGE
 70
     3
  9
$SHADEDIF
 70
    70
  9
$TILEMODE
 70
     1
  9
$MAXACTVP
 70
    16
  9
$PINSBASE
 10
0.0
 20
0.0
 30
0.0
  9
$PLIMCHECK
 70
     0
  9
$PEXTMIN
 10
-1.000000E+20
 20
-1.000000E+20
 30
-1.000000E+20
  9
$PEXTMAX
 10
-1.000000E+20
 20
-1.000000E+20
 30
-1.000000E+20
  9
$PLIMMIN
 10
0.0
 20
0.0
  9
$PLIMMAX
 10
12.0
 20
9.0
  9
$UNITMODE
 70
     0
  9
$VISRETAIN
 70
     0
  9
$PLINEGEN
 70
     1
  9
$PSLTSCALE
 70
     0
  9
$TREEDEPTH
 70
  3020
  9
$PICKSTYLE
 70
     1
  9
$CMLSTYLE
  2
STANDARD
  9
$CMLJUST
 70
     0
  9
$CMLSCALE
 40
1.0
  9
$PROXYGRAPHICS
 70
     0
  9
$MEASUREMENT
 70
     0
  0
ENDSEC
  0
SECTION
  2
CLASSES
  0
CLASS
  1
LWPOLYLINE
  2
AcDbPolyline
  3
"AutoCAD"
 90
        0
280
     0
281
     1
  0
CLASS
  1
IMAGE
  2
AcDbRasterImage
  3
ISM
 90
      127
280
     0
281
     1
  0
CLASS
  1
OLE2FRAME
  2
AcDbOle2Frame
  3
""
 90
        0
280
     0
281
     1
  0
CLASS
  1
HATCH
  2
AcDbHatch
  3
"ACAD_SEDONA"
 90
        0
280
     0
281
     1
  0
CLASS
  1
DICTIONARYVAR
  2
AcDbDictionaryVar
  3
"AutoCAD"
 90
        0
280
     0
281
     0
  0
CLASS
  1
RASTERVARIABLES
  2
AcDbRasterVariables
  3
ISM
 90
        0
280
     0
281
     0
  0
CLASS
  1
IMAGEDEF
  2
AcDbRasterImageDef
  3
ISM
 90
        0
280
     0
281
     0
  0
CLASS
  1
IMAGEDEF_REACTOR
  2
AcDbRasterImageDefReactor
  3
ISM
 90
        1
280
     0
281
     0
  0
CLASS
  1
IDBUFFER
  2
AcDbIdBuffer
  3
"Acad"
 90
        0
280
     0
281
     0
  0
CLASS
  1
SPATIAL_FILTER
  2
AcDbSpatialFilter
  3
"Acad"
 90
        0
280
     0
281
     0
  0
CLASS
  1
XRECORD
  2
AcDbXrecord
  3
"<Built In>"
 90
        0
280
     0
281
     0
  0
CLASS
  1
SORTENTSTABLE
  2
AcDbSortentsTable
  3
"AutoCAD"
 90
        0
280
     0
281
     0
  0
CLASS
  1
LAYER_INDEX
  2
AcDbLayerIndex
  3
"Acad"
 90
        0
280
     0
281
     0
  0
CLASS
  1
SPATIAL_INDEX
  2
AcDbSpatialIndex
  3
"Acad"
 90
        0
280
     0
281
     0
  0
CLASS
  1
OBJECT_PTR
  2
CAseDLPNTableRecord
  3
"ASE-LPNTableRecord"
 90
        1
280
     0
281
     0
  0
ENDSEC
  0
SECTION
  2
TABLES
  0
TABLE
  2
VPORT
  5
7
100
AcDbSymbolTable
 70
     1
  0
VPORT
  5
267
100
AcDbSymbolTableRecord
100
AcDbViewportTableRecord
  2
*ACTIVE
 70
     0
 10
0.0
 20
0.0
 11
1.0
 21
1.0
 12
0.0
 22
0.0
 13
0.0
 23
0.0
 14
0.0
 24
0.0
 15
0.0
 25
0.0
 16
0.0
 26
0.0
 36
1.0
 17
359.8292
 27
255.2392
 37
0.0
 40
565.24
 41
1.545
 42
50.0
 43
0.0
 44
0.0
 50
0.0
 51
0.0
 71
     0
 72
   100
 73
     1
 74
     0
 75
     0
 76
     0
 77
     0
 78
     0
  0
ENDTAB
  0
TABLE
  2
LTYPE
  5
4
100
AcDbSymbolTable
 70
     9
  0
LTYPE
  5
11
100
AcDbSymbolTableRecord
100
AcDbLinetypeTableRecord
  2
BYBLOCK
 70
     0
  3

 72
    65
 73
     0
 40
0.0
  0
LTYPE
  5
12
100
AcDbSymbolTableRecord
100
AcDbLinetypeTableRecord
  2
BYLAYER
 70
     0
  3

 72
    65
 73
     0
 40
0.0
  0
LTYPE
  5
13
100
AcDbSymbolTableRecord
100
AcDbLinetypeTableRecord
  2
CONTINUOUS
 70
     0
  3
Solid line
 72
    65
 73
     0
 40
0.0
  0
LTYPE
  5
22
100
AcDbSymbolTableRecord
100
AcDbLinetypeTableRecord
  2
DOT
 70
    64
  3
. . . . . . . . . . . . . . . . . . . . . . . . . . . . . . . . .
 72
    65
 73
     2
 40
0.25
 49
0.0
 74
     0
 49
-0.25
 74
     0
  0
LTYPE
  5
23
100
AcDbSymbolTableRecord
100
AcDbLinetypeTableRecord
  2
HIDDEN
 70
    64
  3
__ __ __ __ __ __ __ __ __ __ __ __ __ __ __ __ __ __ __ __ __ 
 72
    65
 73
     2
 40
0.375
 49
0.25
 74
     0
 49
-0.125
 74
     0
  0
LTYPE
  5
24
100
AcDbSymbolTableRecord
100
AcDbLinetypeTableRecord
  2
DASHED
 70
    64
  3
__ __ __ __ __ __ __ __ __ __ __ __ __ __ __ __ __ __ __ __ __
 72
    65
 73
     2
 40
0.75
 49
0.5
 74
     0
 49
-0.25
 74
     0
  0
LTYPE
  5
25
100
AcDbSymbolTableRecord
100
AcDbLinetypeTableRecord
  2
DASHDOT
 70
    64
  3
__ . __ . __ . __ . __ . __ . __ . __ . __ . __ . __ . __ . _
 72
    65
 73
     4
 40
1.0
 49
0.5
 74
     0
 49
-0.25
 74
     0
 49
0.0
 74
     0
 49
-0.25
 74
     0
  0
LTYPE
  5
26
100
AcDbSymbolTableRecord
100
AcDbLinetypeTableRecord
  2
DIVIDE
 70
    64
  3
____ . . ____ . . ____ . . ____ . . ____ . . ____ . . ____ . .
 72
    65
 73
     6
 40
1.25
 49
0.5
 74
     0
 49
-0.25
 74
     0
 49
0.0
 74
     0
 49
-0.25
 74
     0
 49
0.0
 74
     0
 49
-0.25
 74
     0
  0
LTYPE
  5
27
100
AcDbSymbolTableRecord
100
AcDbLinetypeTableRecord
  2
CENTER
 70
    64
  3
____ _ ____ _ ____ _ ____ _ ____ _ ____ _ ____ _ ____ _ ____ _
 72
    65
 73
     4
 40
2.0
 49
1.25
 74
     0
 49
-0.25
 74
     0
 49
0.25
 74
     0
 49
-0.25
 74
     0
  0
ENDTAB
  0
TABLE
  2
LAYER
  5
2
100
AcDbSymbolTable
 70
     4
  0
LAYER
  5
14
102
{ACAD_XDICTIONARY
360
5F205F5F5F5F205F
102
}
100
AcDbSymbolTableRecord
100
AcDbLayerTableRecord
  2
0
 70
     0
 62
     7
  6
CONTINUOUS
  0
LAYER
  5
1E
102
{ACAD_XDICTIONARY
360
5F205F5F5F5F205F
102
}
100
AcDbSymbolTableRecord
100
AcDbLayerTableRecord
  2
CONSTRUCTION_CLASS
 70
    64
 62
     7
  6
CONTINUOUS
  0
LAYER
  5
2A
102
{ACAD_XDICTIONARY
360
5F205F5F5F5F205F
102
}
100
AcDbSymbolTableRecord
100
AcDbLayerTableRecord
  2
61
 70
    64
 62
     7
  6
CONTINUOUS
  0
LAYER
  5
2D
102
{ACAD_XDICTIONARY
360
5F205F5F5F5F205F
102
}
100
AcDbSymbolTableRecord
100
AcDbLayerTableRecord
  2
1
 70
    64
 62
     7
  6
CONTINUOUS
  0
ENDTAB
  0
TABLE
  2
STYLE
  5
3
100
AcDbSymbolTable
 70
     4
  0
STYLE
  5
17
100
AcDbSymbolTableRecord
100
AcDbTextStyleTableRecord
  2
STANDARD
 70
     0
 40
0.0
 41
1.0
 50
0.0
 71
     0
 42
0.0
  3
txt
  4

  0
STYLE
  5
2B
100
AcDbSymbolTableRecord
100
AcDbTextStyleTableRecord
  2
MONOTXT
 70
     0
 40
0.2
 41
1.0
 50
0.0
 71
     0
 42
0.2
  3
MONOTXT
  4

  0
STYLE
  5
47
100
AcDbSymbolTableRecord
100
AcDbTextStyleTableRecord
  2
TXT
 70
     0
 40
0.2
 41
1.0
 50
0.0
 71
     0
 42
0.2
  3
TXT
  4

  0
STYLE
  5
1D9
100
AcDbSymbolTableRecord
100
AcDbTextStyleTableRecord
  2
ROMANT
 70
     0
 40
0.2
 41
1.0
 50
0.0
 71
     0
 42
0.2
  3
ROMANT
  4

  0
ENDTAB
  0
TABLE
  2
VIEW
  5
5
100
AcDbSymbolTable
 70
     0
  0
ENDTAB
  0
TABLE
  2
UCS
  5
6
100
AcDbSymbolTable
 70
     0
  0
ENDTAB
  0
TABLE
  2
APPID
  5
8
100
AcDbSymbolTable
 70
     1
  0
APPID
  5
16
100
AcDbSymbolTableRecord
100
AcDbRegAppTableRecord
  2
ACAD
 70
     0
  0
ENDTAB
  0
TABLE
  2
DIMSTYLE
  5
9
100
AcDbSymbolTable
 70
     1
  0
DIMSTYLE
105
18
100
AcDbSymbolTableRecord
100
AcDbDimStyleTableRecord
  2
STANDARD
 70
     0
  3

  4

  5

  6

  7

 40
1.0
 41
0.18
 42
0.0625
 43
0.38
 44
0.18
 45
0.0
 46
0.0
 47
0.0
 48
0.0
140
0.18
141
0.09
142
0.0
143
25.4
144
1.0
145
0.0
146
1.0
147
0.09
 71
     0
 72
     0
 73
     1
 74
     1
 75
     0
 76
     0
 77
     0
 78
     0
170
     0
171
     2
172
     0
173
     0
174
     0
175
     0
176
     0
177
     0
178
     0
270
     2
271
     4
272
     4
273
     2
274
     2
340
17
275
     0
280
     0
281
     0
282
     0
283
     1
284
     0
285
     0
286
     0
287
     0
288
     0
  0
ENDTAB
  0
TABLE
  2
BLOCK_RECORD
  5
1
100
AcDbSymbolTable
 70
     2
  0
BLOCK_RECORD
  5
A
100
AcDbSymbolTableRecord
100
AcDbBlockTableRecord
  2
*MODEL_SPACE
  0
BLOCK_RECORD
  5
B
100
AcDbSymbolTableRecord
100
AcDbBlockTableRecord
  2
*PAPER_SPACE
  0
BLOCK_RECORD
  5
162
102
{ACAD_XDICTIONARY
360
C673012400000000
102
}
100
AcDbSymbolTableRecord
100
AcDbBlockTableRecord
  2
LDR
  0
BLOCK_RECORD
  5
1EC
102
{ACAD_XDICTIONARY
360
C673012400000000
102
}
100
AcDbSymbolTableRecord
100
AcDbBlockTableRecord
  2
PT
  0
ENDTAB
  0
ENDSEC
  0
SECTION
  2
BLOCKS
  0
BLOCK
  5
D
100
AcDbEntity
  8
0
100
AcDbBlockBegin
  2
*MODEL_SPACE
 70
     0
 10
0.0
 20
0.0
 30
0.0
  3
*MODEL_SPACE
  1

  0
ENDBLK
  5
E
100
AcDbEntity
  8
0
100
AcDbBlockEnd
  0
BLOCK
  5
F
100
AcDbEntity
 67
     1
  8
0
100
AcDbBlockBegin
  2
*PAPER_SPACE
 70
     0
 10
0.0
 20
0.0
 30
0.0
  3
*PAPER_SPACE
  1

  0
ENDBLK
  5
10
100
AcDbEntity
 67
     1
  8
0
100
AcDbBlockEnd
  0
BLOCK
  5
163
100
AcDbEntity
  8
1
  6
CONTINUOUS
 62
     1
100
AcDbBlockBegin
  2
LDR
 70
     0
 10
0.0
 20
0.0
 30
0.0
  3
LNR
  1

  0
ELLIPSE
  5
164
100
AcDbEntity
  8
1
  6
CONTINUOUS
 62
     1
100
AcDbEllipse
 10
-0.005456
 20
-0.001382
 30
0.0
 11
0.0089285004623472
 21
0.0007807500129699
 31
0.0
210
0.0
220
0.0
230
1.0
 40
0.122415
 41
0.8963533496766982
 42
3.1415926535897931
  0
ELLIPSE
  5
165
100
AcDbEntity
  8
1
  6
CONTINUOUS
 62
     1
100
AcDbEllipse
 10
-0.005602
 20
0.001058
 30
0.0
 11
0.0087822506056358
 21
-0.0008782502048316
 31
0.0
210
0.0
220
0.0
230
1.0
 40
0.07063
 41
3.1407147529760402
 42
5.4181099545465106
  0
ENDBLK
  5
166
100
AcDbEntity
  8
1
  6
CONTINUOUS
 62
     1
100
AcDbBlockEnd
  0
BLOCK
  5
1ED
100
AcDbEntity
  8
1
  6
CONTINUOUS
 62
     1
100
AcDbBlockBegin
  2
PT
 70
     0
 10
0.0
 20
0.0
 30
0.0
  3
PT
  1

  0
POINT
  5
1EE
100
AcDbEntity
  8
1
  6
CONTINUOUS
 62
     1
100
AcDbPoint
 10
0.0
 20
0.0
 30
0.0
  0
ENDBLK
  5
1EF
100
AcDbEntity
  8
1
  6
CONTINUOUS
 62
     1
100
AcDbBlockEnd
  0
ENDSEC
  0
SECTION
  2
ENTITIES
  0
TEXT
  5
2C
100
AcDbEntity
  8
61
  6
CONTINUOUS
 62
     7
100
AcDbText
 10
785.3435
 20
462.118
 30
0.0
 40
2.881584
  1
     
 41
1.001399
  7
MONOTXT
210
0.0
220
0.0
230
1.0
100
AcDbText
  0
TEXT
  5
2E
100
AcDbEntity
  8
1
  6
CONTINUOUS
 62
     1
100
AcDbText
 10
600.6199
 20
47.7218
 30
0.0
 40
2.400048
  1
01-21-69
  7
MONOTXT
 72
     1
 11
608.2074
 21
50.1218
 31
0.0
210
0.0
220
0.0
230
1.0
100
AcDbText
 73
     3
  0
TEXT
  5
2F
100
AcDbEntity
  8
1
  6
CONTINUOUS
 62
     1
100
AcDbText
 10
600.4638
 20
42.0487
 30
0.0
 40
2.400048
  1
11-25-70
  7
MONOTXT
 72
     1
 11
608.1742
 21
44.4487
 31
0.0
210
0.0
220
0.0
230
1.0
100
AcDbText
 73
     3
  0
TEXT
  5
30
100
AcDbEntity
  8
1
  6
CONTINUOUS
 62
     1
100
AcDbText
 10
600.7453
 20
36.5329
 30
0.0
 40
2.400048
  1
01-04-71
  7
MONOTXT
 72
     1
 11
608.5123
 21
38.9329
 31
0.0
210
0.0
220
0.0
230
1.0
100
AcDbText
 73
     3
  0
TEXT
  5
31
100
AcDbEntity
  8
1
  6
CONTINUOUS
 62
     1
100
AcDbText
 10
601.1381
 20
30.6243
 30
0.0
 40
2.400048
  1
04-01-71
  7
MONOTXT
 72
     1
 11
608.9051
 21
33.0243
 31
0.0
210
0.0
220
0.0
230
1.0
100
AcDbText
 73
     3
  0
TEXT
  5
32
100
AcDbEntity
  8
1
  6
CONTINUOUS
 62
     1
100
AcDbText
 10
601.2554
 20
24.9472
 30
0.0
 40
2.400048
  1
11-19-73
  7
MONOTXT
 72
     1
 11
608.4082
 21
27.3472
 31
0.0
210
0.0
220
0.0
230
1.0
100
AcDbText
 73
     3
  0
TEXT
  5
33
100
AcDbEntity
  8
1
  6
CONTINUOUS
 62
     1
100
AcDbText
 10
600.8367
 20
19.414
 30
0.0
 40
2.400048
  1
11-09-76
  7
MONOTXT
 72
     1
 11
608.4431
 21
21.814
 31
0.0
210
0.0
220
0.0
230
1.0
100
AcDbText
 73
     3
  0
TEXT
  5
34
100
AcDbEntity
  8
1
  6
CONTINUOUS
 62
     1
100
AcDbText
 10
600.0364
 20
13.4225
 30
0.0
 40
2.400048
  1
10-24-78
  7
MONOTXT
 72
     1
 11
608.3232
 21
15.8225
 31
0.0
210
0.0
220
0.0
230
1.0
100
AcDbText
 73
     3
  0
TEXT
  5
35
100
AcDbEntity
  8
1
  6
CONTINUOUS
 62
     1
100
AcDbText
 10
600.5285
 20
7.7694
 30
0.0
 40
2.400048
  1
11-30-84
  7
MONOTXT
 72
     1
 11
608.2861
 21
10.1694
 31
0.0
210
0.0
220
0.0
230
1.0
100
AcDbText
 73
     3
  0
TEXT
  5
36
100
AcDbEntity
  8
1
  6
CONTINUOUS
 62
     1
100
AcDbText
 10
599.7914
 20
2.4739
 30
0.0
 40
2.400048
  1
09-13-93
  7
MONOTXT
 72
     1
 11
607.8892
 21
4.8739
 31
0.0
210
0.0
220
0.0
230
1.0
100
AcDbText
 73
     3
  0
LWPOLYLINE
  5
37
100
AcDbEntity
  8
1
  6
CONTINUOUS
 62
     7
100
AcDbPolyline
 90
        4
 70
     0
 10
593.5957
 20
51.4733
 10
591.1957
 20
47.3164
 10
595.9957
 20
47.3164
 10
593.5957
 20
51.4733
  0
LWPOLYLINE
  5
38
100
AcDbEntity
  8
1
  6
CONTINUOUS
 62
     7
100
AcDbPolyline
 90
        4
 70
     0
 10
593.5958
 20
45.721
 10
591.1958
 20
41.5641
 10
595.9958
 20
41.5641
 10
593.5958
 20
45.721
  0
LWPOLYLINE
  5
39
100
AcDbEntity
  8
1
  6
CONTINUOUS
 62
     7
100
AcDbPolyline
 90
        4
 70
     0
 10
593.7114
 20
40.0654
 10
591.3114
 20
35.9085
 10
596.1114
 20
35.9085
 10
593.7114
 20
40.0654
  0
LWPOLYLINE
  5
3A
100
AcDbEntity
  8
1
  6
CONTINUOUS
 62
     7
100
AcDbPolyline
 90
        4
 70
     0
 10
594.0352
 20
34.0086
 10
591.6352
 20
29.8517
 10
596.4352
 20
29.8517
 10
594.0352
 20
34.0086
  0
LWPOLYLINE
  5
3B
100
AcDbEntity
  8
1
  6
CONTINUOUS
 62
     7
100
AcDbPolyline
 90
        4
 70
     0
 10
593.8589
 20
28.4273
 10
591.4589
 20
24.2704
 10
596.2589
 20
24.2704
 10
593.8589
 20
28.4273
  0
LWPOLYLINE
  5
3C
100
AcDbEntity
  8
1
  6
CONTINUOUS
 62
     7
100
AcDbPolyline
 90
        4
 70
     0
 10
593.6976
 20
22.9152
 10
591.2976
 20
18.7583
 10
596.0976
 20
18.7583
 10
593.6976
 20
22.9152
  0
LWPOLYLINE
  5
3D
100
AcDbEntity
  8
1
  6
CONTINUOUS
 62
     7
100
AcDbPolyline
 90
        4
 70
     0
 10
593.7018
 20
17.0154
 10
591.3018
 20
12.8585
 10
596.1018
 20
12.8585
 10
593.7018
 20
17.0154
  0
LWPOLYLINE
  5
3E
100
AcDbEntity
  8
1
  6
CONTINUOUS
 62
     7
100
AcDbPolyline
 90
        4
 70
     0
 10
593.5405
 20
11.43
 10
591.1405
 20
7.2731
 10
595.9405
 20
7.2731
 10
593.5405
 20
11.43
  0
LWPOLYLINE
  5
3F
100
AcDbEntity
  8
1
  6
CONTINUOUS
 62
     7
100
AcDbPolyline
 90
        4
 70
     0
 10
592.3987
 20
129.1612
 10
589.9987
 20
125.0043
 10
594.7987
 20
125.0043
 10
592.3987
 20
129.1612
  0
LWPOLYLINE
  5
40
100
AcDbEntity
  8
1
  6
CONTINUOUS
 62
     7
100
AcDbPolyline
 90
        4
 70
     0
 10
592.3307
 20
134.7
 10
589.9307
 20
130.5431
 10
594.7307
 20
130.5431
 10
592.3307
 20
134.7
  0
LWPOLYLINE
  5
41
100
AcDbEntity
  8
1
  6
CONTINUOUS
 62
     7
100
AcDbPolyline
 90
        4
 70
     0
 10
592.2828
 20
140.1773
 10
589.8828
 20
136.0204
 10
594.6828
 20
136.0204
 10
592.2828
 20
140.1773
  0
LWPOLYLINE
  5
42
100
AcDbEntity
  8
1
  6
CONTINUOUS
 62
     7
100
AcDbPolyline
 90
        4
 70
     0
 10
592.2213
 20
145.6205
 10
589.8213
 20
141.4636
 10
594.6213
 20
141.4636
 10
592.2213
 20
145.6205
  0
LWPOLYLINE
  5
43
100
AcDbEntity
  8
1
  6
CONTINUOUS
 62
     7
100
AcDbPolyline
 90
        4
 70
     0
 10
592.3509
 20
151.1456
 10
589.9509
 20
146.9887
 10
594.7509
 20
146.9887
 10
592.3509
 20
151.1456
  0
LWPOLYLINE
  5
44
100
AcDbEntity
  8
1
  6
CONTINUOUS
 62
     7
100
AcDbPolyline
 90
        4
 70
     0
 10
592.3169
 20
156.6907
 10
589.9169
 20
152.5338
 10
594.7169
 20
152.5338
 10
592.3169
 20
156.6907
  0
LWPOLYLINE
  5
45
100
AcDbEntity
  8
1
  6
CONTINUOUS
 62
     7
100
AcDbPolyline
 90
        4
 70
     0
 10
592.3647
 20
162.1062
 10
589.9647
 20
157.9493
 10
594.7647
 20
157.9493
 10
592.3647
 20
162.1062
  0
LWPOLYLINE
  5
46
100
AcDbEntity
  8
1
  6
CONTINUOUS
 62
     7
100
AcDbPolyline
 90
        4
 70
     0
 10
592.4125
 20
167.5835
 10
590.0125
 20
163.4266
 10
594.8125
 20
163.4266
 10
592.4125
 20
167.5835
  0
TEXT
  5
48
100
AcDbEntity
  8
1
  6
CONTINUOUS
 62
     7
100
AcDbText
 10
624.9196
 20
71.3296
 30
0.0
 40
8.3912
  1
ROADSIDE SIGN SUPPORT
  7
TXT
 72
     1
 11
699.82
 21
79.7208
 31
0.0
210
0.0
220
0.0
230
1.0
100
AcDbText
 73
     3
  0
TEXT
  5
49
100
AcDbEntity
  8
1
  6
CONTINUOUS
 62
     7
100
AcDbText
 10
666.573
 20
58.8548
 30
0.0
 40
8.3912
  1
U-CHANNEL
  7
TXT
 72
     1
 11
699.8199
 21
67.246
 31
0.0
210
0.0
220
0.0
230
1.0
100
AcDbText
 73
     3
  0
TEXT
  5
4A
100
AcDbEntity
  8
1
  6
CONTINUOUS
 62
     7
100
AcDbText
 10
593.3055
 20
47.8664
 30
0.0
 40
2.1
  1
1
  7
MONOTXT
210
0.0
220
0.0
230
1.0
100
AcDbText
  0
TEXT
  5
4B
100
AcDbEntity
  8
1
  6
CONTINUOUS
 62
     7
100
AcDbText
 10
592.8914
 20
42.0175
 30
0.0
 40
2.1
  1
2
  7
MONOTXT
210
0.0
220
0.0
230
1.0
100
AcDbText
  0
TEXT
  5
4C
100
AcDbEntity
  8
1
  6
CONTINUOUS
 62
     7
100
AcDbText
 10
592.9294
 20
36.2568
 30
0.0
 40
2.1
  1
3
  7
MONOTXT
210
0.0
220
0.0
230
1.0
100
AcDbText
  0
TEXT
  5
4D
100
AcDbEntity
  8
1
  6
CONTINUOUS
 62
     7
100
AcDbText
 10
593.1151
 20
30.4487
 30
0.0
 40
2.1
  1
4
  7
MONOTXT
210
0.0
220
0.0
230
1.0
100
AcDbText
  0
TEXT
  5
4E
100
AcDbEntity
  8
1
  6
CONTINUOUS
 62
     7
100
AcDbText
 10
593.146
 20
24.6286
 30
0.0
 40
2.1
  1
5
  7
MONOTXT
210
0.0
220
0.0
230
1.0
100
AcDbText
  0
TEXT
  5
4F
100
AcDbEntity
  8
1
  6
CONTINUOUS
 62
     7
100
AcDbText
 10
592.9889
 20
19.2227
 30
0.0
 40
2.1
  1
6
  7
MONOTXT
210
0.0
220
0.0
230
1.0
100
AcDbText
  0
TEXT
  5
50
100
AcDbEntity
  8
1
  6
CONTINUOUS
 62
     7
100
AcDbText
 10
592.9889
 20
13.1573
 30
0.0
 40
2.1
  1
7
  7
MONOTXT
210
0.0
220
0.0
230
1.0
100
AcDbText
  0
TEXT
  5
51
100
AcDbEntity
  8
1
  6
CONTINUOUS
 62
     7
100
AcDbText
 10
592.8318
 20
7.7516
 30
0.0
 40
2.1
  1
8
  7
MONOTXT
210
0.0
220
0.0
230
1.0
100
AcDbText
  0
TEXT
  5
52
100
AcDbEntity
  8
1
  6
CONTINUOUS
 62
     7
100
AcDbText
 10
592.0375
 20
163.9491
 30
0.0
 40
2.1
  1
1
  7
MONOTXT
210
0.0
220
0.0
230
1.0
100
AcDbText
  0
TEXT
  5
53
100
AcDbEntity
  8
1
  6
CONTINUOUS
 62
     7
100
AcDbText
 10
591.6286
 20
158.3862
 30
0.0
 40
2.1
  1
2
  7
MONOTXT
210
0.0
220
0.0
230
1.0
100
AcDbText
  0
TEXT
  5
54
100
AcDbEntity
  8
1
  6
CONTINUOUS
 62
     7
100
AcDbText
 10
591.5468
 20
152.9052
 30
0.0
 40
2.1
  1
3
  7
MONOTXT
210
0.0
220
0.0
230
1.0
100
AcDbText
  0
TEXT
  5
55
100
AcDbEntity
  8
1
  6
CONTINUOUS
 62
     7
100
AcDbText
 10
591.465
 20
147.5879
 30
0.0
 40
2.1
  1
4
  7
MONOTXT
210
0.0
220
0.0
230
1.0
100
AcDbText
  0
TEXT
  5
56
100
AcDbEntity
  8
1
  6
CONTINUOUS
 62
     7
100
AcDbText
 10
591.465
 20
141.8614
 30
0.0
 40
2.1
  1
5
  7
MONOTXT
210
0.0
220
0.0
230
1.0
100
AcDbText
  0
TEXT
  5
57
100
AcDbEntity
  8
1
  6
CONTINUOUS
 62
     7
100
AcDbText
 10
591.6286
 20
136.544
 30
0.0
 40
2.1
  1
6
  7
MONOTXT
210
0.0
220
0.0
230
1.0
100
AcDbText
  0
TEXT
  5
58
100
AcDbEntity
  8
1
  6
CONTINUOUS
 62
     7
100
AcDbText
 10
591.6286
 20
130.8994
 30
0.0
 40
2.1
  1
7
  7
MONOTXT
210
0.0
220
0.0
230
1.0
100
AcDbText
  0
TEXT
  5
59
100
AcDbEntity
  8
1
  6
CONTINUOUS
 62
     7
100
AcDbText
 10
591.6286
 20
125.4184
 30
0.0
 40
2.1
  1
8
  7
MONOTXT
210
0.0
220
0.0
230
1.0
100
AcDbText
  0
TEXT
  5
5A
100
AcDbEntity
  8
1
  6
CONTINUOUS
 62
     7
100
AcDbText
 10
596.2082
 20
164.5217
 30
0.0
 40
2.1
  1
REVISION OF NOTES
  7
MONOTXT
210
0.0
220
0.0
230
1.0
100
AcDbText
  0
TEXT
  5
5B
100
AcDbEntity
  8
1
  6
CONTINUOUS
 62
     7
100
AcDbText
 10
595.9629
 20
158.9589
 30
0.0
 40
2.1
  1
WIND PRESSURE REDUCTIONS
  7
MONOTXT
210
0.0
220
0.0
230
1.0
100
AcDbText
  0
TEXT
  5
5C
100
AcDbEntity
  8
1
  6
CONTINUOUS
 62
     7
100
AcDbText
 10
596.0447
 20
153.4779
 30
0.0
 40
2.1
  1
GENERAL NOTES
  7
MONOTXT
210
0.0
220
0.0
230
1.0
100
AcDbText
  0
TEXT
  5
5D
100
AcDbEntity
  8
1
  6
CONTINUOUS
 62
     7
100
AcDbText
 10
596.29
 20
148.0787
 30
0.0
 40
2.1
  1
EMBEDMENT
  7
MONOTXT
210
0.0
220
0.0
230
1.0
100
AcDbText
  0
TEXT
  5
5E
100
AcDbEntity
  8
1
  6
CONTINUOUS
 62
     7
100
AcDbText
 10
596.2082
 20
142.7613
 30
0.0
 40
2.1
  1
POST SECTION
  7
MONOTXT
210
0.0
220
0.0
230
1.0
100
AcDbText
  0
TEXT
  5
5F
100
AcDbEntity
  8
1
  6
CONTINUOUS
 62
     7
100
AcDbText
 10
596.0447
 20
137.1985
 30
0.0
 40
2.1
  1
DEPTH, CONC., NOTES
  7
MONOTXT
210
0.0
220
0.0
230
1.0
100
AcDbText
  0
TEXT
  5
60
100
AcDbEntity
  8
1
  6
CONTINUOUS
 62
     7
100
AcDbText
 10
595.9629
 20
131.7993
 30
0.0
 40
2.1
  1
REV. OF SEC. MOD.
  7
MONOTXT
210
0.0
220
0.0
230
1.0
100
AcDbText
  0
TEXT
  5
61
100
AcDbEntity
  8
1
  6
CONTINUOUS
 62
     7
100
AcDbText
 10
595.7176
 20
126.0729
 30
0.0
 40
2.1
  1
CHANGED 4.0  RQMTS. & NOTE
  7
MONOTXT
210
0.0
220
0.0
230
1.0
100
AcDbText
  0
TEXT
  5
62
100
AcDbEntity
  8
1
  6
CONTINUOUS
 62
     7
100
AcDbText
 10
617.7162
 20
124.6004
 30
0.0
 40
4.2
  1
#
  7
MONOTXT
210
0.0
220
0.0
230
1.0
100
AcDbText
  0
LINE
  5
63
100
AcDbEntity
  8
1
  6
CONTINUOUS
 62
     3
100
AcDbLine
 10
43.1383
 20
475.3933
 30
0.0
 11
691.1383
 21
475.3933
 31
0.0
  0
LINE
  5
64
100
AcDbEntity
  8
1
  6
CONTINUOUS
 62
     3
100
AcDbLine
 10
691.1383
 20
475.3933
 30
0.0
 11
691.1383
 21
219.7933
 31
0.0
  0
LINE
  5
65
100
AcDbEntity
  8
1
  6
CONTINUOUS
 62
     3
100
AcDbLine
 10
43.1383
 20
475.3933
 30
0.0
 11
43.1383
 21
219.7933
 31
0.0
  0
LINE
  5
66
100
AcDbEntity
  8
1
  6
CONTINUOUS
 62
     3
100
AcDbLine
 10
43.1383
 20
219.7933
 30
0.0
 11
691.1383
 21
219.7933
 31
0.0
  0
LINE
  5
67
100
AcDbEntity
  8
1
  6
CONTINUOUS
 62
     3
100
AcDbLine
 10
44.3383
 20
474.1933
 30
0.0
 11
44.3383
 21
220.9933
 31
0.0
  0
LINE
  5
68
100
AcDbEntity
  8
1
  6
CONTINUOUS
 62
     3
100
AcDbLine
 10
44.3383
 20
474.1933
 30
0.0
 11
689.9383
 21
474.1933
 31
0.0
  0
LINE
  5
69
100
AcDbEntity
  8
1
  6
CONTINUOUS
 62
     3
100
AcDbLine
 10
689.9383
 20
474.1933
 30
0.0
 11
689.9383
 21
220.9933
 31
0.0
  0
LINE
  5
6A
100
AcDbEntity
  8
1
  6
CONTINUOUS
 62
     3
100
AcDbLine
 10
44.3383
 20
220.9933
 30
0.0
 11
689.9383
 21
220.9933
 31
0.0
  0
LINE
  5
6B
100
AcDbEntity
  8
1
  6
CONTINUOUS
 62
     3
100
AcDbLine
 10
77.3383
 20
462.1933
 30
0.0
 11
77.3383
 21
220.9933
 31
0.0
  0
LINE
  5
6C
100
AcDbEntity
  8
1
  6
CONTINUOUS
 62
     3
100
AcDbLine
 10
78.5383
 20
462.1933
 30
0.0
 11
78.5383
 21
220.9933
 31
0.0
  0
LINE
  5
6D
100
AcDbEntity
  8
1
  6
CONTINUOUS
 62
     3
100
AcDbLine
 10
656.9383
 20
462.1933
 30
0.0
 11
656.9383
 21
220.9933
 31
0.0
  0
LINE
  5
6E
100
AcDbEntity
  8
1
  6
CONTINUOUS
 62
     3
100
AcDbLine
 10
655.7383
 20
462.1933
 30
0.0
 11
655.7383
 21
220.9933
 31
0.0
  0
LINE
  5
6F
100
AcDbEntity
  8
1
  6
CONTINUOUS
 62
     3
100
AcDbLine
 10
44.3383
 20
450.1933
 30
0.0
 11
689.9383
 21
450.1933
 31
0.0
  0
LINE
  5
70
100
AcDbEntity
  8
1
  6
CONTINUOUS
 62
     3
100
AcDbLine
 10
44.3383
 20
448.9933
 30
0.0
 11
689.9383
 21
448.9933
 31
0.0
  0
LINE
  5
71
100
AcDbEntity
  8
1
  6
CONTINUOUS
 62
     3
100
AcDbLine
 10
94.1383
 20
462.1933
 30
0.0
 11
94.1383
 21
220.9933
 31
0.0
  0
LINE
  5
72
100
AcDbEntity
  8
1
  6
CONTINUOUS
 62
     3
100
AcDbLine
 10
281.3383
 20
462.1933
 30
0.0
 11
281.3383
 21
220.9933
 31
0.0
  0
LINE
  5
73
100
AcDbEntity
  8
1
  6
CONTINUOUS
 62
     3
100
AcDbLine
 10
328.1383
 20
462.1933
 30
0.0
 11
328.1383
 21
220.9933
 31
0.0
  0
LINE
  5
74
100
AcDbEntity
  8
1
  6
CONTINUOUS
 62
     3
100
AcDbLine
 10
359.3383
 20
462.1933
 30
0.0
 11
359.3383
 21
220.9933
 31
0.0
  0
LINE
  5
75
100
AcDbEntity
  8
1
  6
CONTINUOUS
 62
     3
100
AcDbLine
 10
374.9383
 20
462.1933
 30
0.0
 11
374.9383
 21
220.9933
 31
0.0
  0
LINE
  5
76
100
AcDbEntity
  8
1
  6
CONTINUOUS
 62
     3
100
AcDbLine
 10
390.5383
 20
462.1933
 30
0.0
 11
390.5383
 21
220.9933
 31
0.0
  0
LINE
  5
77
100
AcDbEntity
  8
1
  6
CONTINUOUS
 62
     3
100
AcDbLine
 10
406.1383
 20
462.1933
 30
0.0
 11
406.1383
 21
220.9933
 31
0.0
  0
LINE
  5
78
100
AcDbEntity
  8
1
  6
CONTINUOUS
 62
     3
100
AcDbLine
 10
421.7383
 20
462.1933
 30
0.0
 11
421.7383
 21
220.9933
 31
0.0
  0
LINE
  5
79
100
AcDbEntity
  8
1
  6
CONTINUOUS
 62
     3
100
AcDbLine
 10
437.3383
 20
462.1933
 30
0.0
 11
437.3383
 21
220.9933
 31
0.0
  0
LINE
  5
7A
100
AcDbEntity
  8
1
  6
CONTINUOUS
 62
     3
100
AcDbLine
 10
452.9383
 20
462.1933
 30
0.0
 11
452.9383
 21
220.9933
 31
0.0
  0
LINE
  5
7B
100
AcDbEntity
  8
1
  6
CONTINUOUS
 62
     3
100
AcDbLine
 10
468.5383
 20
462.1933
 30
0.0
 11
468.5383
 21
220.9933
 31
0.0
  0
LINE
  5
7C
100
AcDbEntity
  8
1
  6
CONTINUOUS
 62
     3
100
AcDbLine
 10
484.1383
 20
462.1933
 30
0.0
 11
484.1383
 21
220.9933
 31
0.0
  0
LINE
  5
7D
100
AcDbEntity
  8
1
  6
CONTINUOUS
 62
     3
100
AcDbLine
 10
499.7383
 20
462.1933
 30
0.0
 11
499.7383
 21
220.9933
 31
0.0
  0
LINE
  5
7E
100
AcDbEntity
  8
1
  6
CONTINUOUS
 62
     3
100
AcDbLine
 10
515.3383
 20
462.1933
 30
0.0
 11
515.3383
 21
220.9933
 31
0.0
  0
LINE
  5
7F
100
AcDbEntity
  8
1
  6
CONTINUOUS
 62
     3
100
AcDbLine
 10
530.9383
 20
462.1933
 30
0.0
 11
530.9383
 21
220.9933
 31
0.0
  0
LINE
  5
80
100
AcDbEntity
  8
1
  6
CONTINUOUS
 62
     3
100
AcDbLine
 10
546.5383
 20
462.1933
 30
0.0
 11
546.5383
 21
220.9933
 31
0.0
  0
LINE
  5
81
100
AcDbEntity
  8
1
  6
CONTINUOUS
 62
     3
100
AcDbLine
 10
562.1383
 20
462.1933
 30
0.0
 11
562.1383
 21
220.9933
 31
0.0
  0
LINE
  5
82
100
AcDbEntity
  8
1
  6
CONTINUOUS
 62
     3
100
AcDbLine
 10
577.7383
 20
462.1933
 30
0.0
 11
577.7383
 21
220.9933
 31
0.0
  0
LINE
  5
83
100
AcDbEntity
  8
1
  6
CONTINUOUS
 62
     3
100
AcDbLine
 10
593.3383
 20
462.1933
 30
0.0
 11
593.3383
 21
220.9933
 31
0.0
  0
LINE
  5
84
100
AcDbEntity
  8
1
  6
CONTINUOUS
 62
     3
100
AcDbLine
 10
608.9383
 20
462.1933
 30
0.0
 11
608.9383
 21
220.9933
 31
0.0
  0
LINE
  5
85
100
AcDbEntity
  8
1
  6
CONTINUOUS
 62
     3
100
AcDbLine
 10
624.5383
 20
462.1933
 30
0.0
 11
624.5383
 21
220.9933
 31
0.0
  0
LINE
  5
86
100
AcDbEntity
  8
1
  6
CONTINUOUS
 62
     3
100
AcDbLine
 10
640.1383
 20
462.1933
 30
0.0
 11
640.1383
 21
220.9933
 31
0.0
  0
LINE
  5
87
100
AcDbEntity
  8
1
  6
CONTINUOUS
 62
     3
100
AcDbLine
 10
60.8383
 20
436.9933
 30
0.0
 11
77.3383
 21
436.9933
 31
0.0
  0
LINE
  5
88
100
AcDbEntity
  8
1
  6
CONTINUOUS
 62
     3
100
AcDbLine
 10
656.9383
 20
436.9933
 30
0.0
 11
673.4383
 21
436.9933
 31
0.0
  0
TEXT
  5
89
100
AcDbEntity
  8
1
  6
CONTINUOUS
 62
     7
100
AcDbText
 10
286.3114
 20
486.9039
 30
0.0
 40
4.2
  1
SIGN POST SECTION REQUIRED (TWO SUPPORTS)
  7
MONOTXT
 72
     4
 11
366.9546
 21
489.0039
 31
0.0
210
0.0
220
0.0
230
1.0
100
AcDbText
  0
LINE
  5
8A
100
AcDbEntity
  8
1
  6
CONTINUOUS
 62
     7
100
AcDbLine
 10
285.2319
 20
485.3431
 30
0.0
 11
448.7351
 21
485.3431
 31
0.0
  0
TEXT
  5
8B
100
AcDbEntity
  8
1
  6
CONTINUOUS
 62
     7
100
AcDbText
 10
315.8683
 20
465.9945
 30
0.0
 40
3.6
  1
TOTAL SQUARE FEET OF SIGN AREA
  7
MONOTXT
 72
     4
 11
367.1753
 21
467.7945
 31
0.0
210
0.0
220
0.0
230
1.0
100
AcDbText
  0
LINE
  5
8C
100
AcDbEntity
  8
1
  6
CONTINUOUS
 62
     3
100
AcDbLine
 10
109.7383
 20
462.1933
 30
0.0
 11
109.7383
 21
232.9933
 31
0.0
  0
LINE
  5
8D
100
AcDbEntity
  8
1
  6
CONTINUOUS
 62
     1
100
AcDbLine
 10
109.7383
 20
232.9933
 30
0.0
 11
109.7383
 21
220.9933
 31
0.0
  0
LINE
  5
8E
100
AcDbEntity
  8
1
  6
CONTINUOUS
 62
     3
100
AcDbLine
 10
60.8383
 20
232.9933
 30
0.0
 11
109.7383
 21
232.9933
 31
0.0
  0
LINE
  5
8F
100
AcDbEntity
  8
1
  6
CONTINUOUS
 62
     1
100
AcDbLine
 10
109.7383
 20
232.9933
 30
0.0
 11
125.3383
 21
232.9933
 31
0.0
  0
LINE
  5
90
100
AcDbEntity
  8
1
  6
CONTINUOUS
 62
     3
100
AcDbLine
 10
125.3383
 20
462.1933
 30
0.0
 11
125.3383
 21
256.9933
 31
0.0
  0
LINE
  5
91
100
AcDbEntity
  8
1
  6
CONTINUOUS
 62
     1
100
AcDbLine
 10
125.3383
 20
256.9933
 30
0.0
 11
125.3383
 21
232.9933
 31
0.0
  0
LINE
  5
92
100
AcDbEntity
  8
1
  6
CONTINUOUS
 62
     3
100
AcDbLine
 10
125.3383
 20
232.9933
 30
0.0
 11
125.3383
 21
220.9933
 31
0.0
  0
LINE
  5
93
100
AcDbEntity
  8
1
  6
CONTINUOUS
 62
     3
100
AcDbLine
 10
60.8383
 20
256.9933
 30
0.0
 11
125.3383
 21
256.9933
 31
0.0
  0
LINE
  5
94
100
AcDbEntity
  8
1
  6
CONTINUOUS
 62
     1
100
AcDbLine
 10
125.3383
 20
256.9933
 30
0.0
 11
140.9383
 21
256.9933
 31
0.0
  0
LINE
  5
95
100
AcDbEntity
  8
1
  6
CONTINUOUS
 62
     3
100
AcDbLine
 10
140.9383
 20
462.1933
 30
0.0
 11
140.9383
 21
280.9933
 31
0.0
  0
LINE
  5
96
100
AcDbEntity
  8
1
  6
CONTINUOUS
 62
     1
100
AcDbLine
 10
140.9383
 20
280.9933
 30
0.0
 11
140.9383
 21
256.9933
 31
0.0
  0
LINE
  5
97
100
AcDbEntity
  8
1
  6
CONTINUOUS
 62
     3
100
AcDbLine
 10
140.9383
 20
256.9933
 30
0.0
 11
140.9383
 21
220.9933
 31
0.0
  0
LINE
  5
98
100
AcDbEntity
  8
1
  6
CONTINUOUS
 62
     3
100
AcDbLine
 10
60.8383
 20
280.9933
 30
0.0
 11
140.9383
 21
280.9933
 31
0.0
  0
LINE
  5
99
100
AcDbEntity
  8
1
  6
CONTINUOUS
 62
     1
100
AcDbLine
 10
140.9383
 20
280.9933
 30
0.0
 11
156.5383
 21
280.9933
 31
0.0
  0
LINE
  5
9A
100
AcDbEntity
  8
1
  6
CONTINUOUS
 62
     3
100
AcDbLine
 10
156.5383
 20
462.1933
 30
0.0
 11
156.5383
 21
304.9933
 31
0.0
  0
LINE
  5
9B
100
AcDbEntity
  8
1
  6
CONTINUOUS
 62
     1
100
AcDbLine
 10
156.5383
 20
304.9933
 30
0.0
 11
156.5383
 21
280.9933
 31
0.0
  0
LINE
  5
9C
100
AcDbEntity
  8
1
  6
CONTINUOUS
 62
     3
100
AcDbLine
 10
156.5383
 20
280.9933
 30
0.0
 11
156.5383
 21
220.9933
 31
0.0
  0
LINE
  5
9D
100
AcDbEntity
  8
1
  6
CONTINUOUS
 62
     3
100
AcDbLine
 10
60.8383
 20
304.9933
 30
0.0
 11
156.5383
 21
304.9933
 31
0.0
  0
LINE
  5
9E
100
AcDbEntity
  8
1
  6
CONTINUOUS
 62
     1
100
AcDbLine
 10
156.5383
 20
304.9933
 30
0.0
 11
172.1383
 21
304.9933
 31
0.0
  0
LINE
  5
9F
100
AcDbEntity
  8
1
  6
CONTINUOUS
 62
     3
100
AcDbLine
 10
172.1383
 20
462.1933
 30
0.0
 11
172.1383
 21
328.9933
 31
0.0
  0
LINE
  5
A0
100
AcDbEntity
  8
1
  6
CONTINUOUS
 62
     1
100
AcDbLine
 10
172.1383
 20
328.9933
 30
0.0
 11
172.1383
 21
304.9933
 31
0.0
  0
LINE
  5
A1
100
AcDbEntity
  8
1
  6
CONTINUOUS
 62
     3
100
AcDbLine
 10
172.1383
 20
304.9933
 30
0.0
 11
172.1383
 21
220.9933
 31
0.0
  0
LINE
  5
A2
100
AcDbEntity
  8
1
  6
CONTINUOUS
 62
     3
100
AcDbLine
 10
60.8383
 20
328.9933
 30
0.0
 11
172.1383
 21
328.9933
 31
0.0
  0
LINE
  5
A3
100
AcDbEntity
  8
1
  6
CONTINUOUS
 62
     1
100
AcDbLine
 10
172.1383
 20
328.9933
 30
0.0
 11
187.7383
 21
328.9933
 31
0.0
  0
LINE
  5
A4
100
AcDbEntity
  8
1
  6
CONTINUOUS
 62
     3
100
AcDbLine
 10
187.7383
 20
462.1933
 30
0.0
 11
187.7383
 21
340.9933
 31
0.0
  0
LINE
  5
A5
100
AcDbEntity
  8
1
  6
CONTINUOUS
 62
     1
100
AcDbLine
 10
187.7383
 20
340.9933
 30
0.0
 11
187.7383
 21
328.9933
 31
0.0
  0
LINE
  5
A6
100
AcDbEntity
  8
1
  6
CONTINUOUS
 62
     3
100
AcDbLine
 10
187.7383
 20
328.9933
 30
0.0
 11
187.7383
 21
220.9933
 31
0.0
  0
LINE
  5
A7
100
AcDbEntity
  8
1
  6
CONTINUOUS
 62
     3
100
AcDbLine
 10
60.8383
 20
340.9933
 30
0.0
 11
187.7383
 21
340.9933
 31
0.0
  0
LINE
  5
A8
100
AcDbEntity
  8
1
  6
CONTINUOUS
 62
     1
100
AcDbLine
 10
187.7383
 20
340.9933
 30
0.0
 11
203.3383
 21
340.9933
 31
0.0
  0
LINE
  5
A9
100
AcDbEntity
  8
1
  6
CONTINUOUS
 62
     3
100
AcDbLine
 10
203.3383
 20
462.1933
 30
0.0
 11
203.3383
 21
352.9933
 31
0.0
  0
LINE
  5
AA
100
AcDbEntity
  8
1
  6
CONTINUOUS
 62
     1
100
AcDbLine
 10
203.3383
 20
352.9933
 30
0.0
 11
203.3383
 21
340.9933
 31
0.0
  0
LINE
  5
AB
100
AcDbEntity
  8
1
  6
CONTINUOUS
 62
     3
100
AcDbLine
 10
203.3383
 20
340.9933
 30
0.0
 11
203.3383
 21
220.9933
 31
0.0
  0
LINE
  5
AC
100
AcDbEntity
  8
1
  6
CONTINUOUS
 62
     3
100
AcDbLine
 10
60.8383
 20
352.9933
 30
0.0
 11
203.3383
 21
352.9933
 31
0.0
  0
LINE
  5
AD
100
AcDbEntity
  8
1
  6
CONTINUOUS
 62
     1
100
AcDbLine
 10
203.3383
 20
352.9933
 30
0.0
 11
218.9383
 21
352.9933
 31
0.0
  0
LINE
  5
AE
100
AcDbEntity
  8
1
  6
CONTINUOUS
 62
     3
100
AcDbLine
 10
218.9383
 20
462.1933
 30
0.0
 11
218.9383
 21
376.9933
 31
0.0
  0
LINE
  5
AF
100
AcDbEntity
  8
1
  6
CONTINUOUS
 62
     1
100
AcDbLine
 10
218.9383
 20
376.9933
 30
0.0
 11
218.9383
 21
352.9933
 31
0.0
  0
LINE
  5
B0
100
AcDbEntity
  8
1
  6
CONTINUOUS
 62
     3
100
AcDbLine
 10
218.9383
 20
352.9933
 30
0.0
 11
218.9383
 21
220.9933
 31
0.0
  0
LINE
  5
B1
100
AcDbEntity
  8
1
  6
CONTINUOUS
 62
     3
100
AcDbLine
 10
60.8383
 20
376.9933
 30
0.0
 11
218.9383
 21
376.9933
 31
0.0
  0
LINE
  5
B2
100
AcDbEntity
  8
1
  6
CONTINUOUS
 62
     1
100
AcDbLine
 10
218.9383
 20
376.9933
 30
0.0
 11
234.5383
 21
376.9933
 31
0.0
  0
LINE
  5
B3
100
AcDbEntity
  8
1
  6
CONTINUOUS
 62
     3
100
AcDbLine
 10
234.5383
 20
462.1933
 30
0.0
 11
234.5383
 21
388.9933
 31
0.0
  0
LINE
  5
B4
100
AcDbEntity
  8
1
  6
CONTINUOUS
 62
     1
100
AcDbLine
 10
234.5383
 20
388.9933
 30
0.0
 11
234.5383
 21
376.9933
 31
0.0
  0
LINE
  5
B5
100
AcDbEntity
  8
1
  6
CONTINUOUS
 62
     3
100
AcDbLine
 10
234.5383
 20
376.9933
 30
0.0
 11
234.5383
 21
220.9933
 31
0.0
  0
LINE
  5
B6
100
AcDbEntity
  8
1
  6
CONTINUOUS
 62
     3
100
AcDbLine
 10
60.8383
 20
388.9933
 30
0.0
 11
234.5383
 21
388.9933
 31
0.0
  0
LINE
  5
B7
100
AcDbEntity
  8
1
  6
CONTINUOUS
 62
     1
100
AcDbLine
 10
234.5383
 20
388.9933
 30
0.0
 11
250.1383
 21
388.9933
 31
0.0
  0
LINE
  5
B8
100
AcDbEntity
  8
1
  6
CONTINUOUS
 62
     3
100
AcDbLine
 10
250.1383
 20
462.1933
 30
0.0
 11
250.1383
 21
400.9933
 31
0.0
  0
LINE
  5
B9
100
AcDbEntity
  8
1
  6
CONTINUOUS
 62
     1
100
AcDbLine
 10
250.1383
 20
400.9933
 30
0.0
 11
250.1383
 21
388.9933
 31
0.0
  0
LINE
  5
BA
100
AcDbEntity
  8
1
  6
CONTINUOUS
 62
     3
100
AcDbLine
 10
250.1383
 20
388.9933
 30
0.0
 11
250.1383
 21
220.9933
 31
0.0
  0
LINE
  5
BB
100
AcDbEntity
  8
1
  6
CONTINUOUS
 62
     3
100
AcDbLine
 10
60.8383
 20
400.9933
 30
0.0
 11
250.1383
 21
400.9933
 31
0.0
  0
LINE
  5
BC
100
AcDbEntity
  8
1
  6
CONTINUOUS
 62
     1
100
AcDbLine
 10
250.1383
 20
400.9933
 30
0.0
 11
265.7383
 21
400.9933
 31
0.0
  0
LINE
  5
BD
100
AcDbEntity
  8
1
  6
CONTINUOUS
 62
     3
100
AcDbLine
 10
265.7383
 20
462.1933
 30
0.0
 11
265.7383
 21
412.9933
 31
0.0
  0
LINE
  5
BE
100
AcDbEntity
  8
1
  6
CONTINUOUS
 62
     1
100
AcDbLine
 10
265.7383
 20
412.9933
 30
0.0
 11
265.7383
 21
400.9933
 31
0.0
  0
LINE
  5
BF
100
AcDbEntity
  8
1
  6
CONTINUOUS
 62
     3
100
AcDbLine
 10
265.7383
 20
400.9933
 30
0.0
 11
265.7383
 21
220.9933
 31
0.0
  0
LINE
  5
C0
100
AcDbEntity
  8
1
  6
CONTINUOUS
 62
     3
100
AcDbLine
 10
60.8383
 20
412.9933
 30
0.0
 11
265.7383
 21
412.9933
 31
0.0
  0
LINE
  5
C1
100
AcDbEntity
  8
1
  6
CONTINUOUS
 62
     1
100
AcDbLine
 10
265.7383
 20
412.9933
 30
0.0
 11
296.9383
 21
412.9933
 31
0.0
  0
LINE
  5
C2
100
AcDbEntity
  8
1
  6
CONTINUOUS
 62
     3
100
AcDbLine
 10
296.9383
 20
462.1933
 30
0.0
 11
296.9383
 21
424.9933
 31
0.0
  0
LINE
  5
C3
100
AcDbEntity
  8
1
  6
CONTINUOUS
 62
     1
100
AcDbLine
 10
296.9383
 20
424.9933
 30
0.0
 11
296.9383
 21
412.9933
 31
0.0
  0
LINE
  5
C4
100
AcDbEntity
  8
1
  6
CONTINUOUS
 62
     3
100
AcDbLine
 10
296.9383
 20
412.9933
 30
0.0
 11
296.9383
 21
220.9933
 31
0.0
  0
LINE
  5
C5
100
AcDbEntity
  8
1
  6
CONTINUOUS
 62
     3
100
AcDbLine
 10
60.8383
 20
424.9933
 30
0.0
 11
296.9383
 21
424.9933
 31
0.0
  0
LINE
  5
C6
100
AcDbEntity
  8
1
  6
CONTINUOUS
 62
     1
100
AcDbLine
 10
296.9383
 20
424.9933
 30
0.0
 11
312.5383
 21
424.9933
 31
0.0
  0
LINE
  5
C7
100
AcDbEntity
  8
1
  6
CONTINUOUS
 62
     3
100
AcDbLine
 10
312.5383
 20
462.1933
 30
0.0
 11
312.5383
 21
436.9933
 31
0.0
  0
LINE
  5
C8
100
AcDbEntity
  8
1
  6
CONTINUOUS
 62
     1
100
AcDbLine
 10
312.5383
 20
436.9933
 30
0.0
 11
312.5383
 21
424.9933
 31
0.0
  0
LINE
  5
C9
100
AcDbEntity
  8
1
  6
CONTINUOUS
 62
     3
100
AcDbLine
 10
312.5383
 20
424.9933
 30
0.0
 11
312.5383
 21
220.9933
 31
0.0
  0
LINE
  5
CA
100
AcDbEntity
  8
1
  6
CONTINUOUS
 62
     3
100
AcDbLine
 10
77.3383
 20
436.9933
 30
0.0
 11
312.5383
 21
436.9933
 31
0.0
  0
LINE
  5
CB
100
AcDbEntity
  8
1
  6
CONTINUOUS
 62
     1
100
AcDbLine
 10
312.5383
 20
436.9933
 30
0.0
 11
343.7383
 21
436.9933
 31
0.0
  0
LINE
  5
CC
100
AcDbEntity
  8
1
  6
CONTINUOUS
 62
     3
100
AcDbLine
 10
343.7383
 20
462.1933
 30
0.0
 11
343.7383
 21
448.9933
 31
0.0
  0
LINE
  5
CD
100
AcDbEntity
  8
1
  6
CONTINUOUS
 62
     1
100
AcDbLine
 10
343.7383
 20
448.9933
 30
0.0
 11
343.7383
 21
436.9933
 31
0.0
  0
LINE
  5
CE
100
AcDbEntity
  8
1
  6
CONTINUOUS
 62
     3
100
AcDbLine
 10
343.7383
 20
436.9933
 30
0.0
 11
343.7383
 21
220.9933
 31
0.0
  0
LINE
  5
CF
100
AcDbEntity
  8
1
  6
CONTINUOUS
 62
     1
100
AcDbLine
 10
234.5383
 20
232.9933
 30
0.0
 11
234.5383
 21
220.9933
 31
0.0
  0
LINE
  5
D0
100
AcDbEntity
  8
1
  6
CONTINUOUS
 62
     1
100
AcDbLine
 10
250.1383
 20
256.9933
 30
0.0
 11
250.1383
 21
232.9933
 31
0.0
  0
LINE
  5
D1
100
AcDbEntity
  8
1
  6
CONTINUOUS
 62
     1
100
AcDbLine
 10
265.7383
 20
268.9933
 30
0.0
 11
265.7383
 21
256.9933
 31
0.0
  0
LINE
  5
D2
100
AcDbEntity
  8
1
  6
CONTINUOUS
 62
     1
100
AcDbLine
 10
281.3383
 20
280.9933
 30
0.0
 11
281.3383
 21
268.9933
 31
0.0
  0
LINE
  5
D3
100
AcDbEntity
  8
1
  6
CONTINUOUS
 62
     1
100
AcDbLine
 10
296.9383
 20
304.9933
 30
0.0
 11
296.9383
 21
280.9933
 31
0.0
  0
LINE
  5
D4
100
AcDbEntity
  8
1
  6
CONTINUOUS
 62
     1
100
AcDbLine
 10
312.5383
 20
316.9933
 30
0.0
 11
312.5383
 21
304.9933
 31
0.0
  0
LINE
  5
D5
100
AcDbEntity
  8
1
  6
CONTINUOUS
 62
     1
100
AcDbLine
 10
328.1383
 20
328.9933
 30
0.0
 11
328.1383
 21
316.9933
 31
0.0
  0
LINE
  5
D6
100
AcDbEntity
  8
1
  6
CONTINUOUS
 62
     1
100
AcDbLine
 10
343.7383
 20
340.9933
 30
0.0
 11
343.7383
 21
328.9933
 31
0.0
  0
LINE
  5
D7
100
AcDbEntity
  8
1
  6
CONTINUOUS
 62
     1
100
AcDbLine
 10
374.9383
 20
352.9933
 30
0.0
 11
374.9383
 21
340.9933
 31
0.0
  0
LINE
  5
D8
100
AcDbEntity
  8
1
  6
CONTINUOUS
 62
     1
100
AcDbLine
 10
406.1383
 20
364.9933
 30
0.0
 11
406.1383
 21
352.9933
 31
0.0
  0
LINE
  5
D9
100
AcDbEntity
  8
1
  6
CONTINUOUS
 62
     1
100
AcDbLine
 10
421.7383
 20
376.9933
 30
0.0
 11
421.7383
 21
364.9933
 31
0.0
  0
LINE
  5
DA
100
AcDbEntity
  8
1
  6
CONTINUOUS
 62
     1
100
AcDbLine
 10
452.9383
 20
388.9933
 30
0.0
 11
452.9383
 21
376.9933
 31
0.0
  0
LINE
  5
DB
100
AcDbEntity
  8
1
  6
CONTINUOUS
 62
     1
100
AcDbLine
 10
468.5383
 20
400.9933
 30
0.0
 11
468.5383
 21
388.9933
 31
0.0
  0
LINE
  5
DC
100
AcDbEntity
  8
1
  6
CONTINUOUS
 62
     1
100
AcDbLine
 10
515.3383
 20
412.9933
 30
0.0
 11
515.3383
 21
400.9933
 31
0.0
  0
LINE
  5
DD
100
AcDbEntity
  8
1
  6
CONTINUOUS
 62
     1
100
AcDbLine
 10
562.1383
 20
424.9933
 30
0.0
 11
562.1383
 21
412.9933
 31
0.0
  0
LINE
  5
DE
100
AcDbEntity
  8
1
  6
CONTINUOUS
 62
     1
100
AcDbLine
 10
593.3383
 20
436.9933
 30
0.0
 11
593.3383
 21
424.9933
 31
0.0
  0
LINE
  5
DF
100
AcDbEntity
  8
1
  6
CONTINUOUS
 62
     1
100
AcDbLine
 10
640.1383
 20
448.9933
 30
0.0
 11
640.1383
 21
436.9933
 31
0.0
  0
LINE
  5
E0
100
AcDbEntity
  8
1
  6
CONTINUOUS
 62
     3
100
AcDbLine
 10
125.3383
 20
232.9933
 30
0.0
 11
234.5383
 21
232.9933
 31
0.0
  0
LINE
  5
E1
100
AcDbEntity
  8
1
  6
CONTINUOUS
 62
     1
100
AcDbLine
 10
234.5383
 20
232.9933
 30
0.0
 11
250.1383
 21
232.9933
 31
0.0
  0
LINE
  5
E2
100
AcDbEntity
  8
1
  6
CONTINUOUS
 62
     3
100
AcDbLine
 10
140.9383
 20
256.9933
 30
0.0
 11
250.1383
 21
256.9933
 31
0.0
  0
LINE
  5
E3
100
AcDbEntity
  8
1
  6
CONTINUOUS
 62
     1
100
AcDbLine
 10
250.1383
 20
256.9933
 30
0.0
 11
265.7383
 21
256.9933
 31
0.0
  0
LINE
  5
E4
100
AcDbEntity
  8
1
  6
CONTINUOUS
 62
     3
100
AcDbLine
 10
60.8383
 20
268.9933
 30
0.0
 11
265.7383
 21
268.9933
 31
0.0
  0
LINE
  5
E5
100
AcDbEntity
  8
1
  6
CONTINUOUS
 62
     1
100
AcDbLine
 10
265.7383
 20
268.9933
 30
0.0
 11
281.3383
 21
268.9933
 31
0.0
  0
LINE
  5
E6
100
AcDbEntity
  8
1
  6
CONTINUOUS
 62
     3
100
AcDbLine
 10
156.5383
 20
280.9933
 30
0.0
 11
281.3383
 21
280.9933
 31
0.0
  0
LINE
  5
E7
100
AcDbEntity
  8
1
  6
CONTINUOUS
 62
     1
100
AcDbLine
 10
281.3383
 20
280.9933
 30
0.0
 11
296.9383
 21
280.9933
 31
0.0
  0
LINE
  5
E8
100
AcDbEntity
  8
1
  6
CONTINUOUS
 62
     3
100
AcDbLine
 10
172.1383
 20
304.9933
 30
0.0
 11
296.9383
 21
304.9933
 31
0.0
  0
LINE
  5
E9
100
AcDbEntity
  8
1
  6
CONTINUOUS
 62
     1
100
AcDbLine
 10
296.9383
 20
304.9933
 30
0.0
 11
312.5383
 21
304.9933
 31
0.0
  0
LINE
  5
EA
100
AcDbEntity
  8
1
  6
CONTINUOUS
 62
     3
100
AcDbLine
 10
60.8383
 20
316.9933
 30
0.0
 11
312.5383
 21
316.9933
 31
0.0
  0
LINE
  5
EB
100
AcDbEntity
  8
1
  6
CONTINUOUS
 62
     1
100
AcDbLine
 10
312.5383
 20
316.9933
 30
0.0
 11
328.1383
 21
316.9933
 31
0.0
  0
LINE
  5
EC
100
AcDbEntity
  8
1
  6
CONTINUOUS
 62
     3
100
AcDbLine
 10
187.7383
 20
328.9933
 30
0.0
 11
328.1383
 21
328.9933
 31
0.0
  0
LINE
  5
ED
100
AcDbEntity
  8
1
  6
CONTINUOUS
 62
     1
100
AcDbLine
 10
328.1383
 20
328.9933
 30
0.0
 11
343.7383
 21
328.9933
 31
0.0
  0
LINE
  5
EE
100
AcDbEntity
  8
1
  6
CONTINUOUS
 62
     3
100
AcDbLine
 10
203.3383
 20
340.9933
 30
0.0
 11
343.7383
 21
340.9933
 31
0.0
  0
LINE
  5
EF
100
AcDbEntity
  8
1
  6
CONTINUOUS
 62
     1
100
AcDbLine
 10
343.7383
 20
340.9933
 30
0.0
 11
374.9383
 21
340.9933
 31
0.0
  0
LINE
  5
F0
100
AcDbEntity
  8
1
  6
CONTINUOUS
 62
     3
100
AcDbLine
 10
218.9383
 20
352.9933
 30
0.0
 11
374.9383
 21
352.9933
 31
0.0
  0
LINE
  5
F1
100
AcDbEntity
  8
1
  6
CONTINUOUS
 62
     1
100
AcDbLine
 10
374.9383
 20
352.9933
 30
0.0
 11
406.1383
 21
352.9933
 31
0.0
  0
LINE
  5
F2
100
AcDbEntity
  8
1
  6
CONTINUOUS
 62
     3
100
AcDbLine
 10
60.8383
 20
364.9933
 30
0.0
 11
406.1383
 21
364.9933
 31
0.0
  0
LINE
  5
F3
100
AcDbEntity
  8
1
  6
CONTINUOUS
 62
     1
100
AcDbLine
 10
406.1383
 20
364.9933
 30
0.0
 11
421.7383
 21
364.9933
 31
0.0
  0
LINE
  5
F4
100
AcDbEntity
  8
1
  6
CONTINUOUS
 62
     3
100
AcDbLine
 10
234.5383
 20
376.9933
 30
0.0
 11
421.7383
 21
376.9933
 31
0.0
  0
LINE
  5
F5
100
AcDbEntity
  8
1
  6
CONTINUOUS
 62
     1
100
AcDbLine
 10
421.7383
 20
376.9933
 30
0.0
 11
452.9383
 21
376.9933
 31
0.0
  0
LINE
  5
F6
100
AcDbEntity
  8
1
  6
CONTINUOUS
 62
     3
100
AcDbLine
 10
452.9383
 20
376.9933
 30
0.0
 11
673.4383
 21
376.9933
 31
0.0
  0
LINE
  5
F7
100
AcDbEntity
  8
1
  6
CONTINUOUS
 62
     3
100
AcDbLine
 10
250.1383
 20
388.9933
 30
0.0
 11
452.9383
 21
388.9933
 31
0.0
  0
LINE
  5
F8
100
AcDbEntity
  8
1
  6
CONTINUOUS
 62
     1
100
AcDbLine
 10
452.9383
 20
388.9933
 30
0.0
 11
468.5383
 21
388.9933
 31
0.0
  0
LINE
  5
F9
100
AcDbEntity
  8
1
  6
CONTINUOUS
 62
     3
100
AcDbLine
 10
468.5383
 20
388.9933
 30
0.0
 11
673.4383
 21
388.9933
 31
0.0
  0
LINE
  5
FA
100
AcDbEntity
  8
1
  6
CONTINUOUS
 62
     3
100
AcDbLine
 10
265.7383
 20
400.9933
 30
0.0
 11
468.5383
 21
400.9933
 31
0.0
  0
LINE
  5
FB
100
AcDbEntity
  8
1
  6
CONTINUOUS
 62
     1
100
AcDbLine
 10
468.5383
 20
400.9933
 30
0.0
 11
515.3383
 21
400.9933
 31
0.0
  0
LINE
  5
FC
100
AcDbEntity
  8
1
  6
CONTINUOUS
 62
     3
100
AcDbLine
 10
515.3383
 20
400.9933
 30
0.0
 11
673.4383
 21
400.9933
 31
0.0
  0
LINE
  5
FD
100
AcDbEntity
  8
1
  6
CONTINUOUS
 62
     3
100
AcDbLine
 10
296.9383
 20
412.9933
 30
0.0
 11
515.3383
 21
412.9933
 31
0.0
  0
LINE
  5
FE
100
AcDbEntity
  8
1
  6
CONTINUOUS
 62
     1
100
AcDbLine
 10
515.3383
 20
412.9933
 30
0.0
 11
562.1383
 21
412.9933
 31
0.0
  0
LINE
  5
FF
100
AcDbEntity
  8
1
  6
CONTINUOUS
 62
     3
100
AcDbLine
 10
562.1383
 20
412.9933
 30
0.0
 11
673.4383
 21
412.9933
 31
0.0
  0
LINE
  5
100
100
AcDbEntity
  8
1
  6
CONTINUOUS
 62
     3
100
AcDbLine
 10
312.5383
 20
424.9933
 30
0.0
 11
562.1383
 21
424.9933
 31
0.0
  0
LINE
  5
101
100
AcDbEntity
  8
1
  6
CONTINUOUS
 62
     1
100
AcDbLine
 10
562.1383
 20
424.9933
 30
0.0
 11
593.3383
 21
424.9933
 31
0.0
  0
LINE
  5
102
100
AcDbEntity
  8
1
  6
CONTINUOUS
 62
     3
100
AcDbLine
 10
593.3383
 20
424.9933
 30
0.0
 11
673.4383
 21
424.9933
 31
0.0
  0
LINE
  5
103
100
AcDbEntity
  8
1
  6
CONTINUOUS
 62
     3
100
AcDbLine
 10
343.7383
 20
436.9933
 30
0.0
 11
593.3383
 21
436.9933
 31
0.0
  0
LINE
  5
104
100
AcDbEntity
  8
1
  6
CONTINUOUS
 62
     1
100
AcDbLine
 10
593.3383
 20
436.9933
 30
0.0
 11
640.1383
 21
436.9933
 31
0.0
  0
LINE
  5
105
100
AcDbEntity
  8
1
  6
CONTINUOUS
 62
     3
100
AcDbLine
 10
640.1383
 20
436.9933
 30
0.0
 11
656.9383
 21
436.9933
 31
0.0
  0
LINE
  5
106
100
AcDbEntity
  8
1
  6
CONTINUOUS
 62
     1
100
AcDbLine
 10
406.1383
 20
232.9933
 30
0.0
 11
406.1383
 21
220.9933
 31
0.0
  0
LINE
  5
107
100
AcDbEntity
  8
1
  6
CONTINUOUS
 62
     1
100
AcDbLine
 10
421.7383
 20
244.9933
 30
0.0
 11
421.7383
 21
232.9933
 31
0.0
  0
LINE
  5
108
100
AcDbEntity
  8
1
  6
CONTINUOUS
 62
     1
100
AcDbLine
 10
437.3383
 20
256.9933
 30
0.0
 11
437.3383
 21
244.9933
 31
0.0
  0
LINE
  5
109
100
AcDbEntity
  8
1
  6
CONTINUOUS
 62
     1
100
AcDbLine
 10
452.9383
 20
268.9933
 30
0.0
 11
452.9383
 21
256.9933
 31
0.0
  0
LINE
  5
10A
100
AcDbEntity
  8
1
  6
CONTINUOUS
 62
     1
100
AcDbLine
 10
468.5383
 20
280.9933
 30
0.0
 11
468.5383
 21
268.9933
 31
0.0
  0
LINE
  5
10B
100
AcDbEntity
  8
1
  6
CONTINUOUS
 62
     1
100
AcDbLine
 10
484.1383
 20
292.9933
 30
0.0
 11
484.1383
 21
280.9933
 31
0.0
  0
LINE
  5
10C
100
AcDbEntity
  8
1
  6
CONTINUOUS
 62
     1
100
AcDbLine
 10
515.3383
 20
304.9933
 30
0.0
 11
515.3383
 21
292.9933
 31
0.0
  0
LINE
  5
10D
100
AcDbEntity
  8
1
  6
CONTINUOUS
 62
     1
100
AcDbLine
 10
530.9383
 20
316.9933
 30
0.0
 11
530.9383
 21
304.9933
 31
0.0
  0
LINE
  5
10E
100
AcDbEntity
  8
1
  6
CONTINUOUS
 62
     1
100
AcDbLine
 10
562.1383
 20
328.9933
 30
0.0
 11
562.1383
 21
316.9933
 31
0.0
  0
LINE
  5
10F
100
AcDbEntity
  8
1
  6
CONTINUOUS
 62
     1
100
AcDbLine
 10
593.3383
 20
340.9933
 30
0.0
 11
593.3383
 21
328.9933
 31
0.0
  0
LINE
  5
110
100
AcDbEntity
  8
1
  6
CONTINUOUS
 62
     1
100
AcDbLine
 10
624.5383
 20
352.9933
 30
0.0
 11
624.5383
 21
340.9933
 31
0.0
  0
LINE
  5
111
100
AcDbEntity
  8
1
  6
CONTINUOUS
 62
     1
100
AcDbLine
 10
640.1383
 20
364.9933
 30
0.0
 11
640.1383
 21
352.9933
 31
0.0
  0
LINE
  5
112
100
AcDbEntity
  8
1
  6
CONTINUOUS
 62
     3
100
AcDbLine
 10
250.1383
 20
232.9933
 30
0.0
 11
406.1383
 21
232.9933
 31
0.0
  0
LINE
  5
113
100
AcDbEntity
  8
1
  6
CONTINUOUS
 62
     1
100
AcDbLine
 10
406.1383
 20
232.9933
 30
0.0
 11
421.7383
 21
232.9933
 31
0.0
  0
LINE
  5
114
100
AcDbEntity
  8
1
  6
CONTINUOUS
 62
     3
100
AcDbLine
 10
421.7383
 20
232.9933
 30
0.0
 11
673.4383
 21
232.9933
 31
0.0
  0
LINE
  5
115
100
AcDbEntity
  8
1
  6
CONTINUOUS
 62
     3
100
AcDbLine
 10
60.8383
 20
244.9933
 30
0.0
 11
421.7383
 21
244.9933
 31
0.0
  0
LINE
  5
116
100
AcDbEntity
  8
1
  6
CONTINUOUS
 62
     1
100
AcDbLine
 10
421.7383
 20
244.9933
 30
0.0
 11
437.3383
 21
244.9933
 31
0.0
  0
LINE
  5
117
100
AcDbEntity
  8
1
  6
CONTINUOUS
 62
     3
100
AcDbLine
 10
437.3383
 20
244.9933
 30
0.0
 11
673.4383
 21
244.9933
 31
0.0
  0
LINE
  5
118
100
AcDbEntity
  8
1
  6
CONTINUOUS
 62
     3
100
AcDbLine
 10
265.7383
 20
256.9933
 30
0.0
 11
437.3383
 21
256.9933
 31
0.0
  0
LINE
  5
119
100
AcDbEntity
  8
1
  6
CONTINUOUS
 62
     1
100
AcDbLine
 10
437.3383
 20
256.9933
 30
0.0
 11
452.9383
 21
256.9933
 31
0.0
  0
LINE
  5
11A
100
AcDbEntity
  8
1
  6
CONTINUOUS
 62
     3
100
AcDbLine
 10
452.9383
 20
256.9933
 30
0.0
 11
673.4383
 21
256.9933
 31
0.0
  0
LINE
  5
11B
100
AcDbEntity
  8
1
  6
CONTINUOUS
 62
     3
100
AcDbLine
 10
281.3383
 20
268.9933
 30
0.0
 11
452.9383
 21
268.9933
 31
0.0
  0
LINE
  5
11C
100
AcDbEntity
  8
1
  6
CONTINUOUS
 62
     1
100
AcDbLine
 10
452.9383
 20
268.9933
 30
0.0
 11
468.5383
 21
268.9933
 31
0.0
  0
LINE
  5
11D
100
AcDbEntity
  8
1
  6
CONTINUOUS
 62
     3
100
AcDbLine
 10
468.5383
 20
268.9933
 30
0.0
 11
673.4383
 21
268.9933
 31
0.0
  0
LINE
  5
11E
100
AcDbEntity
  8
1
  6
CONTINUOUS
 62
     3
100
AcDbLine
 10
296.9383
 20
280.9933
 30
0.0
 11
468.5383
 21
280.9933
 31
0.0
  0
LINE
  5
11F
100
AcDbEntity
  8
1
  6
CONTINUOUS
 62
     1
100
AcDbLine
 10
468.5383
 20
280.9933
 30
0.0
 11
484.1383
 21
280.9933
 31
0.0
  0
LINE
  5
120
100
AcDbEntity
  8
1
  6
CONTINUOUS
 62
     3
100
AcDbLine
 10
484.1383
 20
280.9933
 30
0.0
 11
673.4383
 21
280.9933
 31
0.0
  0
LINE
  5
121
100
AcDbEntity
  8
1
  6
CONTINUOUS
 62
     3
100
AcDbLine
 10
60.8383
 20
292.9933
 30
0.0
 11
484.1383
 21
292.9933
 31
0.0
  0
LINE
  5
122
100
AcDbEntity
  8
1
  6
CONTINUOUS
 62
     1
100
AcDbLine
 10
484.1383
 20
292.9933
 30
0.0
 11
515.3383
 21
292.9933
 31
0.0
  0
LINE
  5
123
100
AcDbEntity
  8
1
  6
CONTINUOUS
 62
     3
100
AcDbLine
 10
515.3383
 20
292.9933
 30
0.0
 11
673.4383
 21
292.9933
 31
0.0
  0
LINE
  5
124
100
AcDbEntity
  8
1
  6
CONTINUOUS
 62
     3
100
AcDbLine
 10
312.5383
 20
304.9933
 30
0.0
 11
515.3383
 21
304.9933
 31
0.0
  0
LINE
  5
125
100
AcDbEntity
  8
1
  6
CONTINUOUS
 62
     1
100
AcDbLine
 10
515.3383
 20
304.9933
 30
0.0
 11
530.9383
 21
304.9933
 31
0.0
  0
LINE
  5
126
100
AcDbEntity
  8
1
  6
CONTINUOUS
 62
     3
100
AcDbLine
 10
530.9383
 20
304.9933
 30
0.0
 11
673.4383
 21
304.9933
 31
0.0
  0
LINE
  5
127
100
AcDbEntity
  8
1
  6
CONTINUOUS
 62
     3
100
AcDbLine
 10
328.1383
 20
316.9933
 30
0.0
 11
530.9383
 21
316.9933
 31
0.0
  0
LINE
  5
128
100
AcDbEntity
  8
1
  6
CONTINUOUS
 62
     1
100
AcDbLine
 10
530.9383
 20
316.9933
 30
0.0
 11
562.1383
 21
316.9933
 31
0.0
  0
LINE
  5
129
100
AcDbEntity
  8
1
  6
CONTINUOUS
 62
     3
100
AcDbLine
 10
562.1383
 20
316.9933
 30
0.0
 11
673.4383
 21
316.9933
 31
0.0
  0
LINE
  5
12A
100
AcDbEntity
  8
1
  6
CONTINUOUS
 62
     3
100
AcDbLine
 10
343.7383
 20
328.9933
 30
0.0
 11
562.1383
 21
328.9933
 31
0.0
  0
LINE
  5
12B
100
AcDbEntity
  8
1
  6
CONTINUOUS
 62
     1
100
AcDbLine
 10
562.1383
 20
328.9933
 30
0.0
 11
593.3383
 21
328.9933
 31
0.0
  0
LINE
  5
12C
100
AcDbEntity
  8
1
  6
CONTINUOUS
 62
     3
100
AcDbLine
 10
593.3383
 20
328.9933
 30
0.0
 11
673.4383
 21
328.9933
 31
0.0
  0
LINE
  5
12D
100
AcDbEntity
  8
1
  6
CONTINUOUS
 62
     3
100
AcDbLine
 10
374.9383
 20
340.9933
 30
0.0
 11
593.3383
 21
340.9933
 31
0.0
  0
LINE
  5
12E
100
AcDbEntity
  8
1
  6
CONTINUOUS
 62
     1
100
AcDbLine
 10
593.3383
 20
340.9933
 30
0.0
 11
624.5383
 21
340.9933
 31
0.0
  0
LINE
  5
12F
100
AcDbEntity
  8
1
  6
CONTINUOUS
 62
     3
100
AcDbLine
 10
624.5383
 20
340.9933
 30
0.0
 11
673.4383
 21
340.9933
 31
0.0
  0
LINE
  5
130
100
AcDbEntity
  8
1
  6
CONTINUOUS
 62
     3
100
AcDbLine
 10
406.1383
 20
352.9933
 30
0.0
 11
624.5383
 21
352.9933
 31
0.0
  0
LINE
  5
131
100
AcDbEntity
  8
1
  6
CONTINUOUS
 62
     1
100
AcDbLine
 10
624.5383
 20
352.9933
 30
0.0
 11
640.1383
 21
352.9933
 31
0.0
  0
LINE
  5
132
100
AcDbEntity
  8
1
  6
CONTINUOUS
 62
     3
100
AcDbLine
 10
640.1383
 20
352.9933
 30
0.0
 11
673.4383
 21
352.9933
 31
0.0
  0
LINE
  5
133
100
AcDbEntity
  8
1
  6
CONTINUOUS
 62
     3
100
AcDbLine
 10
421.7383
 20
364.9933
 30
0.0
 11
640.1383
 21
364.9933
 31
0.0
  0
LINE
  5
134
100
AcDbEntity
  8
1
  6
CONTINUOUS
 62
     1
100
AcDbLine
 10
640.1383
 20
364.9933
 30
0.0
 11
655.7383
 21
364.9933
 31
0.0
  0
LINE
  5
135
100
AcDbEntity
  8
1
  6
CONTINUOUS
 62
     3
100
AcDbLine
 10
655.7383
 20
364.9933
 30
0.0
 11
673.4383
 21
364.9933
 31
0.0
  0
LINE
  5
136
100
AcDbEntity
  8
1
  6
DASHED
 62
     2
100
AcDbLine
 10
108.9532
 20
152.2784
 30
0.0
 11
90.3532
 21
133.6784
 31
0.0
  0
LINE
  5
137
100
AcDbEntity
  8
1
  6
DASHED
 62
     2
100
AcDbLine
 10
90.3532
 20
133.6784
 30
0.0
 11
108.9532
 21
115.0784
 31
0.0
  0
LINE
  5
138
100
AcDbEntity
  8
1
  6
DASHED
 62
     2
100
AcDbLine
 10
108.9532
 20
115.0784
 30
0.0
 11
127.5532
 21
133.6784
 31
0.0
  0
LINE
  5
139
100
AcDbEntity
  8
1
  6
DASHED
 62
     2
100
AcDbLine
 10
127.5532
 20
133.6784
 30
0.0
 11
108.9532
 21
152.2784
 31
0.0
  0
LINE
  5
13A
100
AcDbEntity
  8
1
  6
CONTINUOUS
 62
     2
100
AcDbLine
 10
90.3532
 20
143.2784
 30
0.0
 11
90.3532
 21
124.0784
 31
0.0
  0
LINE
  5
13B
100
AcDbEntity
  8
1
  6
CONTINUOUS
 62
     2
100
AcDbLine
 10
127.5532
 20
143.2784
 30
0.0
 11
127.5532
 21
124.0784
 31
0.0
  0
LINE
  5
13C
100
AcDbEntity
  8
1
  6
CONTINUOUS
 62
     2
100
AcDbLine
 10
90.3532
 20
143.2784
 30
0.0
 11
127.5532
 21
143.2784
 31
0.0
  0
LINE
  5
13D
100
AcDbEntity
  8
1
  6
CONTINUOUS
 62
     2
100
AcDbLine
 10
90.3532
 20
124.0784
 30
0.0
 11
127.5532
 21
124.0784
 31
0.0
  0
LINE
  5
13E
100
AcDbEntity
  8
1
  6
DASHED
 62
     2
100
AcDbLine
 10
116.7532
 20
143.2784
 30
0.0
 11
116.7532
 21
124.0784
 31
0.0
  0
LINE
  5
13F
100
AcDbEntity
  8
1
  6
DASHED
 62
     2
100
AcDbLine
 10
101.1532
 20
143.2784
 30
0.0
 11
101.1532
 21
124.0784
 31
0.0
  0
LINE
  5
140
100
AcDbEntity
  8
1
  6
DASHED
 62
     2
100
AcDbLine
 10
99.9532
 20
143.2784
 30
0.0
 11
99.9532
 21
124.0784
 31
0.0
  0
LINE
  5
141
100
AcDbEntity
  8
1
  6
DASHED
 62
     2
100
AcDbLine
 10
117.9532
 20
143.2784
 30
0.0
 11
117.9532
 21
124.0784
 31
0.0
  0
LINE
  5
142
100
AcDbEntity
  8
1
  6
CONTINUOUS
 62
     2
100
AcDbLine
 10
99.9532
 20
124.0784
 30
0.0
 11
99.9532
 21
82.0784
 31
0.0
  0
LINE
  5
143
100
AcDbEntity
  8
1
  6
CONTINUOUS
 62
     2
100
AcDbLine
 10
101.1532
 20
124.0784
 30
0.0
 11
101.1532
 21
82.0784
 31
0.0
  0
LINE
  5
144
100
AcDbEntity
  8
1
  6
CONTINUOUS
 62
     2
100
AcDbLine
 10
116.7532
 20
124.0784
 30
0.0
 11
116.7532
 21
82.0784
 31
0.0
  0
LINE
  5
145
100
AcDbEntity
  8
1
  6
CONTINUOUS
 62
     2
100
AcDbLine
 10
117.9532
 20
124.0784
 30
0.0
 11
117.9532
 21
82.0784
 31
0.0
  0
SPLINE
  5
146
100
AcDbEntity
  8
1
  6
CONTINUOUS
 62
     2
100
AcDbSpline
210
0.0
220
0.0
230
1.0
 70
     8
 71
     3
 72
   131
 73
   127
 74
     0
 42
0.0
 43
0.0
 12
0.9973699219495875
 22
0.0724792300612653
 32
0.0
 13
0.9954483316741071
 23
0.0953027752336567
 33
0.0
 40
0.0
 40
0.0
 40
0.0
 40
0.0
 40
0.0384309993066087
 40
0.0384309993066087
 40
0.0384309993066087
 40
0.0675588489552756
 40
0.0675588489552756
 40
0.0675588489552756
 40
0.0952675159831458
 40
0.0952675159831458
 40
0.0952675159831458
 40
0.1229761830110159
 40
0.1229761830110159
 40
0.1229761830110159
 40
0.1465705093844077
 40
0.1465705093844077
 40
0.1465705093844077
 40
0.1742791764122778
 40
0.1742791764122778
 40
0.1742791764122778
 40
0.2020243427318476
 40
0.2020243427318476
 40
0.2020243427318476
 40
0.2311522801722503
 40
0.2311522801722503
 40
0.2311522801722503
 40
0.2547040010841545
 40
0.2547040010841545
 40
0.2547040010841545
 40
0.2811736584372279
 40
0.2811736584372279
 40
0.2811736584372279
 40
0.3007671668887791
 40
0.3007671668887791
 40
0.3007671668887791
 40
0.3257051518029437
 40
0.3257051518029437
 40
0.3257051518029437
 40
0.3384786667628373
 40
0.3384786667628373
 40
0.3384786667628373
 40
0.3620729931362292
 40
0.3620729931362292
 40
0.3620729931362292
 40
0.3815190884242237
 40
0.3815190884242237
 40
0.3815190884242237
 40
0.4106140194543542
 40
0.4106140194543542
 40
0.4106140194543542
 40
0.4341657403662584
 40
0.4341657403662584
 40
0.4341657403662584
 40
0.4646469353986493
 40
0.4646469353986493
 40
0.4646469353986493
 40
0.4760711982431032
 40
0.4760711982431032
 40
0.4760711982431032
 40
0.5135056981828136
 40
0.5135056981828136
 40
0.5135056981828136
 40
0.5301874902145897
 40
0.5301874902145897
 40
0.5301874902145897
 40
0.5523980967198432
 40
0.5523980967198432
 40
0.5523980967198432
 40
0.5746087032250967
 40
0.5746087032250967
 40
0.5746087032250967
 40
0.5983248880081941
 40
0.5983248880081941
 40
0.5983248880081941
 40
0.6163885165414272
 40
0.6163885165414272
 40
0.6163885165414272
 40
0.6428583671747374
 40
0.6428583671747374
 40
0.6428583671747374
 40
0.6594843057477856
 40
0.6594843057477856
 40
0.6594843057477856
 40
0.666411933977457
 40
0.666411933977457
 40
0.666411933977457
 40
0.6916940085084393
 40
0.6916940085084393
 40
0.6916940085084393
 40
0.7207889395385697
 40
0.7207889395385697
 40
0.7207889395385697
 40
0.7429995460438232
 40
0.7429995460438232
 40
0.7429995460438232
 40
0.758489037978639
 40
0.758489037978639
 40
0.758489037978639
 40
0.7767133720720922
 40
0.7767133720720922
 40
0.7767133720720922
 40
0.7892591881387632
 40
0.7892591881387632
 40
0.7892591881387632
 40
0.796324155284653
 40
0.796324155284653
 40
0.796324155284653
 40
0.8268035044262286
 40
0.8268035044262286
 40
0.8268035044262286
 40
0.8490139957975275
 40
0.8490139957975275
 40
0.8490139957975275
 40
0.8781418454461943
 40
0.8781418454461943
 40
0.8781418454461943
 40
0.9155745007612658
 40
0.9155745007612658
 40
0.9155745007612658
 40
0.9419352255027796
 40
0.9419352255027796
 40
0.9419352255027796
 40
0.9710631629431823
 40
0.9710631629431823
 40
0.9710631629431823
 40
1.0
 40
1.0
 40
1.0
 40
1.0
 10
81.95320000000001
 20
82.078400000000002
 30
0.0
 10
82.645366666666661
 20
82.128700000000009
 30
0.0
 10
83.33753333333334
 20
82.179000000000002
 30
0.0
 10
84.029700000000005
 20
82.229300000000009
 30
0.0
 10
84.554311042185901
 20
82.267423672653919
 30
0.0
 10
85.079905551360099
 20
82.154300000000006
 30
0.0
 10
85.605900000000005
 20
82.154300000000006
 30
0.0
 10
86.10626666666667
 20
82.154300000000006
 30
0.0
 10
86.606633333333335
 20
82.154300000000006
 30
0.0
 10
87.106999999999999
 20
82.154300000000006
 30
0.0
 10
87.607366666666664
 20
82.154300000000006
 30
0.0
 10
88.107733333333343
 20
82.154300000000006
 30
0.0
 10
88.608100000000007
 20
82.154300000000006
 30
0.0
 10
89.034169374893594
 20
82.154300000000006
 30
0.0
 10
89.458339479882
 20
82.090704683936266
 30
0.0
 10
89.884100000000004
 20
82.0792
 30
0.0
 10
90.38410395429247
 20
82.0656891477974
 30
0.0
 10
90.885419013829434
 20
82.088597170297504
 30
0.0
 10
91.385199999999998
 20
82.0792
 30
0.0
 10
91.885639323577493
 20
82.069790451262946
 30
0.0
 10
92.385969570587193
 20
82.004100000000008
 30
0.0
 10
92.886400000000009
 20
82.004100000000008
 30
0.0
 10
93.411771016822087
 20
82.004100000000008
 30
0.0
 10
93.937187691366077
 20
82.066242809948193
 30
0.0
 10
94.462600000000009
 20
82.0792
 30
0.0
 10
94.887428022304846
 20
82.089676681520189
 30
0.0
 10
95.313665411435949
 20
82.071985536802345
 30
0.0
 10
95.738500000000002
 20
82.0792
 30
0.0
 10
96.215969397378117
 20
82.087308297883737
 30
0.0
 10
96.690002931967314
 20
82.229300000000009
 30
0.0
 10
97.164600000000007
 20
82.229300000000009
 30
0.0
 10
97.515908728312652
 20
82.229300000000009
 30
0.0
 10
97.864562967611164
 20
82.10264862739605
 30
0.0
 10
98.215400000000002
 20
82.0792
 30
0.0
 10
98.661934046859301
 20
82.049355344168887
 30
0.0
 10
99.119421080086326
 20
82.112329435128174
 30
0.0
 10
99.566400000000002
 20
82.0792
 30
0.0
 10
99.79534760502608
 20
82.062230732568054
 30
0.0
 10
100.01180164716574
 20
81.939282872832393
 30
0.0
 10
100.2419
 20
81.929000000000002
 30
0.0
 10
100.66692127658656
 20
81.910006210238507
 30
0.0
 10
101.09287872341345
 20
82.023093789761504
 30
0.0
 10
101.51790000000001
 20
82.004100000000008
 30
0.0
 10
101.86819625822453
 20
81.988445599033554
 30
0.0
 10
102.21753991463216
 20
81.929000000000002
 30
0.0
 10
102.56870000000001
 20
81.929000000000002
 30
0.0
 10
103.09410000000001
 20
81.929000000000002
 30
0.0
 10
103.6195
 20
81.929000000000002
 30
0.0
 10
104.14490000000001
 20
81.929000000000002
 30
0.0
 10
104.5702
 20
81.929000000000002
 30
0.0
 10
104.99550000000001
 20
81.929000000000002
 30
0.0
 10
105.4208
 20
81.929000000000002
 30
0.0
 10
105.97123333333333
 20
81.929000000000002
 30
0.0
 10
106.52166666666668
 20
81.929000000000002
 30
0.0
 10
107.07210000000001
 20
81.929000000000002
 30
0.0
 10
107.27840080519044
 20
81.929000000000002
 30
0.0
 10
107.46685218546178
 20
82.05751245659728
 30
0.0
 10
107.6725
 20
82.0792
 30
0.0
 10
108.34635731628805
 20
82.150264746430949
 30
0.0
 10
109.02534905867829
 20
82.203053758572139
 30
0.0
 10
109.6991
 20
82.154300000000006
 30
0.0
 10
109.9993410370766
 20
82.132574050339187
 30
0.0
 10
110.29904538488445
 20
82.101177340745679
 30
0.0
 10
110.5997
 20
82.0792
 30
0.0
 10
111.0
 20
82.049938751184271
 30
0.0
 10
111.4003
 20
82.023955084731497
 30
0.0
 10
111.8006
 20
82.004100000000008
 30
0.0
 10
112.2009
 20
81.984244915268505
 30
0.0
 10
112.60120000000001
 20
82.108581468852677
 30
0.0
 10
113.00150000000001
 20
82.0792
 30
0.0
 10
113.42893491792665
 20
82.047826865531846
 30
0.0
 10
113.85106561674003
 20
81.970518432284109
 30
0.0
 10
114.2775
 20
81.929000000000002
 30
0.0
 10
114.60229727930339
 20
81.897377142237616
 30
0.0
 10
114.92831235777228
 20
81.862525672642803
 30
0.0
 10
115.25320000000001
 20
81.85390000000001
 30
0.0
 10
115.72927972819826
 20
81.841260221339411
 30
0.0
 10
116.20130403883623
 20
82.004100000000008
 30
0.0
 10
116.67930000000001
 20
82.004100000000008
 30
0.0
 10
116.97953333333334
 20
82.004100000000008
 30
0.0
 10
117.27976666666667
 20
82.004100000000008
 30
0.0
 10
117.58000000000001
 20
82.004100000000008
 30
0.0
 10
117.7051
 20
82.004100000000008
 30
0.0
 10
117.8302
 20
82.004100000000008
 30
0.0
 10
117.95530000000001
 20
82.004100000000008
 30
0.0
 10
118.41184694781101
 20
82.004100000000008
 30
0.0
 10
118.85053163977096
 20
81.799554678351427
 30
0.0
 10
119.30630000000001
 20
81.778900000000007
 30
0.0
 10
119.8308039915664
 20
81.755130335000885
 30
0.0
 10
120.35760170466628
 20
81.792189826143442
 30
0.0
 10
120.88250000000001
 20
81.778900000000007
 30
0.0
 10
121.28319899051705
 20
81.768754758593872
 30
0.0
 10
121.68482221296895
 20
81.661083899545446
 30
0.0
 10
122.08340000000001
 20
81.703800000000001
 30
0.0
 10
122.36136482802728
 20
81.733589852578831
 30
0.0
 10
122.63289624275812
 20
81.810245815240989
 30
0.0
 10
122.90900000000001
 20
81.85390000000001
 30
0.0
 10
123.23385294789584
 20
81.905261816835164
 30
0.0
 10
123.5590756749472
 20
81.957291606836193
 30
0.0
 10
123.88480000000001
 20
82.004100000000008
 30
0.0
 10
124.10903192252722
 20
82.036323371674285
 30
0.0
 10
124.33580020012563
 20
82.050767068930142
 30
0.0
 10
124.56030000000001
 20
82.0792
 30
0.0
 10
124.68672331929167
 20
82.095211531079556
 30
0.0
 10
124.80833593172734
 20
82.143760673579735
 30
0.0
 10
124.93560000000001
 20
82.154300000000006
 30
0.0
 10
125.48463666074609
 20
82.19976826659591
 30
0.0
 10
126.03742722623794
 20
82.132306612785655
 30
0.0
 10
126.58680000000001
 20
82.154300000000006
 30
0.0
 10
126.98713135860586
 20
82.17032671811269
 30
0.0
 10
127.38713410774747
 20
82.242012815990051
 30
0.0
 10
127.7877
 20
82.229300000000009
 30
0.0
 10
128.31302034923789
 20
82.212627834284291
 30
0.0
 10
128.83837417593628
 20
82.174464129372282
 30
0.0
 10
129.3639
 20
82.154300000000006
 30
0.0
 10
130.03926145883145
 20
82.128386761857641
 30
0.0
 10
130.71520154072215
 20
82.111356847671289
 30
0.0
 10
131.3904
 20
82.0792
 30
0.0
 10
131.86588645911186
 20
82.056554590453658
 30
0.0
 10
132.34111311508201
 20
82.028899868561524
 30
0.0
 10
132.81650000000002
 20
82.004100000000008
 30
0.0
 10
133.34179054415839
 20
81.976696769357702
 30
0.0
 10
133.86909812549314
 20
81.878871118198447
 30
0.0
 10
134.39270000000002
 20
81.929000000000002
 30
0.0
 10
134.91286666666667
 20
81.978800000000007
 30
0.0
 10
135.43303333333333
 20
82.028599999999997
 30
0.0
 10
135.95320000000001
 20
82.078400000000002
 30
0.0
  0
LINE
  5
147
100
AcDbEntity
  8
1
  6
DASHED
 62
     2
100
AcDbLine
 10
99.9532
 20
82.0784
 30
0.0
 11
99.9532
 21
72.4784
 31
0.0
  0
LINE
  5
148
100
AcDbEntity
  8
1
  6
DASHED
 62
     2
100
AcDbLine
 10
101.1532
 20
82.0784
 30
0.0
 11
101.1532
 21
72.4784
 31
0.0
  0
LINE
  5
149
100
AcDbEntity
  8
1
  6
DASHED
 62
     2
100
AcDbLine
 10
116.7532
 20
82.0784
 30
0.0
 11
116.7532
 21
72.4784
 31
0.0
  0
LINE
  5
14A
100
AcDbEntity
  8
1
  6
DASHED
 62
     2
100
AcDbLine
 10
117.9532
 20
82.0784
 30
0.0
 11
117.9532
 21
72.4784
 31
0.0
  0
LINE
  5
14B
100
AcDbEntity
  8
1
  6
DASHED
 62
     2
100
AcDbLine
 10
99.9532
 20
72.4784
 30
0.0
 11
101.1532
 21
72.4784
 31
0.0
  0
LINE
  5
14C
100
AcDbEntity
  8
1
  6
DASHED
 62
     2
100
AcDbLine
 10
116.7532
 20
72.4784
 30
0.0
 11
117.9532
 21
72.4784
 31
0.0
  0
LINE
  5
14D
100
AcDbEntity
  8
1
  6
DASHED
 62
     2
100
AcDbLine
 10
99.9532
 20
71.2784
 30
0.0
 11
101.1532
 21
71.2784
 31
0.0
  0
LINE
  5
14E
100
AcDbEntity
  8
1
  6
DASHED
 62
     2
100
AcDbLine
 10
116.7532
 20
71.2784
 30
0.0
 11
117.9532
 21
71.2784
 31
0.0
  0
LINE
  5
14F
100
AcDbEntity
  8
1
  6
DASHED
 62
     2
100
AcDbLine
 10
99.9532
 20
71.2784
 30
0.0
 11
100.5532
 21
66.4784
 31
0.0
  0
LINE
  5
150
100
AcDbEntity
  8
1
  6
DASHED
 62
     2
100
AcDbLine
 10
100.5532
 20
66.4784
 30
0.0
 11
101.1532
 21
71.2784
 31
0.0
  0
LINE
  5
151
100
AcDbEntity
  8
1
  6
DASHED
 62
     2
100
AcDbLine
 10
116.7532
 20
71.2784
 30
0.0
 11
117.3532
 21
66.4784
 31
0.0
  0
LINE
  5
152
100
AcDbEntity
  8
1
  6
DASHED
 62
     2
100
AcDbLine
 10
117.3532
 20
66.4784
 30
0.0
 11
117.9532
 21
71.2784
 31
0.0
  0
TEXT
  5
153
100
AcDbEntity
  8
1
  6
DASHED
 62
     2
100
AcDbText
 10
81.9532
 20
79.474
 30
0.0
 40
2.4
  1
X X X X  X X X  X X X X 
  7
MONOTXT
 11
81.9532
 21
81.874
 31
0.0
210
0.0
220
0.0
230
1.0
100
AcDbText
 73
     3
  0
LINE
  5
154
100
AcDbEntity
  8
1
  6
CONTINUOUS
 62
     7
100
AcDbLine
 10
90.3532
 20
145.6784
 30
0.0
 11
90.3532
 21
164.8784
 31
0.0
  0
LINE
  5
155
100
AcDbEntity
  8
1
  6
CONTINUOUS
 62
     7
100
AcDbLine
 10
127.5532
 20
145.6784
 30
0.0
 11
127.5532
 21
164.8784
 31
0.0
  0
LINE
  5
156
100
AcDbEntity
  8
1
  6
CONTINUOUS
 62
     7
100
AcDbLine
 10
129.9532
 20
143.2784
 30
0.0
 11
141.9532
 21
143.2784
 31
0.0
  0
LINE
  5
157
100
AcDbEntity
  8
1
  6
CONTINUOUS
 62
     7
100
AcDbLine
 10
129.9532
 20
124.0784
 30
0.0
 11
141.9532
 21
124.0784
 31
0.0
  0
LINE
  5
158
100
AcDbEntity
  8
1
  6
CONTINUOUS
 62
     7
100
AcDbLine
 10
138.3532
 20
82.0784
 30
0.0
 11
151.5532
 21
82.0784
 31
0.0
  0
LINE
  5
159
100
AcDbEntity
  8
1
  6
CONTINUOUS
 62
     7
100
AcDbLine
 10
150.3532
 20
133.6784
 30
0.0
 11
150.3532
 21
82.0784
 31
0.0
  0
LINE
  5
15A
100
AcDbEntity
  8
1
  6
CONTINUOUS
 62
     7
100
AcDbLine
 10
140.7532
 20
143.2784
 30
0.0
 11
140.7532
 21
124.0784
 31
0.0
  0
LINE
  5
15B
100
AcDbEntity
  8
1
  6
CONTINUOUS
 62
     7
100
AcDbLine
 10
134.3151
 20
133.6784
 30
0.0
 11
134.3151
 21
124.0784
 31
0.0
  0
LINE
  5
15C
100
AcDbEntity
  8
1
  6
CONTINUOUS
 62
     7
100
AcDbLine
 10
145.4422
 20
133.6784
 30
0.0
 11
151.5532
 21
133.6784
 31
0.0
  0
LINE
  5
15D
100
AcDbEntity
  8
1
  6
CONTINUOUS
 62
     7
100
AcDbLine
 10
129.9532
 20
133.6784
 30
0.0
 11
139.766
 21
133.6784
 31
0.0
  0
LINE
  5
15E
100
AcDbEntity
  8
1
  6
CONTINUOUS
 62
     7
100
AcDbLine
 10
107.2561
 20
153.9754
 30
0.0
 11
102.165
 21
159.0666
 31
0.0
  0
LINE
  5
15F
100
AcDbEntity
  8
1
  6
CONTINUOUS
 62
     7
100
AcDbLine
 10
88.6561
 20
135.3754
 30
0.0
 11
83.565
 21
140.4666
 31
0.0
  0
LINE
  5
160
100
AcDbEntity
  8
1
  6
CONTINUOUS
 62
     7
100
AcDbLine
 10
103.0135
 20
158.218
 30
0.0
 11
84.4135
 21
139.618
 31
0.0
  0
LINE
  5
161
100
AcDbEntity
  8
1
  6
CONTINUOUS
 62
     7
100
AcDbLine
 10
90.3532
 20
163.6784
 30
0.0
 11
127.5532
 21
163.6784
 31
0.0
  0
INSERT
  5
167
100
AcDbEntity
  8
1
  6
CONTINUOUS
 62
     1
100
AcDbBlockReference
  2
LDR
 10
90.3532
 20
163.6784
 30
0.0
 41
240.0
 42
240.0
 50
180.0
210
0.0
220
0.0
230
1.0
  0
INSERT
  5
168
100
AcDbEntity
  8
1
  6
CONTINUOUS
 62
     1
100
AcDbBlockReference
  2
LDR
 10
90.3532
 20
163.6784
 30
0.0
 41
240.0
 42
240.0
 50
180.0
210
0.0
220
0.0
230
1.0
  0
INSERT
  5
169
100
AcDbEntity
  8
1
  6
CONTINUOUS
 62
     1
100
AcDbBlockReference
  2
LDR
 10
127.5532
 20
163.6784
 30
0.0
 41
240.0
 42
240.0
210
0.0
220
0.0
230
1.0
  0
INSERT
  5
16A
100
AcDbEntity
  8
1
  6
CONTINUOUS
 62
     1
100
AcDbBlockReference
  2
LDR
 10
127.5532
 20
163.6784
 30
0.0
 41
240.0
 42
240.0
210
0.0
220
0.0
230
1.0
  0
INSERT
  5
16B
100
AcDbEntity
  8
1
  6
CONTINUOUS
 62
     1
100
AcDbBlockReference
  2
LDR
 10
103.0135
 20
158.218
 30
0.0
 41
239.999999
 42
239.999999
 50
45.0
210
0.0
220
0.0
230
1.0
  0
INSERT
  5
16C
100
AcDbEntity
  8
1
  6
CONTINUOUS
 62
     1
100
AcDbBlockReference
  2
LDR
 10
103.0135
 20
158.218
 30
0.0
 41
239.999999
 42
239.999999
 50
45.0
210
0.0
220
0.0
230
1.0
  0
INSERT
  5
16D
100
AcDbEntity
  8
1
  6
CONTINUOUS
 62
     1
100
AcDbBlockReference
  2
LDR
 10
84.4135
 20
139.618
 30
0.0
 41
239.999999
 42
239.999999
 50
225.0
210
0.0
220
0.0
230
1.0
  0
INSERT
  5
16E
100
AcDbEntity
  8
1
  6
CONTINUOUS
 62
     1
100
AcDbBlockReference
  2
LDR
 10
84.4135
 20
139.618
 30
0.0
 41
239.999999
 42
239.999999
 50
225.0
210
0.0
220
0.0
230
1.0
  0
INSERT
  5
16F
100
AcDbEntity
  8
1
  6
CONTINUOUS
 62
     1
100
AcDbBlockReference
  2
LDR
 10
140.7532
 20
143.2784
 30
0.0
 41
240.0
 42
240.0
 50
90.0
210
0.0
220
0.0
230
1.0
  0
INSERT
  5
170
100
AcDbEntity
  8
1
  6
CONTINUOUS
 62
     1
100
AcDbBlockReference
  2
LDR
 10
140.7532
 20
143.2784
 30
0.0
 41
240.0
 42
240.0
 50
90.0
210
0.0
220
0.0
230
1.0
  0
INSERT
  5
171
100
AcDbEntity
  8
1
  6
CONTINUOUS
 62
     1
100
AcDbBlockReference
  2
LDR
 10
140.7532
 20
124.0784
 30
0.0
 41
240.0
 42
240.0
 50
270.0
210
0.0
220
0.0
230
1.0
  0
INSERT
  5
172
100
AcDbEntity
  8
1
  6
CONTINUOUS
 62
     1
100
AcDbBlockReference
  2
LDR
 10
140.7532
 20
124.0784
 30
0.0
 41
240.0
 42
240.0
 50
270.0
210
0.0
220
0.0
230
1.0
  0
INSERT
  5
173
100
AcDbEntity
  8
1
  6
CONTINUOUS
 62
     1
100
AcDbBlockReference
  2
LDR
 10
134.3151
 20
133.6784
 30
0.0
 41
240.0
 42
240.0
 50
90.0
210
0.0
220
0.0
230
1.0
  0
INSERT
  5
174
100
AcDbEntity
  8
1
  6
CONTINUOUS
 62
     1
100
AcDbBlockReference
  2
LDR
 10
134.3151
 20
133.6784
 30
0.0
 41
240.0
 42
240.0
 50
90.0
210
0.0
220
0.0
230
1.0
  0
INSERT
  5
175
100
AcDbEntity
  8
1
  6
CONTINUOUS
 62
     1
100
AcDbBlockReference
  2
LDR
 10
134.3151
 20
124.0784
 30
0.0
 41
240.0
 42
240.0
 50
270.0
210
0.0
220
0.0
230
1.0
  0
INSERT
  5
176
100
AcDbEntity
  8
1
  6
CONTINUOUS
 62
     1
100
AcDbBlockReference
  2
LDR
 10
134.3151
 20
124.0784
 30
0.0
 41
240.0
 42
240.0
 50
270.0
210
0.0
220
0.0
230
1.0
  0
INSERT
  5
177
100
AcDbEntity
  8
1
  6
CONTINUOUS
 62
     1
100
AcDbBlockReference
  2
LDR
 10
150.3532
 20
133.6784
 30
0.0
 41
240.0
 42
240.0
 50
90.0
210
0.0
220
0.0
230
1.0
  0
INSERT
  5
178
100
AcDbEntity
  8
1
  6
CONTINUOUS
 62
     1
100
AcDbBlockReference
  2
LDR
 10
150.3532
 20
133.6784
 30
0.0
 41
240.0
 42
240.0
 50
90.0
210
0.0
220
0.0
230
1.0
  0
INSERT
  5
179
100
AcDbEntity
  8
1
  6
CONTINUOUS
 62
     1
100
AcDbBlockReference
  2
LDR
 10
150.3532
 20
82.0784
 30
0.0
 41
240.0
 42
240.0
 50
270.0
210
0.0
220
0.0
230
1.0
  0
TEXT
  5
17A
100
AcDbEntity
  8
1
  6
CONTINUOUS
 62
     7
100
AcDbText
 10
107.1465
 20
164.2979
 30
0.0
 40
3.0
  1
W
  7
MONOTXT
 11
107.1465
 21
167.2979
 31
0.0
210
0.0
220
0.0
230
1.0
100
AcDbText
 73
     3
  0
TEXT
  5
17B
100
AcDbEntity
  8
1
  6
CONTINUOUS
 62
     7
100
AcDbText
 10
138.3007
 20
124.9016
 30
0.0
 40
3.0
  1
D/2
 50
90.0
  7
MONOTXT
 11
135.3007
 21
124.9016
 31
0.0
210
0.0
220
0.0
230
1.0
100
AcDbText
 73
     3
  0
TEXT
  5
17C
100
AcDbEntity
  8
1
  6
CONTINUOUS
 62
     7
100
AcDbText
 10
144.431
 20
132.8509
 30
0.0
 40
3.0
  1
D
 50
90.0
  7
MONOTXT
 11
141.431
 21
132.8509
 31
0.0
210
0.0
220
0.0
230
1.0
100
AcDbText
 73
     3
  0
TEXT
  5
17D
100
AcDbEntity
  8
1
  6
CONTINUOUS
 62
     7
100
AcDbText
 10
154.1941
 20
104.0062
 30
0.0
 40
3.0
  1
"CP"
 50
90.0
  7
MONOTXT
 11
151.1941
 21
104.0062
 31
0.0
210
0.0
220
0.0
230
1.0
100
AcDbText
 73
     3
  0
TEXT
  5
17E
100
AcDbEntity
  8
1
  6
CONTINUOUS
 62
     7
100
AcDbText
 10
93.0105
 20
149.1865
 30
0.0
 40
3.0
  1
W
 50
45.0
  7
MONOTXT
210
0.0
220
0.0
230
1.0
100
AcDbText
  0
LINE
  5
17F
100
AcDbEntity
  8
1
  6
CONTINUOUS
 62
     7
100
AcDbLine
 10
117.9532
 20
76.7973
 30
0.0
 11
129.3709
 21
72.0531
 31
0.0
  0
INSERT
  5
180
100
AcDbEntity
  8
1
  6
CONTINUOUS
 62
     1
100
AcDbBlockReference
  2
LDR
 10
117.9532
 20
76.7973
 30
0.0
 41
240.000001
 42
240.000001
 50
157.436493
210
0.0
220
0.0
230
1.0
  0
TEXT
  5
181
100
AcDbEntity
  8
1
  6
CONTINUOUS
 62
     7
100
AcDbText
 10
129.7191
 20
70.4464
 30
0.0
 40
3.0
  1
SEE CHART FOR DEPTH
  7
MONOTXT
 11
129.7191
 21
73.4464
 31
0.0
210
0.0
220
0.0
230
1.0
100
AcDbText
 73
     3
  0
TEXT
  5
182
100
AcDbEntity
  8
1
  6
CONTINUOUS
 62
     7
100
AcDbText
 10
71.5684
 20
54.9461
 30
0.0
 40
3.0
  1
SEE TP3-1  FOR TYPICAL INSTALLATIONS
  7
MONOTXT
 11
71.5684
 21
57.9461
 31
0.0
210
0.0
220
0.0
230
1.0
100
AcDbText
 73
     3
  0
CIRCLE
  5
183
100
AcDbEntity
  8
1
  6
CONTINUOUS
 62
     7
100
AcDbCircle
 10
457.9201
 20
361.4596
 30
0.0
 40
2.637784
210
0.0
220
0.0
230
1.0
  0
LINE
  5
184
100
AcDbEntity
  8
1
  6
CONTINUOUS
 62
     6
100
AcDbLine
 10
472.1617
 20
143.6398
 30
0.0
 11
532.1617
 21
143.6398
 31
0.0
  0
LINE
  5
185
100
AcDbEntity
  8
1
  6
CONTINUOUS
 62
     6
100
AcDbLine
 10
532.1617
 20
143.6398
 30
0.0
 11
532.1617
 21
71.6398
 31
0.0
  0
LINE
  5
186
100
AcDbEntity
  8
1
  6
CONTINUOUS
 62
     6
100
AcDbLine
 10
532.1617
 20
71.6398
 30
0.0
 11
472.1617
 21
71.6398
 31
0.0
  0
LINE
  5
187
100
AcDbEntity
  8
1
  6
CONTINUOUS
 62
     6
100
AcDbLine
 10
472.1617
 20
71.6398
 30
0.0
 11
472.1617
 21
143.6398
 31
0.0
  0
LINE
  5
188
100
AcDbEntity
  8
1
  6
CONTINUOUS
 62
     6
100
AcDbLine
 10
472.1617
 20
119.6398
 30
0.0
 11
532.1617
 21
119.6398
 31
0.0
  0
LINE
  5
189
100
AcDbEntity
  8
1
  6
CONTINUOUS
 62
     6
100
AcDbLine
 10
472.1617
 20
107.6398
 30
0.0
 11
532.1617
 21
107.6398
 31
0.0
  0
LINE
  5
18A
100
AcDbEntity
  8
1
  6
CONTINUOUS
 62
     6
100
AcDbLine
 10
472.1617
 20
95.6398
 30
0.0
 11
532.1617
 21
95.6398
 31
0.0
  0
LINE
  5
18B
100
AcDbEntity
  8
1
  6
CONTINUOUS
 62
     6
100
AcDbLine
 10
472.1617
 20
83.6398
 30
0.0
 11
532.1617
 21
83.6398
 31
0.0
  0
LINE
  5
18C
100
AcDbEntity
  8
1
  6
CONTINUOUS
 62
     6
100
AcDbLine
 10
508.1617
 20
71.6398
 30
0.0
 11
508.1617
 21
143.6398
 31
0.0
  0
TEXT
  5
18D
100
AcDbEntity
  8
1
  6
CONTINUOUS
 62
     7
100
AcDbText
 10
484.2672
 20
132.509
 30
0.0
 40
3.0
  1
POST
  7
MONOTXT
 72
     4
 11
489.8774
 21
134.009
 31
0.0
210
0.0
220
0.0
230
1.0
100
AcDbText
  0
TEXT
  5
18E
100
AcDbEntity
  8
1
  6
CONTINUOUS
 62
     7
100
AcDbText
 10
480.7947
 20
127.109
 30
0.0
 40
3.0
  1
SECTION
  7
MONOTXT
 72
     4
 11
489.8773
 21
128.609
 31
0.0
210
0.0
220
0.0
230
1.0
100
AcDbText
  0
TEXT
  5
18F
100
AcDbEntity
  8
1
  6
CONTINUOUS
 62
     7
100
AcDbText
 10
512.9718
 20
132.6033
 30
0.0
 40
3.0
  1
DEPTH
  7
MONOTXT
 72
     4
 11
519.8576
 21
134.1033
 31
0.0
210
0.0
220
0.0
230
1.0
100
AcDbText
  0
TEXT
  5
190
100
AcDbEntity
  8
1
  6
CONTINUOUS
 62
     7
100
AcDbText
 10
512.334
 20
127.2033
 30
0.0
 40
3.0
  1
DRIVEN
  7
MONOTXT
 72
     4
 11
519.8576
 21
128.7033
 31
0.0
210
0.0
220
0.0
230
1.0
100
AcDbText
  0
CIRCLE
  5
191
100
AcDbEntity
  8
1
  6
CONTINUOUS
 62
     7
100
AcDbCircle
 10
232.1579
 20
97.772135
 30
0.0
 40
2.637784
210
0.0
220
0.0
230
1.0
  0
TEXT
  5
192
100
AcDbEntity
  8
1
  6
CONTINUOUS
 62
     7
100
AcDbText
 10
229.0853
 20
92.1616
 30
0.0
 40
8.4
  1
*
  7
TXT
 11
229.0853
 21
100.5616
 31
0.0
210
0.0
220
0.0
230
1.0
100
AcDbText
 73
     3
  0
TEXT
  5
193
100
AcDbEntity
  8
1
  6
CONTINUOUS
 62
     7
100
AcDbText
 10
459.9107
 20
355.3422
 30
0.0
 40
8.4
  1
*
 50
45.0
  7
TXT
 11
453.971003
 21
361.281897
 31
0.0
210
0.0
220
0.0
230
1.0
100
AcDbText
 73
     3
  0
CIRCLE
  5
194
100
AcDbEntity
  8
1
  6
CONTINUOUS
 62
     7
100
AcDbCircle
 10
571.1749
 20
304.1677
 30
0.0
 40
2.637784
210
0.0
220
0.0
230
1.0
  0
TEXT
  5
195
100
AcDbEntity
  8
1
  6
CONTINUOUS
 62
     7
100
AcDbText
 10
573.1655
 20
298.0503
 30
0.0
 40
8.4
  1
*
 50
45.0
  7
TXT
 11
567.225803
 21
303.989997
 31
0.0
210
0.0
220
0.0
230
1.0
100
AcDbText
 73
     3
  0
LWPOLYLINE
  5
196
100
AcDbEntity
  8
1
  6
CONTINUOUS
 62
     7
100
AcDbPolyline
 90
        4
 70
     0
 10
592.3401
 20
123.7539
 10
589.9401
 20
119.597
 10
594.7401
 20
119.597
 10
592.3401
 20
123.7539
  0
TEXT
  5
197
100
AcDbEntity
  8
1
  6
CONTINUOUS
 62
     7
100
AcDbText
 10
591.57
 20
120.0111
 30
0.0
 40
2.1
  1
9
  7
MONOTXT
210
0.0
220
0.0
230
1.0
100
AcDbText
  0
TEXT
  5
198
100
AcDbEntity
  8
1
  6
CONTINUOUS
 62
     7
100
AcDbText
 10
595.659
 20
120.6656
 30
0.0
 40
2.1
  1
REVISED CLEAR. NOTE
  7
MONOTXT
210
0.0
220
0.0
230
1.0
100
AcDbText
  0
LWPOLYLINE
  5
199
100
AcDbEntity
  8
1
  6
CONTINUOUS
 62
     7
100
AcDbPolyline
 90
        4
 70
     0
 10
593.509
 20
5.7721
 10
591.109
 20
1.6152
 10
595.909
 20
1.6152
 10
593.509
 20
5.7721
  0
TEXT
  5
19A
100
AcDbEntity
  8
1
  6
CONTINUOUS
 62
     7
100
AcDbText
 10
592.7389
 20
2.0293
 30
0.0
 40
2.1
  1
9
  7
MONOTXT
210
0.0
220
0.0
230
1.0
100
AcDbText
  0
LWPOLYLINE
  5
19B
100
AcDbEntity
  8
1
  6
CONTINUOUS
 62
     7
100
AcDbPolyline
 90
        4
 70
     0
 10
431.5053
 20
103.4008
 10
429.1053
 20
99.2439
 10
433.9053
 20
99.2439
 10
431.5053
 20
103.4008
  0
TEXT
  5
19C
100
AcDbEntity
  8
1
  6
CONTINUOUS
 62
     7
100
AcDbText
 10
430.7352
 20
99.658
 30
0.0
 40
2.1
  1
9
  7
MONOTXT
210
0.0
220
0.0
230
1.0
100
AcDbText
  0
LWPOLYLINE
  5
19D
100
AcDbEntity
  8
1
  6
CONTINUOUS
 62
     7
100
AcDbPolyline
 90
        4
 70
     0
 10
593.4304
 20
0.2599
 10
591.0304
 20
-3.897
 10
595.8304
 20
-3.897
 10
593.4304
 20
0.2599
  0
TEXT
  5
19E
100
AcDbEntity
  8
1
  6
CONTINUOUS
 62
     7
100
AcDbText
 10
592.1485
 20
-3.7979
 30
0.0
 40
2.1
  1
10
  7
MONOTXT
210
0.0
220
0.0
230
1.0
100
AcDbText
  0
TEXT
  5
19F
100
AcDbEntity
  8
1
  6
CONTINUOUS
 62
     1
100
AcDbText
 10
599.0674
 20
-3.5109
 30
0.0
 40
2.4
  1
06-02-94
  7
MONOTXT
 72
     1
 11
607.7319
 21
-1.1109
 31
0.0
210
0.0
220
0.0
230
1.0
100
AcDbText
 73
     3
  0
LWPOLYLINE
  5
1A0
100
AcDbEntity
  8
1
  6
CONTINUOUS
 62
     7
100
AcDbPolyline
 90
        4
 70
     0
 10
592.3229
 20
118.2322
 10
589.9229
 20
114.0753
 10
594.7229
 20
114.0753
 10
592.3229
 20
118.2322
  0
TEXT
  5
1A1
100
AcDbEntity
  8
1
  6
CONTINUOUS
 62
     7
100
AcDbText
 10
591.041
 20
114.1744
 30
0.0
 40
2.1
  1
10
  7
MONOTXT
210
0.0
220
0.0
230
1.0
100
AcDbText
  0
TEXT
  5
1A2
100
AcDbEntity
  8
1
  6
CONTINUOUS
 62
     7
100
AcDbText
 10
595.1234
 20
115.1542
 30
0.0
 40
2.1
  1
ADDED METRIC
  7
MONOTXT
210
0.0
220
0.0
230
1.0
100
AcDbText
  0
LINE
  5
1A3
100
AcDbEntity
  8
61
  6
CONTINUOUS
 62
     2
100
AcDbLine
 10
802.5868
 20
517.8892
 30
0.0
 11
665.4868
 21
517.8892
 31
0.0
  0
LINE
  5
1A4
100
AcDbEntity
  8
61
  6
CONTINUOUS
 62
     2
100
AcDbLine
 10
665.4868
 20
517.8892
 30
0.0
 11
665.4868
 21
492.4892
 31
0.0
  0
LINE
  5
1A5
100
AcDbEntity
  8
61
  6
CONTINUOUS
 62
     2
100
AcDbLine
 10
802.5868
 20
517.8892
 30
0.0
 11
802.5868
 21
492.4892
 31
0.0
  0
LINE
  5
1A6
100
AcDbEntity
  8
61
  6
CONTINUOUS
 62
     2
100
AcDbLine
 10
802.5868
 20
492.4892
 30
0.0
 11
665.4868
 21
492.4892
 31
0.0
  0
LINE
  5
1A7
100
AcDbEntity
  8
61
  6
CONTINUOUS
 62
     2
100
AcDbLine
 10
802.5868
 20
505.1892
 30
0.0
 11
665.4868
 21
505.1892
 31
0.0
  0
LINE
  5
1A8
100
AcDbEntity
  8
61
  6
CONTINUOUS
 62
     2
100
AcDbLine
 10
678.1868
 20
517.8892
 30
0.0
 11
678.1868
 21
492.4892
 31
0.0
  0
LINE
  5
1A9
100
AcDbEntity
  8
61
  6
CONTINUOUS
 62
     2
100
AcDbLine
 10
690.8868
 20
517.8892
 30
0.0
 11
690.8868
 21
492.4892
 31
0.0
  0
LINE
  5
1AA
100
AcDbEntity
  8
61
  6
CONTINUOUS
 62
     2
100
AcDbLine
 10
708.2868
 20
517.8892
 30
0.0
 11
708.2868
 21
492.4892
 31
0.0
  0
LINE
  5
1AB
100
AcDbEntity
  8
61
  6
CONTINUOUS
 62
     2
100
AcDbLine
 10
789.8868
 20
517.8892
 30
0.0
 11
789.8868
 21
492.4892
 31
0.0
  0
LINE
  5
1AC
100
AcDbEntity
  8
61
  6
CONTINUOUS
 62
     2
100
AcDbLine
 10
777.1868
 20
517.8892
 30
0.0
 11
777.1868
 21
492.4892
 31
0.0
  0
LINE
  5
1AD
100
AcDbEntity
  8
61
  6
CONTINUOUS
 62
     2
100
AcDbLine
 10
749.2868
 20
517.8892
 30
0.0
 11
749.2868
 21
492.4892
 31
0.0
  0
LINE
  5
1AE
100
AcDbEntity
  8
61
  6
CONTINUOUS
 62
     2
100
AcDbLine
 10
736.5868
 20
517.8892
 30
0.0
 11
736.5868
 21
492.4892
 31
0.0
  0
TEXT
  5
1AF
100
AcDbEntity
  8
61
  6
CONTINUOUS
 62
     2
100
AcDbText
 10
668.0868
 20
513.9892
 30
0.0
 40
1.5246
  1
PUBLIC
 50
0.033272
 41
1.001968
  7
MONOTXT
210
0.0
220
0.0
230
1.0
100
AcDbText
  0
TEXT
  5
1B0
100
AcDbEntity
  8
61
  6
CONTINUOUS
 62
     2
100
AcDbText
 10
668.1868
 20
510.7892
 30
0.0
 40
1.5246
  1
ROADS
 50
0.124322
 41
0.996852
  7
MONOTXT
210
0.0
220
0.0
230
1.0
100
AcDbText
  0
TEXT
  5
1B1
100
AcDbEntity
  8
61
  6
CONTINUOUS
 62
     2
100
AcDbText
 10
669.6868
 20
507.6892
 30
0.0
 40
1.5246
  1
DIV.
 50
359.931522
 41
0.994884
  7
MONOTXT
210
0.0
220
0.0
230
1.0
100
AcDbText
  0
TEXT
  5
1B2
100
AcDbEntity
  8
61
  6
CONTINUOUS
 62
     2
100
AcDbText
 10
680.9868
 20
514.0892
 30
0.0
 40
1.5246
  1
STATE
 50
0.058969
 41
0.998032
  7
MONOTXT
210
0.0
220
0.0
230
1.0
100
AcDbText
  0
TEXT
  5
1B3
100
AcDbEntity
  8
61
  6
CONTINUOUS
 62
     2
100
AcDbText
 10
682.0868
 20
510.8892
 30
0.0
 40
1.5246
  1
DIST.
 50
0.055889
 41
0.999606
  7
MONOTXT
210
0.0
220
0.0
230
1.0
100
AcDbText
  0
TEXT
  5
1B4
100
AcDbEntity
  8
61
  6
CONTINUOUS
 62
     2
100
AcDbText
 10
682.7868
 20
507.6892
 30
0.0
 40
1.5246
  1
NO.
 50
359.852072
 41
0.997639
  7
MONOTXT
210
0.0
220
0.0
230
1.0
100
AcDbText
  0
TEXT
  5
1B5
100
AcDbEntity
  8
61
  6
CONTINUOUS
 62
     2
100
AcDbText
 10
696.1868
 20
513.9892
 30
0.0
 40
1.5246
  1
STATE
 50
0.058969
 41
0.998032
  7
MONOTXT
210
0.0
220
0.0
230
1.0
100
AcDbText
  0
TEXT
  5
1B6
100
AcDbEntity
  8
61
  6
CONTINUOUS
 62
     2
100
AcDbText
 10
694.7868
 20
510.9892
 30
0.0
 40
1.5246
  1
PROJECT
 50
359.908431
  7
MONOTXT
210
0.0
220
0.0
230
1.0
100
AcDbText
  0
TEXT
  5
1B7
100
AcDbEntity
  8
61
  6
CONTINUOUS
 62
     2
100
AcDbText
 10
698.2868
 20
507.6892
 30
0.0
 40
1.5246
  1
NO.
 50
0.225453
 41
0.993703
  7
MONOTXT
210
0.0
220
0.0
230
1.0
100
AcDbText
  0
TEXT
  5
1B8
100
AcDbEntity
  8
61
  6
CONTINUOUS
 62
     2
100
AcDbText
 10
718.1868
 20
512.5892
 30
0.0
 40
1.5234
  1
FEDERAL
 50
0.006714
 41
0.998425
  7
MONOTXT
210
0.0
220
0.0
230
1.0
100
AcDbText
  0
TEXT
  5
1B9
100
AcDbEntity
  8
61
  6
CONTINUOUS
 62
     2
100
AcDbText
 10
716.1868
 20
509.1892
 30
0.0
 40
1.5246
  1
PROJECT NO.
 50
359.921531
 41
1.000787
  7
MONOTXT
210
0.0
220
0.0
230
1.0
100
AcDbText
  0
TEXT
  5
1BA
100
AcDbEntity
  8
61
  6
CONTINUOUS
 62
     2
100
AcDbText
 10
739.3868
 20
512.4892
 30
0.0
 40
1.5246
  1
FISCAL
 50
359.941939
 41
0.998819
  7
MONOTXT
210
0.0
220
0.0
230
1.0
100
AcDbText
  0
TEXT
  5
1BB
100
AcDbEntity
  8
61
  6
CONTINUOUS
 62
     2
100
AcDbText
 10
740.0868
 20
508.8892
 30
0.0
 40
1.5234
  1
YEAR
 50
0.104606
 41
0.993304
  7
MONOTXT
210
0.0
220
0.0
230
1.0
100
AcDbText
  0
TEXT
  5
1BC
100
AcDbEntity
  8
61
  6
CONTINUOUS
 62
     2
100
AcDbText
 10
757.9868
 20
510.5892
 30
0.0
 40
1.523399
  1
COUNTY
 50
0.068575
 41
1.001969
  7
MONOTXT
210
0.0
220
0.0
230
1.0
100
AcDbText
  0
TEXT
  5
1BD
100
AcDbEntity
  8
61
  6
CONTINUOUS
 62
     2
100
AcDbText
 10
780.3868
 20
512.6892
 30
0.0
 40
1.5246
  1
SHEET
 50
0.058969
 41
0.997639
  7
MONOTXT
210
0.0
220
0.0
230
1.0
100
AcDbText
  0
TEXT
  5
1BE
100
AcDbEntity
  8
61
  6
CONTINUOUS
 62
     2
100
AcDbText
 10
782.1868
 20
509.1892
 30
0.0
 40
1.5246
  1
NO.
 50
359.852072
 41
0.997639
  7
MONOTXT
210
0.0
220
0.0
230
1.0
100
AcDbText
  0
TEXT
  5
1BF
100
AcDbEntity
  8
61
  6
CONTINUOUS
 62
     2
100
AcDbText
 10
792.7868
 20
512.4892
 30
0.0
 40
1.5246
  1
TOTAL
 50
359.926039
 41
0.998426
  7
MONOTXT
210
0.0
220
0.0
230
1.0
100
AcDbText
  0
TEXT
  5
1C0
100
AcDbEntity
  8
61
  6
CONTINUOUS
 62
     2
100
AcDbText
 10
792.1868
 20
509.0892
 30
0.0
 40
1.523399
  1
SHEETS
 50
359.958675
  7
MONOTXT
210
0.0
220
0.0
230
1.0
100
AcDbText
  0
TEXT
  5
1C1
100
AcDbEntity
  8
61
  6
CONTINUOUS
 62
     2
100
AcDbText
 10
681.4868
 20
497.7892
 30
0.0
 40
3.0492
  1
  
 50
0.029406
 41
0.996655
  7
MONOTXT
210
0.0
220
0.0
230
1.0
100
AcDbText
  0
TEXT
  5
1C2
100
AcDbEntity
  8
61
  6
CONTINUOUS
 62
     2
100
AcDbText
 10
779.4868
 20
497.4892
 30
0.0
 40
3.049199
  1
   
 50
0.011508
 41
1.000984
  7
MONOTXT
210
0.0
220
0.0
230
1.0
100
AcDbText
  0
TEXT
  5
1C3
100
AcDbEntity
  8
61
  6
CONTINUOUS
 62
     2
100
AcDbText
 10
792.0868
 20
497.3892
 30
0.0
 40
3.0492
  1
   
 50
359.922128
 41
1.00059
  7
MONOTXT
210
0.0
220
0.0
230
1.0
100
AcDbText
  0
TEXT
  5
1C4
100
AcDbEntity
  8
61
  6
CONTINUOUS
 62
     2
100
AcDbText
 10
694.6868
 20
501.7892
 30
0.0
 40
2.5482
  1
    
 50
0.054383
 41
0.993643
  7
MONOTXT
210
0.0
220
0.0
230
1.0
100
AcDbText
  0
TEXT
  5
1C5
100
AcDbEntity
  8
61
  6
CONTINUOUS
 62
     2
100
AcDbText
 10
690.9868
 20
497.8892
 30
0.0
 40
2.5266
  1
       
 50
0.064678
 41
1.00095
  7
MONOTXT
210
0.0
220
0.0
230
1.0
100
AcDbText
  0
TEXT
  5
1C6
100
AcDbEntity
  8
61
  6
CONTINUOUS
 62
     2
100
AcDbText
 10
692.2868
 20
494.1892
 30
0.0
 40
2.526599
  1
      
 50
359.958053
 41
1.000237
  7
MONOTXT
210
0.0
220
0.0
230
1.0
100
AcDbText
  0
TEXT
  5
1C7
100
AcDbEntity
  8
61
  6
CONTINUOUS
 62
     2
100
AcDbText
 10
706.1868
 20
500.0892
 30
0.0
 40
3.049199
  1
           
 50
0.011508
 41
0.998819
  7
MONOTXT
210
0.0
220
0.0
230
1.0
100
AcDbText
  0
TEXT
  5
1C8
100
AcDbEntity
  8
61
  6
CONTINUOUS
 62
     2
100
AcDbText
 10
705.9868
 20
495.4892
 30
0.0
 40
3.049199
  1
           
 50
0.011508
 41
0.999606
  7
MONOTXT
210
0.0
220
0.0
230
1.0
100
AcDbText
  0
TEXT
  5
1C9
100
AcDbEntity
  8
61
  6
CONTINUOUS
 62
     2
100
AcDbText
 10
750.8868
 20
497.6892
 30
0.0
 40
2.5482
  1
          
 50
0.009222
 41
0.992701
  7
MONOTXT
210
0.0
220
0.0
230
1.0
100
AcDbText
  0
LINE
  5
1CA
100
AcDbEntity
  8
1
  6
CONTINUOUS
 62
     2
100
AcDbLine
 10
587.6868
 20
-5.2108
 30
0.0
 11
587.6868
 21
111.0892
 31
0.0
  0
LINE
  5
1CB
100
AcDbEntity
  8
1
  6
CONTINUOUS
 62
     2
100
AcDbLine
 10
587.6868
 20
111.0892
 30
0.0
 11
805.6868
 21
111.0892
 31
0.0
  0
LINE
  5
1CC
100
AcDbEntity
  8
1
  6
CONTINUOUS
 62
     2
100
AcDbLine
 10
632.1868
 20
-5.2108
 30
0.0
 11
632.1868
 21
57.5892
 31
0.0
  0
LINE
  5
1CD
100
AcDbEntity
  8
1
  6
CONTINUOUS
 62
     2
100
AcDbLine
 10
632.1868
 20
57.5892
 30
0.0
 11
587.6868
 21
57.5892
 31
0.0
  0
LINE
  5
1CE
100
AcDbEntity
  8
1
  6
CONTINUOUS
 62
     2
100
AcDbLine
 10
632.1868
 20
46.1892
 30
0.0
 11
587.6868
 21
46.1892
 31
0.0
  0
LINE
  5
1CF
100
AcDbEntity
  8
1
  6
CONTINUOUS
 62
     2
100
AcDbLine
 10
632.1868
 20
40.4892
 30
0.0
 11
587.6868
 21
40.4892
 31
0.0
  0
LINE
  5
1D0
100
AcDbEntity
  8
1
  6
CONTINUOUS
 62
     2
100
AcDbLine
 10
632.1868
 20
34.6892
 30
0.0
 11
587.6868
 21
34.6892
 31
0.0
  0
LINE
  5
1D1
100
AcDbEntity
  8
1
  6
CONTINUOUS
 62
     2
100
AcDbLine
 10
632.1868
 20
28.9892
 30
0.0
 11
587.6868
 21
28.9892
 31
0.0
  0
LINE
  5
1D2
100
AcDbEntity
  8
1
  6
CONTINUOUS
 62
     2
100
AcDbLine
 10
632.1868
 20
23.2892
 30
0.0
 11
587.6868
 21
23.2892
 31
0.0
  0
LINE
  5
1D3
100
AcDbEntity
  8
1
  6
CONTINUOUS
 62
     2
100
AcDbLine
 10
632.1868
 20
17.5892
 30
0.0
 11
587.6868
 21
17.5892
 31
0.0
  0
LINE
  5
1D4
100
AcDbEntity
  8
1
  6
CONTINUOUS
 62
     2
100
AcDbLine
 10
632.1868
 20
11.8892
 30
0.0
 11
587.6868
 21
11.8892
 31
0.0
  0
LINE
  5
1D5
100
AcDbEntity
  8
1
  6
CONTINUOUS
 62
     2
100
AcDbLine
 10
632.1868
 20
6.1892
 30
0.0
 11
587.6868
 21
6.1892
 31
0.0
  0
LINE
  5
1D6
100
AcDbEntity
  8
1
  6
CONTINUOUS
 62
     2
100
AcDbLine
 10
632.1868
 20
0.4892
 30
0.0
 11
587.6868
 21
0.4892
 31
0.0
  0
TEXT
  5
1D7
100
AcDbEntity
  8
1
  6
CONTINUOUS
 62
     2
100
AcDbText
 10
600.7868
 20
53.7892
 30
0.0
 40
2.5368
  1
REVISIONS
  7
MONOTXT
210
0.0
220
0.0
230
1.0
100
AcDbText
  0
TEXT
  5
1D8
100
AcDbEntity
  8
1
  6
CONTINUOUS
 62
     2
100
AcDbText
 10
590.1868
 20
58.7892
 30
0.0
 40
2.5368
  1
PREPARED:   /  /  
  7
MONOTXT
210
0.0
220
0.0
230
1.0
100
AcDbText
  0
TEXT
  5
1DA
100
AcDbEntity
  8
1
  6
CONTINUOUS
 62
     2
100
AcDbText
 10
629.0868
 20
100.1892
 30
0.0
 40
6.0894
  1
WEST VIRGINIA DIVISION OF HIGHWAYS
  7
ROMANT
 72
     1
 11
697.6284
 21
106.2786
 31
0.0
210
0.0
220
0.0
230
1.0
100
AcDbText
 73
     3
  0
TEXT
  5
1DB
100
AcDbEntity
  8
1
  6
CONTINUOUS
 62
     2
100
AcDbText
 10
642.7868
 20
85.9892
 30
0.0
 40
8.8806
  1
STANDARD DETAIL
  7
TXT
 72
     1
 11
699.2889
 21
94.8698
 31
0.0
210
0.0
220
0.0
230
1.0
100
AcDbText
 73
     3
  0
TEXT
  5
1DC
100
AcDbEntity
  8
1
  6
CONTINUOUS
 62
     2
100
AcDbText
 10
636.9868
 20
-0.0108
 30
0.0
 40
8.8806
  1
STANDARD SHEET TE1-7B
  7
TXT
210
0.0
220
0.0
230
1.0
100
AcDbText
  0
TEXT
  5
1DD
100
AcDbEntity
  8
1
  6
CONTINUOUS
 62
     2
100
AcDbText
 10
599.4868
 20
41.5892
 30
0.0
 40
2.5398
  1
        
  7
MONOTXT
 72
     1
 11
609.2227
 21
44.129
 31
0.0
210
0.0
220
0.0
230
1.0
100
AcDbText
 73
     3
  0
TEXT
  5
1DE
100
AcDbEntity
  8
1
  6
CONTINUOUS
 62
     2
100
AcDbText
 10
599.4868
 20
35.9892
 30
0.0
 40
2.5398
  1
        
  7
MONOTXT
 72
     1
 11
609.2227
 21
38.529
 31
0.0
210
0.0
220
0.0
230
1.0
100
AcDbText
 73
     3
  0
TEXT
  5
1DF
100
AcDbEntity
  8
1
  6
CONTINUOUS
 62
     2
100
AcDbText
 10
599.4868
 20
30.4892
 30
0.0
 40
2.5398
  1
        
  7
MONOTXT
 72
     1
 11
609.2227
 21
33.029
 31
0.0
210
0.0
220
0.0
230
1.0
100
AcDbText
 73
     3
  0
TEXT
  5
1E0
100
AcDbEntity
  8
1
  6
CONTINUOUS
 62
     2
100
AcDbText
 10
599.4868
 20
24.8892
 30
0.0
 40
2.5398
  1
        
  7
MONOTXT
 72
     1
 11
609.2227
 21
27.429
 31
0.0
210
0.0
220
0.0
230
1.0
100
AcDbText
 73
     3
  0
TEXT
  5
1E1
100
AcDbEntity
  8
1
  6
CONTINUOUS
 62
     2
100
AcDbText
 10
599.2868
 20
18.9892
 30
0.0
 40
2.5398
  1
        
  7
MONOTXT
 72
     1
 11
609.0227
 21
21.529
 31
0.0
210
0.0
220
0.0
230
1.0
100
AcDbText
 73
     3
  0
TEXT
  5
1E2
100
AcDbEntity
  8
1
  6
CONTINUOUS
 62
     2
100
AcDbText
 10
599.4868
 20
13.2892
 30
0.0
 40
2.5398
  1
        
  7
MONOTXT
 72
     1
 11
609.2227
 21
15.829
 31
0.0
210
0.0
220
0.0
230
1.0
100
AcDbText
 73
     3
  0
TEXT
  5
1E3
100
AcDbEntity
  8
1
  6
CONTINUOUS
 62
     2
100
AcDbText
 10
599.3868
 20
7.4892
 30
0.0
 40
2.5398
  1
        
  7
MONOTXT
 72
     1
 11
609.1227
 21
10.029
 31
0.0
210
0.0
220
0.0
230
1.0
100
AcDbText
 73
     3
  0
TEXT
  5
1E4
100
AcDbEntity
  8
1
  6
CONTINUOUS
 62
     2
100
AcDbText
 10
599.4868
 20
1.6892
 30
0.0
 40
2.5398
  1
        
  7
MONOTXT
 72
     1
 11
609.2227
 21
4.229
 31
0.0
210
0.0
220
0.0
230
1.0
100
AcDbText
 73
     3
  0
TEXT
  5
1E5
100
AcDbEntity
  8
1
  6
CONTINUOUS
 62
     2
100
AcDbText
 10
599.4868
 20
-3.4108
 30
0.0
 40
2.5398
  1
        
  7
MONOTXT
 72
     1
 11
609.2227
 21
-0.871
 31
0.0
210
0.0
220
0.0
230
1.0
100
AcDbText
 73
     3
  0
LINE
  5
1E6
100
AcDbEntity
  8
1
  6
CONTINUOUS
 62
     2
100
AcDbLine
 10
805.6868
 20
-5.2108
 30
0.0
 11
805.6868
 21
111.0892
 31
0.0
  0
LINE
  5
1E7
100
AcDbEntity
  8
1
  6
CONTINUOUS
 62
     7
100
AcDbLine
 10
805.6868
 20
520.8892
 30
0.0
 11
13.9868
 21
520.7892
 31
0.0
  0
LINE
  5
1E8
100
AcDbEntity
  8
1
  6
CONTINUOUS
 62
     7
100
AcDbLine
 10
13.9868
 20
520.7892
 30
0.0
 11
14.0868
 21
-5.2108
 31
0.0
  0
LINE
  5
1E9
100
AcDbEntity
  8
1
  6
CONTINUOUS
 62
     7
100
AcDbLine
 10
805.6868
 20
-5.2108
 30
0.0
 11
805.6868
 21
520.8892
 31
0.0
  0
LINE
  5
1EA
100
AcDbEntity
  8
61
  6
CONTINUOUS
 62
     2
100
AcDbLine
 10
805.6868
 20
-5.2108
 30
0.0
 11
652.9868
 21
-5.2108
 31
0.0
  0
TEXT
  5
1EB
100
AcDbEntity
  8
61
  6
CONTINUOUS
 62
     2
100
AcDbText
 10
775.1868
 20
480.7892
 30
0.0
 40
3.0546
  1
     
 41
1.001375
  7
MONOTXT
210
0.0
220
0.0
230
1.0
100
AcDbText
  0
INSERT
  5
1F0
100
AcDbEntity
  8
1
  6
CONTINUOUS
 62
     1
100
AcDbBlockReference
  2
PT
 10
811.9868
 20
-16.5108
 30
0.0
 41
269.385512
 42
269.385512
210
0.0
220
0.0
230
1.0
  0
LINE
  5
1F1
100
AcDbEntity
  8
1
  6
CONTINUOUS
 62
     7
100
AcDbLine
 10
805.6868
 20
-5.2108
 30
0.0
 11
14.0868
 21
-5.2108
 31
0.0
  0
LINE
  5
1F2
100
AcDbEntity
  8
1
  6
CONTINUOUS
 62
     2
100
AcDbLine
 10
805.6868
 20
-5.2108
 30
0.0
 11
805.6868
 21
520.8892
 31
0.0
  0
TEXT
  5
1F3
100
AcDbEntity
  8
CONSTRUCTION_CLASS
  6
CONTINUOUS
 62
     3
100
AcDbText
 10
668.5868
 20
497.0892
 30
0.0
 40
3.048
  1
WV
  7
MONOTXT
210
0.0
220
0.0
230
1.0
100
AcDbText
  0
TEXT
  5
1F4
100
AcDbEntity
  8
61
  6
CONTINUOUS
 62
     2
100
AcDbText
 10
740.0868
 20
497.5892
 30
0.0
 40
3.0492
  1
  
 50
0.029406
 41
0.996655
  7
MONOTXT
210
0.0
220
0.0
230
1.0
100
AcDbText
  0
LINE
  5
1F5
100
AcDbEntity
  8
61
  6
CONTINUOUS
 62
     2
100
AcDbLine
 10
805.6868
 20
-5.2108
 30
0.0
 11
652.9868
 21
-5.2108
 31
0.0
  0
LINE
  5
1F6
100
AcDbEntity
  8
61
  6
CONTINUOUS
 62
     2
100
AcDbLine
 10
805.6868
 20
-5.2108
 30
0.0
 11
653.2868
 21
-5.2108
 31
0.0
  0
LINE
  5
1F7
100
AcDbEntity
  8
61
  6
CONTINUOUS
 62
     2
100
AcDbLine
 10
805.6868
 20
-5.2108
 30
0.0
 11
652.9868
 21
-5.2108
 31
0.0
  0
LINE
  5
1F8
100
AcDbEntity
  8
61
  6
CONTINUOUS
 62
     2
100
AcDbLine
 10
805.6868
 20
-5.2108
 30
0.0
 11
653.2868
 21
-5.2108
 31
0.0
  0
TEXT
  5
1F9
100
AcDbEntity
  8
1
  6
CONTINUOUS
 62
     2
100
AcDbText
 10
746.9868
 20
-9.0108
 30
0.0
 40
2.031
  1
TRAFFIC ENGINEERING DIVISION
  7
TXT
210
0.0
220
0.0
230
1.0
100
AcDbText
  0
TEXT
  5
1FA
100
AcDbEntity
  8
1
  6
CONTINUOUS
 62
     7
100
AcDbText
 10
532.6868
 20
-9.0108
 30
0.0
 40
2.2002
  1
$$$$$$$$$FILENAME$$$$$$$$
  7
MONOTXT
210
0.0
220
0.0
230
1.0
100
AcDbText
  0
TEXT
  5
1FB
100
AcDbEntity
  8
1
  6
CONTINUOUS
 62
     7
100
AcDbText
 10
653.4868
 20
-9.0108
 30
0.0
 40
2.2002
  1
$USERNAME$
  7
MONOTXT
210
0.0
220
0.0
230
1.0
100
AcDbText
  0
TEXT
  5
1FC
100
AcDbEntity
  8
1
  6
CONTINUOUS
 62
     7
100
AcDbText
 10
698.5868
 20
-9.0108
 30
0.0
 40
2.2002
  1
DD-MMM-YYYY HH:MM
  7
MONOTXT
210
0.0
220
0.0
230
1.0
100
AcDbText
  0
LINE
  5
1FD
100
AcDbEntity
  8
1
  6
CONTINUOUS
 62
     2
100
AcDbLine
 10
632.1868
 20
51.8892
 30
0.0
 11
587.6868
 21
51.8892
 31
0.0
  0
TEXT
  5
1FE
100
AcDbEntity
  8
1
  6
CONTINUOUS
 62
     7
100
AcDbText
 10
82.1006
 20
455.1387
 30
0.0
 40
3.0
  1
0.37
  7
MONOTXT
 72
     4
 11
86.8486
 21
456.6387
 31
0.0
210
0.0
220
0.0
230
1.0
100
AcDbText
  0
TEXT
  5
1FF
100
AcDbEntity
  8
1
  6
CONTINUOUS
 62
     7
100
AcDbText
 10
97.0271
 20
455.1387
 30
0.0
 40
3.0
  1
0.46
  7
MONOTXT
 72
     4
 11
101.7633
 21
456.6387
 31
0.0
210
0.0
220
0.0
230
1.0
100
AcDbText
  0
TEXT
  5
200
100
AcDbEntity
  8
1
  6
CONTINUOUS
 62
     7
100
AcDbText
 10
112.723
 20
455.1387
 30
0.0
 40
3.0
  1
0.56
  7
MONOTXT
 72
     4
 11
117.3883
 21
456.6387
 31
0.0
210
0.0
220
0.0
230
1.0
100
AcDbText
  0
TEXT
  5
201
100
AcDbEntity
  8
1
  6
CONTINUOUS
 62
     7
100
AcDbText
 10
128.3479
 20
455.1387
 30
0.0
 40
3.0
  1
0.65
  7
MONOTXT
 72
     4
 11
133.0132
 21
456.6387
 31
0.0
210
0.0
220
0.0
230
1.0
100
AcDbText
  0
TEXT
  5
202
100
AcDbEntity
  8
1
  6
CONTINUOUS
 62
     7
100
AcDbText
 10
144.1626
 20
454.7835
 30
0.0
 40
3.0
  1
0.74
  7
MONOTXT
 72
     4
 11
148.9932
 21
456.2835
 31
0.0
210
0.0
220
0.0
230
1.0
100
AcDbText
  0
TEXT
  5
203
100
AcDbEntity
  8
1
  6
CONTINUOUS
 62
     7
100
AcDbText
 10
159.456
 20
455.1387
 30
0.0
 40
3.0
  1
0.84
  7
MONOTXT
 72
     4
 11
164.263
 21
456.6387
 31
0.0
210
0.0
220
0.0
230
1.0
100
AcDbText
  0
TEXT
  5
204
100
AcDbEntity
  8
1
  6
CONTINUOUS
 62
     7
100
AcDbText
 10
174.8675
 20
455.1387
 30
0.0
 40
3.0
  1
0.93
  7
MONOTXT
 72
     4
 11
179.5328
 21
456.6387
 31
0.0
210
0.0
220
0.0
230
1.0
100
AcDbText
  0
TEXT
  5
205
100
AcDbEntity
  8
1
  6
CONTINUOUS
 62
     7
100
AcDbText
 10
191.0593
 20
454.7835
 30
0.0
 40
3.0
  1
1.02
  7
MONOTXT
 72
     4
 11
195.1577
 21
456.2835
 31
0.0
210
0.0
220
0.0
230
1.0
100
AcDbText
  0
TEXT
  5
206
100
AcDbEntity
  8
1
  6
CONTINUOUS
 62
     7
100
AcDbText
 10
207.2614
 20
454.7835
 30
0.0
 40
3.0
  1
1.11
  7
MONOTXT
 72
     4
 11
210.0724
 21
456.2835
 31
0.0
210
0.0
220
0.0
230
1.0
100
AcDbText
  0
TEXT
  5
207
100
AcDbEntity
  8
1
  6
CONTINUOUS
 62
     7
100
AcDbText
 10
222.2486
 20
454.7835
 30
0.0
 40
3.0
  1
1.21
  7
MONOTXT
 72
     4
 11
225.6974
 21
456.2835
 31
0.0
210
0.0
220
0.0
230
1.0
100
AcDbText
  0
TEXT
  5
208
100
AcDbEntity
  8
1
  6
CONTINUOUS
 62
     7
100
AcDbText
 10
237.5908
 20
455.1387
 30
0.0
 40
3.0
  1
1.30
  7
MONOTXT
 72
     4
 11
241.6774
 21
456.6387
 31
0.0
210
0.0
220
0.0
230
1.0
100
AcDbText
  0
TEXT
  5
209
100
AcDbEntity
  8
1
  6
CONTINUOUS
 62
     7
100
AcDbText
 10
253.2748
 20
454.7835
 30
0.0
 40
3.0
  1
1.39
  7
MONOTXT
 72
     4
 11
257.3023
 21
456.2835
 31
0.0
210
0.0
220
0.0
230
1.0
100
AcDbText
  0
TEXT
  5
20A
100
AcDbEntity
  8
1
  6
CONTINUOUS
 62
     7
100
AcDbText
 10
269.1839
 20
455.1387
 30
0.0
 40
3.0
  1
1.49
  7
MONOTXT
 72
     4
 11
273.2823
 21
456.6387
 31
0.0
210
0.0
220
0.0
230
1.0
100
AcDbText
  0
TEXT
  5
20B
100
AcDbEntity
  8
1
  6
CONTINUOUS
 62
     7
100
AcDbText
 10
284.8089
 20
455.4939
 30
0.0
 40
3.0
  1
1.58
  7
MONOTXT
 72
     4
 11
288.9073
 21
456.9939
 31
0.0
210
0.0
220
0.0
230
1.0
100
AcDbText
  0
TEXT
  5
20C
100
AcDbEntity
  8
1
  6
CONTINUOUS
 62
     7
100
AcDbText
 10
299.7826
 20
455.4939
 30
0.0
 40
3.0
  1
1.67
  7
MONOTXT
 72
     4
 11
303.822
 21
456.9939
 31
0.0
210
0.0
220
0.0
230
1.0
100
AcDbText
  0
TEXT
  5
20D
100
AcDbEntity
  8
1
  6
CONTINUOUS
 62
     7
100
AcDbText
 10
315.6682
 20
454.4283
 30
0.0
 40
3.0
  1
1.77
  7
MONOTXT
 72
     4
 11
319.802
 21
455.9283
 31
0.0
210
0.0
220
0.0
230
1.0
100
AcDbText
  0
TEXT
  5
20E
100
AcDbEntity
  8
1
  6
CONTINUOUS
 62
     7
100
AcDbText
 10
331.0443
 20
454.4283
 30
0.0
 40
3.0
  1
1.86
  7
MONOTXT
 72
     4
 11
335.0718
 21
455.9283
 31
0.0
210
0.0
220
0.0
230
1.0
100
AcDbText
  0
TEXT
  5
20F
100
AcDbEntity
  8
1
  6
CONTINUOUS
 62
     7
100
AcDbText
 10
347.0243
 20
455.1387
 30
0.0
 40
3.0
  1
1.95
  7
MONOTXT
 72
     4
 11
351.0518
 21
456.6387
 31
0.0
210
0.0
220
0.0
230
1.0
100
AcDbText
  0
TEXT
  5
210
100
AcDbEntity
  8
1
  6
CONTINUOUS
 62
     7
100
AcDbText
 10
362.2249
 20
454.7835
 30
0.0
 40
3.0
  1
2.04
  7
MONOTXT
 72
     4
 11
367.0319
 21
456.2835
 31
0.0
210
0.0
220
0.0
230
1.0
100
AcDbText
  0
TEXT
  5
211
100
AcDbEntity
  8
1
  6
CONTINUOUS
 62
     7
100
AcDbText
 10
377.4222
 20
454.7835
 30
0.0
 40
3.0
  1
2.14
  7
MONOTXT
 72
     4
 11
381.5914
 21
456.2835
 31
0.0
210
0.0
220
0.0
230
1.0
100
AcDbText
  0
TEXT
  5
212
100
AcDbEntity
  8
1
  6
CONTINUOUS
 62
     7
100
AcDbText
 10
393.1904
 20
455.1387
 30
0.0
 40
3.0
  1
2.23
  7
MONOTXT
 72
     4
 11
397.9266
 21
456.6387
 31
0.0
210
0.0
220
0.0
230
1.0
100
AcDbText
  0
TEXT
  5
213
100
AcDbEntity
  8
1
  6
CONTINUOUS
 62
     7
100
AcDbText
 10
409.1704
 20
455.1387
 30
0.0
 40
3.0
  1
2.32
  7
MONOTXT
 72
     4
 11
413.9066
 21
456.6387
 31
0.0
210
0.0
220
0.0
230
1.0
100
AcDbText
  0
TEXT
  5
214
100
AcDbEntity
  8
1
  6
CONTINUOUS
 62
     7
100
AcDbText
 10
425.019
 20
454.7835
 30
0.0
 40
3.0
  1
2.41
  7
MONOTXT
 72
     4
 11
429.1764
 21
456.2835
 31
0.0
210
0.0
220
0.0
230
1.0
100
AcDbText
  0
TEXT
  5
215
100
AcDbEntity
  8
1
  6
CONTINUOUS
 62
     7
100
AcDbText
 10
440.7148
 20
454.7835
 30
0.0
 40
3.0
  1
2.51
  7
MONOTXT
 72
     4
 11
444.8014
 21
456.2835
 31
0.0
210
0.0
220
0.0
230
1.0
100
AcDbText
  0
TEXT
  5
216
100
AcDbEntity
  8
1
  6
CONTINUOUS
 62
     7
100
AcDbText
 10
455.7728
 20
454.7835
 30
0.0
 40
3.0
  1
2.60
  7
MONOTXT
 72
     4
 11
460.4263
 21
456.2835
 31
0.0
210
0.0
220
0.0
230
1.0
100
AcDbText
  0
TEXT
  5
217
100
AcDbEntity
  8
1
  6
CONTINUOUS
 62
     7
100
AcDbText
 10
471.8119
 20
454.7835
 30
0.0
 40
3.0
  1
2.69
  7
MONOTXT
 72
     4
 11
476.4063
 21
456.2835
 31
0.0
210
0.0
220
0.0
230
1.0
100
AcDbText
  0
TEXT
  5
218
100
AcDbEntity
  8
1
  6
CONTINUOUS
 62
     7
100
AcDbText
 10
487.3422
 20
455.1387
 30
0.0
 40
3.0
  1
2.79
  7
MONOTXT
 72
     4
 11
492.0312
 21
456.6387
 31
0.0
210
0.0
220
0.0
230
1.0
100
AcDbText
  0
TEXT
  5
219
100
AcDbEntity
  8
1
  6
CONTINUOUS
 62
     7
100
AcDbText
 10
502.2097
 20
455.1387
 30
0.0
 40
3.0
  1
2.88
  7
MONOTXT
 72
     4
 11
506.9459
 21
456.6387
 31
0.0
210
0.0
220
0.0
230
1.0
100
AcDbText
  0
TEXT
  5
21A
100
AcDbEntity
  8
1
  6
CONTINUOUS
 62
     7
100
AcDbText
 10
517.9939
 20
454.7887
 30
0.0
 40
3.0
  1
2.97
  7
MONOTXT
 72
     4
 11
522.6711
 21
456.2887
 31
0.0
210
0.0
220
0.0
230
1.0
100
AcDbText
  0
TEXT
  5
21B
100
AcDbEntity
  8
1
  6
CONTINUOUS
 62
     7
100
AcDbText
 10
533.9032
 20
454.4335
 30
0.0
 40
3.0
  1
3,07
  7
MONOTXT
 72
     4
 11
538.6512
 21
455.9335
 31
0.0
210
0.0
220
0.0
230
1.0
100
AcDbText
  0
TEXT
  5
21C
100
AcDbEntity
  8
1
  6
CONTINUOUS
 62
     7
100
AcDbText
 10
550.2486
 20
454.7887
 30
0.0
 40
3.0
  1
3,16
  7
MONOTXT
 72
     4
 11
554.2761
 21
456.2887
 31
0.0
210
0.0
220
0.0
230
1.0
100
AcDbText
  0
TEXT
  5
21D
100
AcDbEntity
  8
1
  6
CONTINUOUS
 62
     7
100
AcDbText
 10
565.1648
 20
454.7887
 30
0.0
 40
3.0
  1
3,25
  7
MONOTXT
 72
     4
 11
569.901
 21
456.2887
 31
0.0
210
0.0
220
0.0
230
1.0
100
AcDbText
  0
TEXT
  5
21E
100
AcDbEntity
  8
1
  6
CONTINUOUS
 62
     7
100
AcDbText
 10
580.7189
 20
455.1439
 30
0.0
 40
3.0
  1
3,34
  7
MONOTXT
 72
     4
 11
585.5259
 21
456.6439
 31
0.0
210
0.0
220
0.0
230
1.0
100
AcDbText
  0
TEXT
  5
21F
100
AcDbEntity
  8
1
  6
CONTINUOUS
 62
     7
100
AcDbText
 10
596.2729
 20
454.7887
 30
0.0
 40
3.0
  1
3,44
  7
MONOTXT
 72
     4
 11
601.1508
 21
456.2887
 31
0.0
210
0.0
220
0.0
230
1.0
100
AcDbText
  0
TEXT
  5
220
100
AcDbEntity
  8
1
  6
CONTINUOUS
 62
     7
100
AcDbText
 10
612.3947
 20
454.7887
 30
0.0
 40
3.0
  1
3,53
  7
MONOTXT
 72
     4
 11
617.1309
 21
456.2887
 31
0.0
210
0.0
220
0.0
230
1.0
100
AcDbText
  0
TEXT
  5
221
100
AcDbEntity
  8
1
  6
CONTINUOUS
 62
     7
100
AcDbText
 10
626.67
 20
455.1439
 30
0.0
 40
3.0
  1
3,62
  7
MONOTXT
 72
     4
 11
631.3353
 21
456.6439
 31
0.0
210
0.0
220
0.0
230
1.0
100
AcDbText
  0
TEXT
  5
222
100
AcDbEntity
  8
1
  6
CONTINUOUS
 62
     7
100
AcDbText
 10
643.2658
 20
455.4991
 30
0.0
 40
3.0
  1
3,72
  7
MONOTXT
 72
     4
 11
648.0256
 21
456.9991
 31
0.0
210
0.0
220
0.0
230
1.0
100
AcDbText
  0
TEXT
  5
223
100
AcDbEntity
  8
1
  6
CONTINUOUS
 62
     7
100
AcDbText
 10
64.694
 20
442.3693
 30
0.0
 40
3.0
  1
1.83
  7
MONOTXT
 72
     4
 11
68.7924
 21
443.8693
 31
0.0
210
0.0
220
0.0
230
1.0
100
AcDbText
  0
TEXT
  5
224
100
AcDbEntity
  8
1
  6
CONTINUOUS
 62
     7
100
AcDbText
 10
64.7649
 20
430.3693
 30
0.0
 40
3.0
  1
1.98
  7
MONOTXT
 72
     4
 11
68.7924
 21
431.8693
 31
0.0
210
0.0
220
0.0
230
1.0
100
AcDbText
  0
TEXT
  5
225
100
AcDbEntity
  8
1
  6
CONTINUOUS
 62
     7
100
AcDbText
 10
64.694
 20
418.3693
 30
0.0
 40
3.0
  1
2.13
  7
MONOTXT
 72
     4
 11
68.7924
 21
419.8693
 31
0.0
210
0.0
220
0.0
230
1.0
100
AcDbText
  0
TEXT
  5
226
100
AcDbEntity
  8
1
  6
CONTINUOUS
 62
     7
100
AcDbText
 10
64.1271
 20
406.3693
 30
0.0
 40
3.0
  1
2.29
  7
MONOTXT
 72
     4
 11
68.7924
 21
407.8693
 31
0.0
210
0.0
220
0.0
230
1.0
100
AcDbText
  0
TEXT
  5
227
100
AcDbEntity
  8
1
  6
CONTINUOUS
 62
     7
100
AcDbText
 10
63.9145
 20
394.3693
 30
0.0
 40
3.0
  1
2.44
  7
MONOTXT
 72
     4
 11
68.7924
 21
395.8693
 31
0.0
210
0.0
220
0.0
230
1.0
100
AcDbText
  0
TEXT
  5
228
100
AcDbEntity
  8
1
  6
CONTINUOUS
 62
     7
100
AcDbText
 10
64.1271
 20
382.3693
 30
0.0
 40
3.0
  1
2.59
  7
MONOTXT
 72
     4
 11
68.7924
 21
383.8693
 31
0.0
210
0.0
220
0.0
230
1.0
100
AcDbText
  0
TEXT
  5
229
100
AcDbEntity
  8
1
  6
CONTINUOUS
 62
     7
100
AcDbText
 10
63.9618
 20
370.3693
 30
0.0
 40
3.0
  1
2.74
  7
MONOTXT
 72
     4
 11
68.7924
 21
371.8693
 31
0.0
210
0.0
220
0.0
230
1.0
100
AcDbText
  0
TEXT
  5
22A
100
AcDbEntity
  8
1
  6
CONTINUOUS
 62
     7
100
AcDbText
 10
64.1271
 20
358.3693
 30
0.0
 40
3.0
  1
2.89
  7
MONOTXT
 72
     4
 11
68.7924
 21
359.8693
 31
0.0
210
0.0
220
0.0
230
1.0
100
AcDbText
  0
TEXT
  5
22B
100
AcDbEntity
  8
1
  6
CONTINUOUS
 62
     7
100
AcDbText
 10
63.9854
 20
346.3693
 30
0.0
 40
3.0
  1
3.04
  7
MONOTXT
 72
     4
 11
68.7924
 21
347.8693
 31
0.0
210
0.0
220
0.0
230
1.0
100
AcDbText
  0
TEXT
  5
22C
100
AcDbEntity
  8
1
  6
CONTINUOUS
 62
     7
100
AcDbText
 10
64.068
 20
334.3693
 30
0.0
 40
3.0
  1
3.20
  7
MONOTXT
 72
     4
 11
68.7924
 21
335.8693
 31
0.0
210
0.0
220
0.0
230
1.0
100
AcDbText
  0
TEXT
  5
22D
100
AcDbEntity
  8
1
  6
CONTINUOUS
 62
     7
100
AcDbText
 10
64.0562
 20
322.3693
 30
0.0
 40
3.0
  1
3.35
  7
MONOTXT
 72
     4
 11
68.7924
 21
323.8693
 31
0.0
210
0.0
220
0.0
230
1.0
100
AcDbText
  0
TEXT
  5
22E
100
AcDbEntity
  8
1
  6
CONTINUOUS
 62
     7
100
AcDbText
 10
64.068
 20
310.3693
 30
0.0
 40
3.0
  1
3.50
  7
MONOTXT
 72
     4
 11
68.7924
 21
311.8693
 31
0.0
210
0.0
220
0.0
230
1.0
100
AcDbText
  0
TEXT
  5
22F
100
AcDbEntity
  8
1
  6
CONTINUOUS
 62
     7
100
AcDbText
 10
64.198
 20
298.3693
 30
0.0
 40
3.0
  1
3.66
  7
MONOTXT
 72
     4
 11
68.7924
 21
299.8693
 31
0.0
210
0.0
220
0.0
230
1.0
100
AcDbText
  0
TEXT
  5
230
100
AcDbEntity
  8
1
  6
CONTINUOUS
 62
     7
100
AcDbText
 10
64.7058
 20
286.3693
 30
0.0
 40
3.0
  1
3.81
  7
MONOTXT
 72
     4
 11
68.7924
 21
287.8693
 31
0.0
210
0.0
220
0.0
230
1.0
100
AcDbText
  0
TEXT
  5
231
100
AcDbEntity
  8
1
  6
CONTINUOUS
 62
     7
100
AcDbText
 10
64.198
 20
274.3693
 30
0.0
 40
3.0
  1
3.96
  7
MONOTXT
 72
     4
 11
68.7924
 21
275.8693
 31
0.0
210
0.0
220
0.0
230
1.0
100
AcDbText
  0
TEXT
  5
232
100
AcDbEntity
  8
1
  6
CONTINUOUS
 62
     7
100
AcDbText
 10
65.2728
 20
262.3693
 30
0.0
 40
3.0
  1
4.11
  7
MONOTXT
 72
     4
 11
68.7924
 21
263.8693
 31
0.0
210
0.0
220
0.0
230
1.0
100
AcDbText
  0
TEXT
  5
233
100
AcDbEntity
  8
1
  6
CONTINUOUS
 62
     7
100
AcDbText
 10
63.9736
 20
250.3693
 30
0.0
 40
3.0
  1
4.27
  7
MONOTXT
 72
     4
 11
68.7924
 21
251.8693
 31
0.0
210
0.0
220
0.0
230
1.0
100
AcDbText
  0
TEXT
  5
234
100
AcDbEntity
  8
1
  6
CONTINUOUS
 62
     7
100
AcDbText
 10
63.9145
 20
238.3693
 30
0.0
 40
3.0
  1
4.42
  7
MONOTXT
 72
     4
 11
68.7924
 21
239.8693
 31
0.0
210
0.0
220
0.0
230
1.0
100
AcDbText
  0
TEXT
  5
235
100
AcDbEntity
  8
1
  6
CONTINUOUS
 62
     7
100
AcDbText
 10
63.9736
 20
226.3693
 30
0.0
 40
3.0
  1
4.57
  7
MONOTXT
 72
     4
 11
68.7924
 21
227.8693
 31
0.0
210
0.0
220
0.0
230
1.0
100
AcDbText
  0
TEXT
  5
236
100
AcDbEntity
  8
1
  6
CONTINUOUS
 62
     7
100
AcDbText
 10
660.5716
 20
442.3694
 30
0.0
 40
3.0
  1
1.83
  7
MONOTXT
 72
     4
 11
664.67
 21
443.8694
 31
0.0
210
0.0
220
0.0
230
1.0
100
AcDbText
  0
TEXT
  5
237
100
AcDbEntity
  8
1
  6
CONTINUOUS
 62
     7
100
AcDbText
 10
660.6425
 20
430.3694
 30
0.0
 40
3.0
  1
1.98
  7
MONOTXT
 72
     4
 11
664.67
 21
431.8694
 31
0.0
210
0.0
220
0.0
230
1.0
100
AcDbText
  0
TEXT
  5
238
100
AcDbEntity
  8
1
  6
CONTINUOUS
 62
     7
100
AcDbText
 10
660.5716
 20
418.3694
 30
0.0
 40
3.0
  1
2.13
  7
MONOTXT
 72
     4
 11
664.67
 21
419.8694
 31
0.0
210
0.0
220
0.0
230
1.0
100
AcDbText
  0
TEXT
  5
239
100
AcDbEntity
  8
1
  6
CONTINUOUS
 62
     7
100
AcDbText
 10
660.0047
 20
406.3694
 30
0.0
 40
3.0
  1
2.29
  7
MONOTXT
 72
     4
 11
664.67
 21
407.8694
 31
0.0
210
0.0
220
0.0
230
1.0
100
AcDbText
  0
TEXT
  5
23A
100
AcDbEntity
  8
1
  6
CONTINUOUS
 62
     7
100
AcDbText
 10
659.7921
 20
394.3694
 30
0.0
 40
3.0
  1
2.44
  7
MONOTXT
 72
     4
 11
664.67
 21
395.8694
 31
0.0
210
0.0
220
0.0
230
1.0
100
AcDbText
  0
TEXT
  5
23B
100
AcDbEntity
  8
1
  6
CONTINUOUS
 62
     7
100
AcDbText
 10
660.0047
 20
382.3694
 30
0.0
 40
3.0
  1
2.59
  7
MONOTXT
 72
     4
 11
664.67
 21
383.8694
 31
0.0
210
0.0
220
0.0
230
1.0
100
AcDbText
  0
TEXT
  5
23C
100
AcDbEntity
  8
1
  6
CONTINUOUS
 62
     7
100
AcDbText
 10
659.8394
 20
370.3694
 30
0.0
 40
3.0
  1
2.74
  7
MONOTXT
 72
     4
 11
664.67
 21
371.8694
 31
0.0
210
0.0
220
0.0
230
1.0
100
AcDbText
  0
TEXT
  5
23D
100
AcDbEntity
  8
1
  6
CONTINUOUS
 62
     7
100
AcDbText
 10
660.0047
 20
358.3694
 30
0.0
 40
3.0
  1
2.89
  7
MONOTXT
 72
     4
 11
664.67
 21
359.8694
 31
0.0
210
0.0
220
0.0
230
1.0
100
AcDbText
  0
TEXT
  5
23E
100
AcDbEntity
  8
1
  6
CONTINUOUS
 62
     7
100
AcDbText
 10
659.863
 20
346.3694
 30
0.0
 40
3.0
  1
3.04
  7
MONOTXT
 72
     4
 11
664.67
 21
347.8694
 31
0.0
210
0.0
220
0.0
230
1.0
100
AcDbText
  0
TEXT
  5
23F
100
AcDbEntity
  8
1
  6
CONTINUOUS
 62
     7
100
AcDbText
 10
659.9456
 20
334.3694
 30
0.0
 40
3.0
  1
3.20
  7
MONOTXT
 72
     4
 11
664.67
 21
335.8694
 31
0.0
210
0.0
220
0.0
230
1.0
100
AcDbText
  0
TEXT
  5
240
100
AcDbEntity
  8
1
  6
CONTINUOUS
 62
     7
100
AcDbText
 10
659.9338
 20
322.3694
 30
0.0
 40
3.0
  1
3.35
  7
MONOTXT
 72
     4
 11
664.67
 21
323.8694
 31
0.0
210
0.0
220
0.0
230
1.0
100
AcDbText
  0
TEXT
  5
241
100
AcDbEntity
  8
1
  6
CONTINUOUS
 62
     7
100
AcDbText
 10
659.9456
 20
310.3694
 30
0.0
 40
3.0
  1
3.50
  7
MONOTXT
 72
     4
 11
664.67
 21
311.8694
 31
0.0
210
0.0
220
0.0
230
1.0
100
AcDbText
  0
TEXT
  5
242
100
AcDbEntity
  8
1
  6
CONTINUOUS
 62
     7
100
AcDbText
 10
660.0756
 20
298.3694
 30
0.0
 40
3.0
  1
3.66
  7
MONOTXT
 72
     4
 11
664.67
 21
299.8694
 31
0.0
210
0.0
220
0.0
230
1.0
100
AcDbText
  0
TEXT
  5
243
100
AcDbEntity
  8
1
  6
CONTINUOUS
 62
     7
100
AcDbText
 10
660.5834
 20
286.3694
 30
0.0
 40
3.0
  1
3.81
  7
MONOTXT
 72
     4
 11
664.67
 21
287.8694
 31
0.0
210
0.0
220
0.0
230
1.0
100
AcDbText
  0
TEXT
  5
244
100
AcDbEntity
  8
1
  6
CONTINUOUS
 62
     7
100
AcDbText
 10
660.0756
 20
274.3694
 30
0.0
 40
3.0
  1
3.96
  7
MONOTXT
 72
     4
 11
664.67
 21
275.8694
 31
0.0
210
0.0
220
0.0
230
1.0
100
AcDbText
  0
TEXT
  5
245
100
AcDbEntity
  8
1
  6
CONTINUOUS
 62
     7
100
AcDbText
 10
661.1504
 20
262.3694
 30
0.0
 40
3.0
  1
4.11
  7
MONOTXT
 72
     4
 11
664.67
 21
263.8694
 31
0.0
210
0.0
220
0.0
230
1.0
100
AcDbText
  0
TEXT
  5
246
100
AcDbEntity
  8
1
  6
CONTINUOUS
 62
     7
100
AcDbText
 10
659.8512
 20
250.3694
 30
0.0
 40
3.0
  1
4.27
  7
MONOTXT
 72
     4
 11
664.67
 21
251.8694
 31
0.0
210
0.0
220
0.0
230
1.0
100
AcDbText
  0
TEXT
  5
247
100
AcDbEntity
  8
1
  6
CONTINUOUS
 62
     7
100
AcDbText
 10
659.7921
 20
238.3694
 30
0.0
 40
3.0
  1
4.42
  7
MONOTXT
 72
     4
 11
664.67
 21
239.8694
 31
0.0
210
0.0
220
0.0
230
1.0
100
AcDbText
  0
TEXT
  5
248
100
AcDbEntity
  8
1
  6
CONTINUOUS
 62
     7
100
AcDbText
 10
659.8512
 20
226.3694
 30
0.0
 40
3.0
  1
4.57
  7
MONOTXT
 72
     4
 11
664.67
 21
227.8694
 31
0.0
210
0.0
220
0.0
230
1.0
100
AcDbText
  0
TEXT
  5
249
100
AcDbEntity
  8
1
  6
CONTINUOUS
 62
     7
100
AcDbText
 10
679.6165
 20
281.2553
 30
0.0
 40
3.6
  1
DIMENSION FROM GROUND TO CENTER
 50
90.0
  7
MONOTXT
 72
     4
 11
677.8165
 21
334.8443
 31
0.0
210
0.0
220
0.0
230
1.0
100
AcDbText
  0
TEXT
  5
24A
100
AcDbEntity
  8
1
  6
CONTINUOUS
 62
     7
100
AcDbText
 10
685.6165
 20
275.0191
 30
0.0
 40
3.6
  1
OF PRESSURE ON SIGN ("CP" IN METERS.)
 50
90.0
  7
MONOTXT
 72
     4
 11
683.8165
 21
334.8443
 31
0.0
210
0.0
220
0.0
230
1.0
100
AcDbText
  0
TEXT
  5
24B
100
AcDbEntity
  8
1
  6
CONTINUOUS
 62
     7
100
AcDbText
 10
51.0685
 20
283.7417
 30
0.0
 40
3.6
  1
DIMENSION FROM GROUND TO CENTER
 50
90.0
  7
MONOTXT
 72
     4
 11
49.2685
 21
337.3307
 31
0.0
210
0.0
220
0.0
230
1.0
100
AcDbText
  0
TEXT
  5
24C
100
AcDbEntity
  8
1
  6
CONTINUOUS
 62
     7
100
AcDbText
 10
57.0685
 20
277.5055
 30
0.0
 40
3.6
  1
OF PRESSURE ON SIGN ("CP" IN METERS.)
 50
90.0
  7
MONOTXT
 72
     4
 11
55.2685
 21
337.3307
 31
0.0
210
0.0
220
0.0
230
1.0
100
AcDbText
  0
TEXT
  5
24D
100
AcDbEntity
  8
1
  6
CONTINUOUS
 62
     7
100
AcDbText
 10
129.945
 20
373.9849
 30
0.0
 40
8.4
  1
2.98Kg/m
 50
45.0
  7
TXT
 11
124.005303
 21
379.924597
 31
0.0
210
0.0
220
0.0
230
1.0
100
AcDbText
 73
     3
  0
TEXT
  5
24E
100
AcDbEntity
  8
1
  6
CONTINUOUS
 62
     7
100
AcDbText
 10
273.7116
 20
333.4422
 30
0.0
 40
8.4
  1
4.50Kg/m
 50
45.0
  7
TXT
 11
267.771903
 21
339.381897
 31
0.0
210
0.0
220
0.0
230
1.0
100
AcDbText
 73
     3
  0
TEXT
  5
24F
100
AcDbEntity
  8
1
  6
CONTINUOUS
 62
     7
100
AcDbText
 10
412.3641
 20
301.4815
 30
0.0
 40
8.4
  1
5.96Kg/m BB
 50
45.0
  7
TXT
 11
406.424403
 21
307.421197
 31
0.0
210
0.0
220
0.0
230
1.0
100
AcDbText
 73
     3
  0
TEXT
  5
250
100
AcDbEntity
  8
1
  6
CONTINUOUS
 62
     7
100
AcDbText
 10
526.3002
 20
244.7964
 30
0.0
 40
8.4
  1
9.00Kg/m BB
 50
45.0
  7
TXT
 11
520.360503
 21
250.736097
 31
0.0
210
0.0
220
0.0
230
1.0
100
AcDbText
 73
     3
  0
TEXT
  5
251
100
AcDbEntity
  8
1
  6
CONTINUOUS
 62
     7
100
AcDbText
 10
237.5576
 20
150.7463
 30
0.0
 40
3.0
  1
NOTES:
  7
MONOTXT
 11
237.5576
 21
153.7463
 31
0.0
210
0.0
220
0.0
230
1.0
100
AcDbText
 73
     3
  0
TEXT
  5
252
100
AcDbEntity
  8
1
  6
CONTINUOUS
 62
     7
100
AcDbText
 10
237.5576
 20
145.3463
 30
0.0
 40
3.0
  1
 
  7
MONOTXT
 11
237.5576
 21
148.3463
 31
0.0
210
0.0
220
0.0
230
1.0
100
AcDbText
 73
     3
  0
TEXT
  5
253
100
AcDbEntity
  8
1
  6
CONTINUOUS
 62
     7
100
AcDbText
 10
237.5576
 20
139.9463
 30
0.0
 40
3.0
  1
SEE SHEET TE1-7A FOR U-CHANNEL SECTIONS.
  7
MONOTXT
 11
237.5576
 21
142.9463
 31
0.0
210
0.0
220
0.0
230
1.0
100
AcDbText
 73
     3
  0
TEXT
  5
254
100
AcDbEntity
  8
1
  6
CONTINUOUS
 62
     7
100
AcDbText
 10
237.5576
 20
134.5463
 30
0.0
 40
3.0
  1
ALL SUPPORTS SHALL BE GALVANIZED IN ACCORDANCE WITH A.S.T.M. A-123.
  7
MONOTXT
 11
237.5576
 21
137.5463
 31
0.0
210
0.0
220
0.0
230
1.0
100
AcDbText
 73
     3
  0
TEXT
  5
255
100
AcDbEntity
  8
1
  6
CONTINUOUS
 62
     7
100
AcDbText
 10
237.5576
 20
129.1463
 30
0.0
 40
3.0
  1
 
  7
MONOTXT
 11
237.5576
 21
132.1463
 31
0.0
210
0.0
220
0.0
230
1.0
100
AcDbText
 73
     3
  0
TEXT
  5
256
100
AcDbEntity
  8
1
  6
CONTINUOUS
 62
     7
100
AcDbText
 10
237.5576
 20
123.7463
 30
0.0
 40
3.0
  1
DEPTHS DRIVEN ARE BASED ON AVERAGE SOIL CONDITIONS. DEPENDING UPON
  7
MONOTXT
 11
237.5576
 21
126.7463
 31
0.0
210
0.0
220
0.0
230
1.0
100
AcDbText
 73
     3
  0
TEXT
  5
257
100
AcDbEntity
  8
1
  6
CONTINUOUS
 62
     7
100
AcDbText
 10
237.5576
 20
118.3463
 30
0.0
 40
3.0
  1
ACTUAL SOIL BEARING IN THE FIELD, THE ENGINEER MAY REQUIRE THAT THE
  7
MONOTXT
 11
237.5576
 21
121.3463
 31
0.0
210
0.0
220
0.0
230
1.0
100
AcDbText
 73
     3
  0
TEXT
  5
258
100
AcDbEntity
  8
1
  6
CONTINUOUS
 62
     7
100
AcDbText
 10
237.5576
 20
112.9463
 30
0.0
 40
3.0
  1
DEPTH DRIVEN BE INCREASED TO 1.5m. WHEN THE POST(S) ARE BEHIND
  7
MONOTXT
 11
237.5576
 21
115.9463
 31
0.0
210
0.0
220
0.0
230
1.0
100
AcDbText
 73
     3
  0
TEXT
  5
259
100
AcDbEntity
  8
1
  6
CONTINUOUS
 62
     7
100
AcDbText
 10
237.5576
 20
107.5463
 30
0.0
 40
3.0
  1
GUARDRAIL, THE DEPTH DRIVEN MAY BE INCREASED UP TO 1.5m.
  7
MONOTXT
 11
237.5576
 21
110.5463
 31
0.0
210
0.0
220
0.0
230
1.0
100
AcDbText
 73
     3
  0
TEXT
  5
25A
100
AcDbEntity
  8
1
  6
CONTINUOUS
 62
     7
100
AcDbText
 10
237.5576
 20
102.1463
 30
0.0
 40
3.0
  1
 
  7
MONOTXT
 11
237.5576
 21
105.1463
 31
0.0
210
0.0
220
0.0
230
1.0
100
AcDbText
 73
     3
  0
TEXT
  5
25B
100
AcDbEntity
  8
1
  6
CONTINUOUS
 62
     7
100
AcDbText
 10
237.5576
 20
96.7463
 30
0.0
 40
3.0
  1
CAN BE USED IF THE SUPPORTS ARE LOCATED OUTSIDE OF THE CLEAR ZONE
  7
MONOTXT
 11
237.5576
 21
99.7463
 31
0.0
210
0.0
220
0.0
230
1.0
100
AcDbText
 73
     3
  0
TEXT
  5
25C
100
AcDbEntity
  8
1
  6
CONTINUOUS
 62
     7
100
AcDbText
 10
237.5576
 20
91.3463
 30
0.0
 40
3.0
  1
AS DEFINED IN TABLES 3.1 AND 3.2 OF THE "ROADSIDE DESIGN GUIDE". IF
  7
MONOTXT
 11
237.5576
 21
94.3463
 31
0.0
210
0.0
220
0.0
230
1.0
100
AcDbText
 73
     3
  0
TEXT
  5
25D
100
AcDbEntity
  8
1
  6
CONTINUOUS
 62
     7
100
AcDbText
 10
237.5576
 20
85.9463
 30
0.0
 40
3.0
  1
USED INSIDE OF THE CLEAR ZONE, THE SUPPORTS MUST BE EITHER BEHIND
  7
MONOTXT
 11
237.5576
 21
88.9463
 31
0.0
210
0.0
220
0.0
230
1.0
100
AcDbText
 73
     3
  0
TEXT
  5
25E
100
AcDbEntity
  8
1
  6
CONTINUOUS
 62
     7
100
AcDbText
 10
237.5576
 20
80.5463
 30
0.0
 40
3.0
  1
GUARDRAIL, CURB, OR THE OPERATING SPEED MUST BE LESS THAN 55 Km/h.
  7
MONOTXT
 11
237.5576
 21
83.5463
 31
0.0
210
0.0
220
0.0
230
1.0
100
AcDbText
 73
     3
  0
TEXT
  5
25F
100
AcDbEntity
  8
1
  6
CONTINUOUS
 62
     7
100
AcDbText
 10
479.0892
 20
111.3809
 30
0.0
 40
3.0
  1
2.98Kg/m
  7
MONOTXT
 72
     4
 11
490.0026
 21
112.8809
 31
0.0
210
0.0
220
0.0
230
1.0
100
AcDbText
  0
TEXT
  5
260
100
AcDbEntity
  8
1
  6
CONTINUOUS
 62
     7
100
AcDbText
 10
478.9475
 20
99.3809
 30
0.0
 40
3.0
  1
4.50Kg/m
  7
MONOTXT
 72
     4
 11
490.0026
 21
100.8809
 31
0.0
210
0.0
220
0.0
230
1.0
100
AcDbText
  0
TEXT
  5
261
100
AcDbEntity
  8
1
  6
CONTINUOUS
 62
     7
100
AcDbText
 10
474.1877
 20
87.3809
 30
0.0
 40
3.0
  1
5.96Kg/m BB
  7
MONOTXT
 72
     4
 11
490.0026
 21
88.8809
 31
0.0
210
0.0
220
0.0
230
1.0
100
AcDbText
  0
TEXT
  5
262
100
AcDbEntity
  8
1
  6
CONTINUOUS
 62
     7
100
AcDbText
 10
474.1168
 20
75.3809
 30
0.0
 40
3.0
  1
9.00Kg/m BB
  7
MONOTXT
 72
     4
 11
490.0026
 21
76.8809
 31
0.0
210
0.0
220
0.0
230
1.0
100
AcDbText
  0
TEXT
  5
263
100
AcDbEntity
  8
1
  6
CONTINUOUS
 62
     7
100
AcDbText
 10
514.1025
 20
112.6241
 30
0.0
 40
3.0
  1
0.9m
  7
MONOTXT
 72
     4
 11
519.2993
 21
114.1241
 31
0.0
210
0.0
220
0.0
230
1.0
100
AcDbText
  0
TEXT
  5
264
100
AcDbEntity
  8
1
  6
CONTINUOUS
 62
     7
100
AcDbText
 10
515.3072
 20
100.6241
 30
0.0
 40
3.0
  1
1.1m
  7
MONOTXT
 72
     4
 11
519.2993
 21
102.1241
 31
0.0
210
0.0
220
0.0
230
1.0
100
AcDbText
  0
TEXT
  5
265
100
AcDbEntity
  8
1
  6
CONTINUOUS
 62
     7
100
AcDbText
 10
515.3072
 20
88.6241
 30
0.0
 40
3.0
  1
1.1m
  7
MONOTXT
 72
     4
 11
519.2993
 21
90.1241
 31
0.0
210
0.0
220
0.0
230
1.0
100
AcDbText
  0
TEXT
  5
266
100
AcDbEntity
  8
1
  6
CONTINUOUS
 62
     7
100
AcDbText
 10
515.3072
 20
76.6241
 30
0.0
 40
3.0
  1
1.1m
  7
MONOTXT
 72
     4
 11
519.2993
 21
78.1241
 31
0.0
210
0.0
220
0.0
230
1.0
100
AcDbText
  0
ENDSEC
  0
SECTION
  2
OBJECTS
  0
DICTIONARY
  5
19
100
AcDbDictionary
  3
ACAD_GROUP
350
1A
  3
ACAD_MLINESTYLE
350
1B
  0
DICTIONARY
  5
1A
102
{ACAD_REACTORS
330
19
102
}
100
AcDbDictionary
  0
DICTIONARY
  5
1B
102
{ACAD_REACTORS
330
19
102
}
100
AcDbDictionary
  3
STANDARD
350
1C
  0
MLINESTYLE
  5
1C
102
{ACAD_REACTORS
330
1B
102
}
100
AcDbMlineStyle
  2
STANDARD
 70
     0
  3

 62
     0
 51
90.0
 52
90.0
 71
     2
 49
0.5
 62
   256
  6
BYLAYER
 49
-0.5
 62
   256
  6
BYLAYER
  0
ENDSEC
  0
EOF
