  0
SECTION
  2
HEADER
  9
$ACADVER
  1
AC1014
  9
$ACADMAINTVER
 70
     0
  9
$DWGCODEPAGE
  3
ANSI_1252
  9
$INSBASE
 10
0.0
 20
0.0
 30
0.0
  9
$EXTMIN
 10
38.0438
 20
12.0406
 30
0.0
  9
$EXTMAX
 10
800.169
 20
488.9432
 30
0.0
  9
$LIMMIN
 10
0.0
 20
0.0
  9
$LIMMAX
 10
12.0
 20
9.0
  9
$ORTHOMODE
 70
     0
  9
$REGENMODE
 70
     1
  9
$FILLMODE
 70
     1
  9
$QTEXTMODE
 70
     0
  9
$MIRRTEXT
 70
     1
  9
$DRAGMODE
 70
     2
  9
$LTSCALE
 40
1.0
  9
$OSMODE
 70
     0
  9
$ATTMODE
 70
     1
  9
$TEXTSIZE
 40
0.2
  9
$TRACEWID
 40
0.05
  9
$TEXTSTYLE
  7
STANDARD
  9
$CLAYER
  8
0
  9
$CELTYPE
  6
CONTINUOUS
  9
$CECOLOR
 62
   256
  9
$CELTSCALE
 40
1.0
  9
$DELOBJ
 70
     1
  9
$DISPSILH
 70
     0
  9
$DIMSCALE
 40
1.0
  9
$DIMASZ
 40
0.18
  9
$DIMEXO
 40
0.0625
  9
$DIMDLI
 40
0.38
  9
$DIMRND
 40
0.0
  9
$DIMDLE
 40
0.0
  9
$DIMEXE
 40
0.18
  9
$DIMTP
 40
0.0
  9
$DIMTM
 40
0.0
  9
$DIMTXT
 40
0.18
  9
$DIMCEN
 40
0.09
  9
$DIMTSZ
 40
0.0
  9
$DIMTOL
 70
     0
  9
$DIMLIM
 70
     0
  9
$DIMTIH
 70
     1
  9
$DIMTOH
 70
     1
  9
$DIMSE1
 70
     0
  9
$DIMSE2
 70
     0
  9
$DIMTAD
 70
     0
  9
$DIMZIN
 70
     0
  9
$DIMBLK
  1

  9
$DIMASO
 70
     1
  9
$DIMSHO
 70
     1
  9
$DIMPOST
  1

  9
$DIMAPOST
  1

  9
$DIMALT
 70
     0
  9
$DIMALTD
 70
     2
  9
$DIMALTF
 40
25.4
  9
$DIMLFAC
 40
1.0
  9
$DIMTOFL
 70
     0
  9
$DIMTVP
 40
0.0
  9
$DIMTIX
 70
     0
  9
$DIMSOXD
 70
     0
  9
$DIMSAH
 70
     0
  9
$DIMBLK1
  1

  9
$DIMBLK2
  1

  9
$DIMSTYLE
  2
STANDARD
  9
$DIMCLRD
 70
     0
  9
$DIMCLRE
 70
     0
  9
$DIMCLRT
 70
     0
  9
$DIMTFAC
 40
1.0
  9
$DIMGAP
 40
0.09
  9
$DIMJUST
 70
     0
  9
$DIMSD1
 70
     0
  9
$DIMSD2
 70
     0
  9
$DIMTOLJ
 70
     1
  9
$DIMTZIN
 70
     0
  9
$DIMALTZ
 70
     0
  9
$DIMALTTZ
 70
     0
  9
$DIMFIT
 70
     3
  9
$DIMUPT
 70
     0
  9
$DIMUNIT
 70
     2
  9
$DIMDEC
 70
     4
  9
$DIMTDEC
 70
     4
  9
$DIMALTU
 70
     2
  9
$DIMALTTD
 70
     2
  9
$DIMTXSTY
  7
STANDARD
  9
$DIMAUNIT
 70
     0
  9
$LUNITS
 70
     2
  9
$LUPREC
 70
     4
  9
$SKETCHINC
 40
0.1
  9
$FILLETRAD
 40
0.0
  9
$AUNITS
 70
     0
  9
$AUPREC
 70
     0
  9
$MENU
  1
acad
  9
$ELEVATION
 40
0.0
  9
$PELEVATION
 40
0.0
  9
$THICKNESS
 40
0.0
  9
$LIMCHECK
 70
     0
  9
$BLIPMODE
 70
     1
  9
$CHAMFERA
 40
0.0
  9
$CHAMFERB
 40
0.0
  9
$CHAMFERC
 40
0.0
  9
$CHAMFERD
 40
0.0
  9
$SKPOLY
 70
     0
  9
$TDCREATE
 40
2451803.531898148
  9
$TDUPDATE
 40
2451803.531898148
  9
$TDINDWG
 40
0.0000000000
  9
$TDUSRTIMER
 40
0.0000000000
  9
$USRTIMER
 70
     1
  9
$ANGBASE
 50
0.0
  9
$ANGDIR
 70
     0
  9
$PDMODE
 70
     0
  9
$PDSIZE
 40
0.0
  9
$PLINEWID
 40
0.0
  9
$COORDS
 70
     0
  9
$SPLFRAME
 70
     0
  9
$SPLINETYPE
 70
     6
  9
$SPLINESEGS
 70
    10
  9
$ATTDIA
 70
     0
  9
$ATTREQ
 70
     1
  9
$HANDLING
 70
     1
  9
$HANDSEED
  5
3F5
  9
$SURFTAB1
 70
     6
  9
$SURFTAB2
 70
     6
  9
$SURFTYPE
 70
     6
  9
$SURFU
 70
     6
  9
$SURFV
 70
     6
  9
$UCSNAME
  2

  9
$UCSORG
 10
0.0
 20
0.0
 30
0.0
  9
$UCSXDIR
 10
1.0
 20
0.0
 30
0.0
  9
$UCSYDIR
 10
0.0
 20
1.0
 30
0.0
  9
$PUCSNAME
  2

  9
$PUCSORG
 10
0.0
 20
0.0
 30
0.0
  9
$PUCSXDIR
 10
1.0
 20
0.0
 30
0.0
  9
$PUCSYDIR
 10
0.0
 20
1.0
 30
0.0
  9
$USERI1
 70
     0
  9
$USERI2
 70
     0
  9
$USERI3
 70
     0
  9
$USERI4
 70
     0
  9
$USERI5
 70
     0
  9
$USERR1
 40
0.0
  9
$USERR2
 40
0.0
  9
$USERR3
 40
0.0
  9
$USERR4
 40
0.0
  9
$USERR5
 40
0.0
  9
$WORLDVIEW
 70
     1
  9
$SHADEDGE
 70
     3
  9
$SHADEDIF
 70
    70
  9
$TILEMODE
 70
     1
  9
$MAXACTVP
 70
    16
  9
$PINSBASE
 10
0.0
 20
0.0
 30
0.0
  9
$PLIMCHECK
 70
     0
  9
$PEXTMIN
 10
-1.000000E+20
 20
-1.000000E+20
 30
-1.000000E+20
  9
$PEXTMAX
 10
-1.000000E+20
 20
-1.000000E+20
 30
-1.000000E+20
  9
$PLIMMIN
 10
0.0
 20
0.0
  9
$PLIMMAX
 10
12.0
 20
9.0
  9
$UNITMODE
 70
     0
  9
$VISRETAIN
 70
     0
  9
$PLINEGEN
 70
     1
  9
$PSLTSCALE
 70
     0
  9
$TREEDEPTH
 70
  3020
  9
$PICKSTYLE
 70
     1
  9
$CMLSTYLE
  2
STANDARD
  9
$CMLJUST
 70
     0
  9
$CMLSCALE
 40
1.0
  9
$PROXYGRAPHICS
 70
     0
  9
$MEASUREMENT
 70
     0
  0
ENDSEC
  0
SECTION
  2
CLASSES
  0
CLASS
  1
LWPOLYLINE
  2
AcDbPolyline
  3
"AutoCAD"
 90
        0
280
     0
281
     1
  0
CLASS
  1
IMAGE
  2
AcDbRasterImage
  3
ISM
 90
      127
280
     0
281
     1
  0
CLASS
  1
OLE2FRAME
  2
AcDbOle2Frame
  3
""
 90
        0
280
     0
281
     1
  0
CLASS
  1
HATCH
  2
AcDbHatch
  3
"ACAD_SEDONA"
 90
        0
280
     0
281
     1
  0
CLASS
  1
DICTIONARYVAR
  2
AcDbDictionaryVar
  3
"AutoCAD"
 90
        0
280
     0
281
     0
  0
CLASS
  1
RASTERVARIABLES
  2
AcDbRasterVariables
  3
ISM
 90
        0
280
     0
281
     0
  0
CLASS
  1
IMAGEDEF
  2
AcDbRasterImageDef
  3
ISM
 90
        0
280
     0
281
     0
  0
CLASS
  1
IMAGEDEF_REACTOR
  2
AcDbRasterImageDefReactor
  3
ISM
 90
        1
280
     0
281
     0
  0
CLASS
  1
IDBUFFER
  2
AcDbIdBuffer
  3
"Acad"
 90
        0
280
     0
281
     0
  0
CLASS
  1
SPATIAL_FILTER
  2
AcDbSpatialFilter
  3
"Acad"
 90
        0
280
     0
281
     0
  0
CLASS
  1
XRECORD
  2
AcDbXrecord
  3
"<Built In>"
 90
        0
280
     0
281
     0
  0
CLASS
  1
SORTENTSTABLE
  2
AcDbSortentsTable
  3
"AutoCAD"
 90
        0
280
     0
281
     0
  0
CLASS
  1
LAYER_INDEX
  2
AcDbLayerIndex
  3
"Acad"
 90
        0
280
     0
281
     0
  0
CLASS
  1
SPATIAL_INDEX
  2
AcDbSpatialIndex
  3
"Acad"
 90
        0
280
     0
281
     0
  0
CLASS
  1
OBJECT_PTR
  2
CAseDLPNTableRecord
  3
"ASE-LPNTableRecord"
 90
        1
280
     0
281
     0
  0
ENDSEC
  0
SECTION
  2
TABLES
  0
TABLE
  2
VPORT
  5
7
100
AcDbSymbolTable
 70
     1
  0
VPORT
  5
3F4
100
AcDbSymbolTableRecord
100
AcDbViewportTableRecord
  2
*ACTIVE
 70
     0
 10
0.0
 20
0.0
 11
1.0
 21
1.0
 12
0.0
 22
0.0
 13
0.0
 23
0.0
 14
0.0
 24
0.0
 15
0.0
 25
0.0
 16
0.0
 26
0.0
 36
1.0
 17
365.3018
 27
258.732
 37
0.0
 40
565.24
 41
1.545
 42
50.0
 43
0.0
 44
0.0
 50
0.0
 51
0.0
 71
     0
 72
   100
 73
     1
 74
     0
 75
     0
 76
     0
 77
     0
 78
     0
  0
ENDTAB
  0
TABLE
  2
LTYPE
  5
4
100
AcDbSymbolTable
 70
     9
  0
LTYPE
  5
11
100
AcDbSymbolTableRecord
100
AcDbLinetypeTableRecord
  2
BYBLOCK
 70
     0
  3

 72
    65
 73
     0
 40
0.0
  0
LTYPE
  5
12
100
AcDbSymbolTableRecord
100
AcDbLinetypeTableRecord
  2
BYLAYER
 70
     0
  3

 72
    65
 73
     0
 40
0.0
  0
LTYPE
  5
13
100
AcDbSymbolTableRecord
100
AcDbLinetypeTableRecord
  2
CONTINUOUS
 70
     0
  3
Solid line
 72
    65
 73
     0
 40
0.0
  0
LTYPE
  5
22
102
{ACAD_XDICTIONARY
360
64676E0000000000
102
}
100
AcDbSymbolTableRecord
100
AcDbLinetypeTableRecord
  2
DOT
 70
    64
  3
. . . . . . . . . . . . . . . . . . . . . . . . . . . . . . . . .
 72
    65
 73
     2
 40
0.25
 49
0.0
 74
     0
 49
-0.25
 74
     0
  0
LTYPE
  5
23
102
{ACAD_XDICTIONARY
360
64676E0000000000
102
}
100
AcDbSymbolTableRecord
100
AcDbLinetypeTableRecord
  2
HIDDEN
 70
    64
  3
__ __ __ __ __ __ __ __ __ __ __ __ __ __ __ __ __ __ __ __ __ 
 72
    65
 73
     2
 40
0.375
 49
0.25
 74
     0
 49
-0.125
 74
     0
  0
LTYPE
  5
24
102
{ACAD_XDICTIONARY
360
64676E0000000000
102
}
100
AcDbSymbolTableRecord
100
AcDbLinetypeTableRecord
  2
DASHED
 70
    64
  3
__ __ __ __ __ __ __ __ __ __ __ __ __ __ __ __ __ __ __ __ __
 72
    65
 73
     2
 40
0.75
 49
0.5
 74
     0
 49
-0.25
 74
     0
  0
LTYPE
  5
25
102
{ACAD_XDICTIONARY
360
64676E0000000000
102
}
100
AcDbSymbolTableRecord
100
AcDbLinetypeTableRecord
  2
DASHDOT
 70
    64
  3
__ . __ . __ . __ . __ . __ . __ . __ . __ . __ . __ . __ . _
 72
    65
 73
     4
 40
1.0
 49
0.5
 74
     0
 49
-0.25
 74
     0
 49
0.0
 74
     0
 49
-0.25
 74
     0
  0
LTYPE
  5
26
102
{ACAD_XDICTIONARY
360
64676E0000000000
102
}
100
AcDbSymbolTableRecord
100
AcDbLinetypeTableRecord
  2
DIVIDE
 70
    64
  3
____ . . ____ . . ____ . . ____ . . ____ . . ____ . . ____ . .
 72
    65
 73
     6
 40
1.25
 49
0.5
 74
     0
 49
-0.25
 74
     0
 49
0.0
 74
     0
 49
-0.25
 74
     0
 49
0.0
 74
     0
 49
-0.25
 74
     0
  0
LTYPE
  5
27
102
{ACAD_XDICTIONARY
360
64676E0000000000
102
}
100
AcDbSymbolTableRecord
100
AcDbLinetypeTableRecord
  2
CENTER
 70
    64
  3
____ _ ____ _ ____ _ ____ _ ____ _ ____ _ ____ _ ____ _ ____ _
 72
    65
 73
     4
 40
2.0
 49
1.25
 74
     0
 49
-0.25
 74
     0
 49
0.25
 74
     0
 49
-0.25
 74
     0
  0
ENDTAB
  0
TABLE
  2
LAYER
  5
2
100
AcDbSymbolTable
 70
     3
  0
LAYER
  5
14
102
{ACAD_XDICTIONARY
360
5F205F5F5F5F205F
102
}
100
AcDbSymbolTableRecord
100
AcDbLayerTableRecord
  2
0
 70
     0
 62
     7
  6
CONTINUOUS
  0
LAYER
  5
2A
102
{ACAD_XDICTIONARY
360
5F205F5F5F5F205F
102
}
100
AcDbSymbolTableRecord
100
AcDbLayerTableRecord
  2
61
 70
    64
 62
     7
  6
CONTINUOUS
  0
LAYER
  5
2D
102
{ACAD_XDICTIONARY
360
5F205F5F5F5F205F
102
}
100
AcDbSymbolTableRecord
100
AcDbLayerTableRecord
  2
1
 70
    64
 62
     7
  6
CONTINUOUS
  0
ENDTAB
  0
TABLE
  2
STYLE
  5
3
100
AcDbSymbolTable
 70
     3
  0
STYLE
  5
17
100
AcDbSymbolTableRecord
100
AcDbTextStyleTableRecord
  2
STANDARD
 70
     0
 40
0.0
 41
1.0
 50
0.0
 71
     0
 42
0.0
  3
txt
  4

  0
STYLE
  5
2B
100
AcDbSymbolTableRecord
100
AcDbTextStyleTableRecord
  2
MONOTXT
 70
     0
 40
0.2
 41
1.0
 50
0.0
 71
     0
 42
0.2
  3
MONOTXT
  4

  0
STYLE
  5
37
100
AcDbSymbolTableRecord
100
AcDbTextStyleTableRecord
  2
TXT
 70
     0
 40
0.2
 41
1.0
 50
0.0
 71
     0
 42
0.2
  3
TXT
  4

  0
ENDTAB
  0
TABLE
  2
VIEW
  5
5
100
AcDbSymbolTable
 70
     0
  0
ENDTAB
  0
TABLE
  2
UCS
  5
6
100
AcDbSymbolTable
 70
     0
  0
ENDTAB
  0
TABLE
  2
APPID
  5
8
100
AcDbSymbolTable
 70
     1
  0
APPID
  5
16
100
AcDbSymbolTableRecord
100
AcDbRegAppTableRecord
  2
ACAD
 70
     0
  0
ENDTAB
  0
TABLE
  2
DIMSTYLE
  5
9
100
AcDbSymbolTable
 70
     1
  0
DIMSTYLE
105
18
100
AcDbSymbolTableRecord
100
AcDbDimStyleTableRecord
  2
STANDARD
 70
     0
  3

  4

  5

  6

  7

 40
1.0
 41
0.18
 42
0.0625
 43
0.38
 44
0.18
 45
0.0
 46
0.0
 47
0.0
 48
0.0
140
0.18
141
0.09
142
0.0
143
25.4
144
1.0
145
0.0
146
1.0
147
0.09
 71
     0
 72
     0
 73
     1
 74
     1
 75
     0
 76
     0
 77
     0
 78
     0
170
     0
171
     2
172
     0
173
     0
174
     0
175
     0
176
     0
177
     0
178
     0
270
     2
271
     4
272
     4
273
     2
274
     2
340
17
275
     0
280
     0
281
     0
282
     0
283
     1
284
     0
285
     0
286
     0
287
     0
288
     0
  0
ENDTAB
  0
TABLE
  2
BLOCK_RECORD
  5
1
100
AcDbSymbolTable
 70
     1
  0
BLOCK_RECORD
  5
A
100
AcDbSymbolTableRecord
100
AcDbBlockTableRecord
  2
*MODEL_SPACE
  0
BLOCK_RECORD
  5
B
100
AcDbSymbolTableRecord
100
AcDbBlockTableRecord
  2
*PAPER_SPACE
  0
BLOCK_RECORD
  5
16A
102
{ACAD_XDICTIONARY
360
D8A0022400000081
102
}
100
AcDbSymbolTableRecord
100
AcDbBlockTableRecord
  2
LDR
  0
ENDTAB
  0
ENDSEC
  0
SECTION
  2
BLOCKS
  0
BLOCK
  5
D
100
AcDbEntity
  8
0
100
AcDbBlockBegin
  2
*MODEL_SPACE
 70
     0
 10
0.0
 20
0.0
 30
0.0
  3
*MODEL_SPACE
  1

  0
ENDBLK
  5
E
100
AcDbEntity
  8
0
100
AcDbBlockEnd
  0
BLOCK
  5
F
100
AcDbEntity
 67
     1
  8
0
100
AcDbBlockBegin
  2
*PAPER_SPACE
 70
     0
 10
0.0
 20
0.0
 30
0.0
  3
*PAPER_SPACE
  1

  0
ENDBLK
  5
10
100
AcDbEntity
 67
     1
  8
0
100
AcDbBlockEnd
  0
BLOCK
  5
16B
100
AcDbEntity
  8
1
  6
CONTINUOUS
 62
     1
100
AcDbBlockBegin
  2
LDR
 70
     0
 10
0.0
 20
0.0
 30
0.0
  3
LNR
  1

  0
ELLIPSE
  5
16C
100
AcDbEntity
  8
1
  6
CONTINUOUS
 62
     1
100
AcDbEllipse
 10
-0.005456
 20
-0.001381
 30
0.0
 11
0.0089285004662614
 21
0.0007807500133122
 31
0.0
210
0.0
220
0.0
230
1.0
 40
0.122415
 41
0.8963533496766982
 42
3.1415926535897931
  0
ELLIPSE
  5
16D
100
AcDbEntity
  8
1
  6
CONTINUOUS
 62
     1
100
AcDbEllipse
 10
-0.005602
 20
0.001058
 30
0.0
 11
-0.0087822506094859
 21
0.0008782502052167
 31
0.0
210
0.0
220
0.0
230
1.0
 40
0.07063
 41
6.2823074065658329
 42
2.276517300956717
  0
ENDBLK
  5
16E
100
AcDbEntity
  8
1
  6
CONTINUOUS
 62
     1
100
AcDbBlockEnd
  0
ENDSEC
  0
SECTION
  2
ENTITIES
  0
TEXT
  5
2C
100
AcDbEntity
  8
61
  6
CONTINUOUS
 62
     7
100
AcDbText
 10
785.769
 20
462.0406
 30
0.0
 40
2.881584
  1
     
 41
1.001399
  7
MONOTXT
210
0.0
220
0.0
230
1.0
100
AcDbText
  0
TEXT
  5
2E
100
AcDbEntity
  8
1
  6
CONTINUOUS
 62
     1
100
AcDbText
 10
607.7081
 20
45.342
 30
0.0
 40
2.400048
  1
07-22-76
  7
MONOTXT
 72
     1
 11
616.4106
 21
47.742
 31
0.0
210
0.0
220
0.0
230
1.0
100
AcDbText
 73
     3
  0
TEXT
  5
2F
100
AcDbEntity
  8
1
  6
CONTINUOUS
 62
     1
100
AcDbText
 10
609.056
 20
39.7295
 30
0.0
 40
2.400048
  1
12-10-76
  7
MONOTXT
 72
     1
 11
616.7191
 21
42.1295
 31
0.0
210
0.0
220
0.0
230
1.0
100
AcDbText
 73
     3
  0
TEXT
  5
30
100
AcDbEntity
  8
1
  6
CONTINUOUS
 62
     1
100
AcDbText
 10
607.2997
 20
34.2832
 30
0.0
 40
2.400048
  1
        
  7
MONOTXT
 72
     1
 11
616.4999
 21
36.6832
 31
0.0
210
0.0
220
0.0
230
1.0
100
AcDbText
 73
     3
  0
TEXT
  5
31
100
AcDbEntity
  8
1
  6
CONTINUOUS
 62
     1
100
AcDbText
 10
606.801
 20
39.9766
 30
0.0
 40
2.400048
  1
        
  7
MONOTXT
 72
     1
 11
616.0012
 21
42.3766
 31
0.0
210
0.0
220
0.0
230
1.0
100
AcDbText
 73
     3
  0
TEXT
  5
32
100
AcDbEntity
  8
1
  6
CONTINUOUS
 62
     1
100
AcDbText
 10
606.609
 20
34.4566
 30
0.0
 40
2.400048
  1
        
  7
MONOTXT
 72
     1
 11
615.8092
 21
36.8566
 31
0.0
210
0.0
220
0.0
230
1.0
100
AcDbText
 73
     3
  0
TEXT
  5
33
100
AcDbEntity
  8
1
  6
CONTINUOUS
 62
     1
100
AcDbText
 10
606.801
 20
29.0806
 30
0.0
 40
2.400048
  1
        
  7
MONOTXT
 72
     1
 11
616.0012
 21
31.4806
 31
0.0
210
0.0
220
0.0
230
1.0
100
AcDbText
 73
     3
  0
TEXT
  5
34
100
AcDbEntity
  8
1
  6
CONTINUOUS
 62
     1
100
AcDbText
 10
606.681
 20
23.5606
 30
0.0
 40
2.400048
  1
        
  7
MONOTXT
 72
     1
 11
615.8812
 21
25.9606
 31
0.0
210
0.0
220
0.0
230
1.0
100
AcDbText
 73
     3
  0
TEXT
  5
35
100
AcDbEntity
  8
1
  6
CONTINUOUS
 62
     1
100
AcDbText
 10
606.801
 20
18.0646
 30
0.0
 40
2.400048
  1
        
  7
MONOTXT
 72
     1
 11
616.0012
 21
20.4646
 31
0.0
210
0.0
220
0.0
230
1.0
100
AcDbText
 73
     3
  0
TEXT
  5
36
100
AcDbEntity
  8
1
  6
CONTINUOUS
 62
     1
100
AcDbText
 10
606.801
 20
13.2406
 30
0.0
 40
2.400048
  1
        
  7
MONOTXT
 72
     1
 11
616.0012
 21
15.6406
 31
0.0
210
0.0
220
0.0
230
1.0
100
AcDbText
 73
     3
  0
TEXT
  5
38
100
AcDbEntity
  8
1
  6
CONTINUOUS
 62
     1
100
AcDbText
 10
127.345
 20
470.9432
 30
0.0
 40
12.0
  1
SIGN LIGHTING CONTROL CABINET WIRING DIAGRAMS
  7
TXT
210
0.0
220
0.0
230
1.0
100
AcDbText
  0
TEXT
  5
39
100
AcDbEntity
  8
1
  6
CONTINUOUS
 62
     1
100
AcDbText
 10
193.6414
 20
446.8939
 30
0.0
 40
8.4
  1
(FOR USE WITH ROADWAY LIGHTING POWER SOURCE)
  7
TXT
210
0.0
220
0.0
230
1.0
100
AcDbText
  0
TEXT
  5
3A
100
AcDbEntity
  8
1
  6
CONTINUOUS
 62
     1
100
AcDbText
 10
268.6802
 20
430.776
 30
0.0
 40
3.0
  1
GENERAL
  7
MONOTXT
 11
268.6802
 21
433.776
 31
0.0
210
0.0
220
0.0
230
1.0
100
AcDbText
 73
     3
  0
TEXT
  5
3B
100
AcDbEntity
  8
1
  6
CONTINUOUS
 62
     1
100
AcDbText
 10
268.6802
 20
425.376
 30
0.0
 40
3.0
  1
DETAIL OF THIS SHEET SHALL APPLY TO EACH OVERHEAD SIGN STRUCTURE
  7
MONOTXT
 11
268.6802
 21
428.376
 31
0.0
210
0.0
220
0.0
230
1.0
100
AcDbText
 73
     3
  0
TEXT
  5
3C
100
AcDbEntity
  8
1
  6
CONTINUOUS
 62
     1
100
AcDbText
 10
268.6802
 20
419.976
 30
0.0
 40
3.0
  1
THAT SUPPORTS EXTERNALLY ILLUMINATED SIGNS POWERED FROM A ROADWAY
  7
MONOTXT
 11
268.6802
 21
422.976
 31
0.0
210
0.0
220
0.0
230
1.0
100
AcDbText
 73
     3
  0
TEXT
  5
3D
100
AcDbEntity
  8
1
  6
CONTINUOUS
 62
     1
100
AcDbText
 10
268.6802
 20
414.576
 30
0.0
 40
3.0
  1
LIGHTING CIRCUIT.
  7
MONOTXT
 11
268.6802
 21
417.576
 31
0.0
210
0.0
220
0.0
230
1.0
100
AcDbText
 73
     3
  0
TEXT
  5
3E
100
AcDbEntity
  8
1
  6
CONTINUOUS
 62
     1
100
AcDbText
 10
268.6802
 20
409.176
 30
0.0
 40
3.0
  1
ADDITIONAL NOTES APPLICABLE TO THIS SHEET MAY BE FOUND ON STANDARD
  7
MONOTXT
 11
268.6802
 21
412.176
 31
0.0
210
0.0
220
0.0
230
1.0
100
AcDbText
 73
     3
  0
TEXT
  5
3F
100
AcDbEntity
  8
1
  6
CONTINUOUS
 62
     1
100
AcDbText
 10
268.6802
 20
403.776
 30
0.0
 40
3.0
  1
SHEETS TE6-3B, TE6-3C, AND TE6-3D.
  7
MONOTXT
 11
268.6802
 21
406.776
 31
0.0
210
0.0
220
0.0
230
1.0
100
AcDbText
 73
     3
  0
LINE
  5
40
100
AcDbEntity
  8
1
  6
CONTINUOUS
 62
     1
100
AcDbLine
 10
267.6108
 20
429.7663
 30
0.0
 11
288.3235
 21
429.7663
 31
0.0
  0
LINE
  5
41
100
AcDbEntity
  8
1
  6
CONTINUOUS
 62
     5
100
AcDbLine
 10
86.8821
 20
349.4906
 30
0.0
 11
184.9821
 21
349.4906
 31
0.0
  0
LINE
  5
42
100
AcDbEntity
  8
1
  6
CONTINUOUS
 62
     5
100
AcDbLine
 10
184.9821
 20
349.4906
 30
0.0
 11
184.9821
 21
281.9906
 31
0.0
  0
LINE
  5
43
100
AcDbEntity
  8
1
  6
CONTINUOUS
 62
     5
100
AcDbLine
 10
184.9821
 20
281.9906
 30
0.0
 11
86.8821
 21
281.9906
 31
0.0
  0
LINE
  5
44
100
AcDbEntity
  8
1
  6
CONTINUOUS
 62
     5
100
AcDbLine
 10
86.8821
 20
281.9906
 30
0.0
 11
86.8821
 21
349.4906
 31
0.0
  0
LINE
  5
45
100
AcDbEntity
  8
1
  6
CONTINUOUS
 62
     5
100
AcDbLine
 10
86.8821
 20
292.7906
 30
0.0
 11
74.2821
 21
292.7906
 31
0.0
  0
LINE
  5
46
100
AcDbEntity
  8
1
  6
CONTINUOUS
 62
     5
100
AcDbLine
 10
86.8821
 20
296.8406
 30
0.0
 11
74.2821
 21
296.8406
 31
0.0
  0
LINE
  5
47
100
AcDbEntity
  8
1
  6
CONTINUOUS
 62
     5
100
AcDbLine
 10
93.5727
 20
301.5674
 30
0.0
 11
99.0913
 21
298.4138
 31
0.0
  0
LINE
  5
48
100
AcDbEntity
  8
1
  6
CONTINUOUS
 62
     5
100
AcDbLine
 10
94.2424
 20
302.7395
 30
0.0
 11
93.5727
 21
301.5674
 31
0.0
  0
LINE
  5
49
100
AcDbEntity
  8
1
  6
CONTINUOUS
 62
     5
100
AcDbLine
 10
99.7611
 20
299.5859
 30
0.0
 11
99.0913
 21
298.4138
 31
0.0
  0
ARC
  5
4A
100
AcDbEntity
  8
1
  6
CONTINUOUS
 62
     5
100
AcDbCircle
 10
87.104402
 20
305.114529
 30
0.0
 40
8.276916
210
0.0
220
0.0
230
1.0
100
AcDbArc
 50
268.460614
 51
331.149475
  0
ARC
  5
4B
100
AcDbEntity
  8
1
  6
CONTINUOUS
 62
     5
100
AcDbCircle
 10
87.7677
 20
304.915797
 30
0.0
 40
12.157499
210
0.0
220
0.0
230
1.0
100
AcDbArc
 50
265.822414
 51
330.125094
  0
ARC
  5
4C
100
AcDbEntity
  8
1
  6
CONTINUOUS
 62
     5
100
AcDbCircle
 10
184.0778
 20
304.915797
 30
0.0
 40
12.157499
210
0.0
220
0.0
230
1.0
100
AcDbArc
 50
209.874906
 51
274.177586
  0
LINE
  5
4D
100
AcDbEntity
  8
1
  6
CONTINUOUS
 62
     5
100
AcDbLine
 10
184.9635
 20
292.7906
 30
0.0
 11
197.5635
 21
292.7906
 31
0.0
  0
LINE
  5
4E
100
AcDbEntity
  8
1
  6
CONTINUOUS
 62
     5
100
AcDbLine
 10
184.9635
 20
296.8406
 30
0.0
 11
197.5635
 21
296.8406
 31
0.0
  0
LINE
  5
4F
100
AcDbEntity
  8
1
  6
CONTINUOUS
 62
     5
100
AcDbLine
 10
178.2729
 20
301.5674
 30
0.0
 11
172.7542
 21
298.4138
 31
0.0
  0
LINE
  5
50
100
AcDbEntity
  8
1
  6
CONTINUOUS
 62
     5
100
AcDbLine
 10
177.6031
 20
302.7395
 30
0.0
 11
178.2729
 21
301.5674
 31
0.0
  0
LINE
  5
51
100
AcDbEntity
  8
1
  6
CONTINUOUS
 62
     5
100
AcDbLine
 10
172.0845
 20
299.5859
 30
0.0
 11
172.7542
 21
298.4138
 31
0.0
  0
ARC
  5
52
100
AcDbEntity
  8
1
  6
CONTINUOUS
 62
     5
100
AcDbCircle
 10
184.741098
 20
305.114529
 30
0.0
 40
8.276916
210
0.0
220
0.0
230
1.0
100
AcDbArc
 50
208.850525
 51
271.539386
  0
LINE
  5
53
100
AcDbEntity
  8
1
  6
CONTINUOUS
 62
     5
100
AcDbLine
 10
94.2424
 20
302.7395
 30
0.0
 11
93.5727
 21
301.5674
 31
0.0
  0
LINE
  5
54
100
AcDbEntity
  8
1
  6
CONTINUOUS
 62
     5
100
AcDbLine
 10
124.2039
 20
294.659
 30
0.0
 11
124.2039
 21
298.259
 31
0.0
  0
LINE
  5
55
100
AcDbEntity
  8
1
  6
CONTINUOUS
 62
     5
100
AcDbLine
 10
128.7039
 20
294.659
 30
0.0
 11
128.7039
 21
298.259
 31
0.0
  0
ARC
  5
56
100
AcDbEntity
  8
1
  6
CONTINUOUS
 62
     5
100
AcDbCircle
 10
126.45385
 20
295.24547
 30
0.0
 40
2.325177
210
0.0
220
0.0
230
1.0
100
AcDbArc
 50
194.609281
 51
345.390719
  0
ELLIPSE
  5
57
100
AcDbEntity
  8
1
  6
CONTINUOUS
 62
     5
100
AcDbEllipse
 10
126.4282
 20
300.653525
 30
0.0
 11
3.8781000030703638
 21
-0.1436249170953409
 31
0.0
210
0.0
220
0.0
230
1.0
 40
0.505045
 41
0.0
 42
6.2831753071795866
  0
ELLIPSE
  5
58
100
AcDbEntity
  8
1
  6
CONTINUOUS
 62
     5
100
AcDbEllipse
 10
126.4282
 20
300.653525
 30
0.0
 11
3.8781000030703638
 21
-0.1436249170953409
 31
0.0
210
0.0
220
0.0
230
1.0
 40
0.757256
 41
3.1415926535897931
 42
0.0
  0
ARC
  5
59
100
AcDbEntity
  8
1
  6
CONTINUOUS
 62
     5
100
AcDbCircle
 10
121.779958
 20
317.369664
 30
0.0
 40
11.663835
210
0.0
220
0.0
230
1.0
100
AcDbArc
 50
93.430353
 51
137.218106
  0
ARC
  5
5A
100
AcDbEntity
  8
1
  6
CONTINUOUS
 62
     5
100
AcDbCircle
 10
122.855892
 20
316.633756
 30
0.0
 40
9.239531
210
0.0
220
0.0
230
1.0
100
AcDbArc
 50
89.837789
 51
133.686386
  0
LINE
  5
5B
100
AcDbEntity
  8
1
  6
CONTINUOUS
 62
     5
100
AcDbLine
 10
113.2194
 20
325.2919
 30
0.0
 11
94.9465
 21
302.3371
 31
0.0
  0
LINE
  5
5C
100
AcDbEntity
  8
1
  6
CONTINUOUS
 62
     5
100
AcDbLine
 10
116.4741
 20
323.3152
 30
0.0
 11
98.2651
 21
300.4408
 31
0.0
  0
ARC
  5
5D
100
AcDbEntity
  8
1
  6
CONTINUOUS
 62
     5
100
AcDbCircle
 10
153.684142
 20
317.369664
 30
0.0
 40
11.663835
210
0.0
220
0.0
230
1.0
100
AcDbArc
 50
35.718697
 51
86.569647
  0
ARC
  5
5E
100
AcDbEntity
  8
1
  6
CONTINUOUS
 62
     5
100
AcDbCircle
 10
152.608208
 20
316.633756
 30
0.0
 40
9.239531
210
0.0
220
0.0
230
1.0
100
AcDbArc
 50
38.390536
 51
90.162211
  0
LINE
  5
5F
100
AcDbEntity
  8
1
  6
CONTINUOUS
 62
     5
100
AcDbLine
 10
159.8502
 20
322.3717
 30
0.0
 11
174.5937
 21
301.0198
 31
0.0
  0
LINE
  5
60
100
AcDbEntity
  8
1
  6
CONTINUOUS
 62
     5
100
AcDbLine
 10
163.1539
 20
324.1792
 30
0.0
 11
176.4336
 21
302.0711
 31
0.0
  0
LINE
  5
61
100
AcDbEntity
  8
1
  6
CONTINUOUS
 62
     5
100
AcDbLine
 10
141.7821
 20
341.134
 30
0.0
 11
148.9821
 21
341.134
 31
0.0
  0
LINE
  5
62
100
AcDbEntity
  8
1
  6
CONTINUOUS
 62
     5
100
AcDbLine
 10
141.7821
 20
335.0146
 30
0.0
 11
148.9821
 21
335.0146
 31
0.0
  0
LINE
  5
63
100
AcDbEntity
  8
1
  6
CONTINUOUS
 62
     5
100
AcDbLine
 10
148.9821
 20
341.134
 30
0.0
 11
148.9821
 21
335.0146
 31
0.0
  0
LINE
  5
64
100
AcDbEntity
  8
1
  6
CONTINUOUS
 62
     5
100
AcDbLine
 10
141.7144
 20
323.4368
 30
0.0
 11
148.9144
 21
323.4368
 31
0.0
  0
LINE
  5
65
100
AcDbEntity
  8
1
  6
CONTINUOUS
 62
     5
100
AcDbLine
 10
141.7144
 20
329.5562
 30
0.0
 11
148.9144
 21
329.5562
 31
0.0
  0
LINE
  5
66
100
AcDbEntity
  8
1
  6
CONTINUOUS
 62
     5
100
AcDbLine
 10
141.7144
 20
329.5562
 30
0.0
 11
141.7144
 21
323.4368
 31
0.0
  0
LINE
  5
67
100
AcDbEntity
  8
1
  6
CONTINUOUS
 62
     5
100
AcDbLine
 10
148.9144
 20
329.5562
 30
0.0
 11
148.9144
 21
323.4368
 31
0.0
  0
LINE
  5
68
100
AcDbEntity
  8
1
  6
CONTINUOUS
 62
     5
100
AcDbLine
 10
141.7893
 20
311.4802
 30
0.0
 11
148.9893
 21
311.4802
 31
0.0
  0
LINE
  5
69
100
AcDbEntity
  8
1
  6
CONTINUOUS
 62
     5
100
AcDbLine
 10
141.7893
 20
317.5996
 30
0.0
 11
148.9893
 21
317.5996
 31
0.0
  0
LINE
  5
6A
100
AcDbEntity
  8
1
  6
CONTINUOUS
 62
     5
100
AcDbLine
 10
135.0588
 20
323.803
 30
0.0
 11
141.7144
 21
323.803
 31
0.0
  0
ARC
  5
6B
100
AcDbEntity
  8
1
  6
CONTINUOUS
 62
     5
100
AcDbCircle
 10
135.494751
 20
320.290104
 30
0.0
 40
5.616754
210
0.0
220
0.0
230
1.0
100
AcDbArc
 50
99.317692
 51
173.136306
  0
ARC
  5
6C
100
AcDbEntity
  8
1
  6
CONTINUOUS
 62
     5
100
AcDbCircle
 10
135.196192
 20
320.685599
 30
0.0
 40
3.120379
210
0.0
220
0.0
230
1.0
100
AcDbArc
 50
92.524506
 51
169.510961
  0
LINE
  5
6D
100
AcDbEntity
  8
1
  6
CONTINUOUS
 62
     5
100
AcDbLine
 10
132.1279
 20
321.2537
 30
0.0
 11
126.9793
 21
298.6225
 31
0.0
  0
POLYLINE
  5
6E
100
AcDbEntity
  8
1
  6
CONTINUOUS
 62
     5
100
AcDb2dPolyline
 66
     1
 10
0.0
 20
0.0
 30
0.0
  0
VERTEX
  5
6F
100
AcDbEntity
  8
1
  6
CONTINUOUS
 62
     5
100
AcDbVertex
100
AcDb2dVertex
 10
94.9881
 20
302.3135
 30
0.0
  0
VERTEX
  5
70
100
AcDbEntity
  8
1
  6
CONTINUOUS
 62
     5
100
AcDbVertex
100
AcDb2dVertex
 10
104.671
 20
326.65475
 30
0.0
 42
-0.279845
  0
VERTEX
  5
71
100
AcDbEntity
  8
1
  6
CONTINUOUS
 62
     5
100
AcDbVertex
100
AcDb2dVertex
 10
128.2821
 20
340.4906
 30
0.0
  0
VERTEX
  5
72
100
AcDbEntity
  8
1
  6
CONTINUOUS
 62
     5
100
AcDbVertex
100
AcDb2dVertex
 10
141.7821
 20
340.4906
 30
0.0
  0
VERTEX
  5
73
100
AcDbEntity
  8
1
  6
CONTINUOUS
 62
     5
100
AcDbVertex
100
AcDb2dVertex
 10
141.7821
 20
341.134
 30
0.0
  0
VERTEX
  5
74
100
AcDbEntity
  8
1
  6
CONTINUOUS
 62
     5
100
AcDbVertex
100
AcDb2dVertex
 10
141.7821
 20
335.0146
 30
0.0
  0
VERTEX
  5
75
100
AcDbEntity
  8
1
  6
CONTINUOUS
 62
     5
100
AcDbVertex
100
AcDb2dVertex
 10
141.7821
 20
336.8906
 30
0.0
  0
VERTEX
  5
76
100
AcDbEntity
  8
1
  6
CONTINUOUS
 62
     5
100
AcDbVertex
100
AcDb2dVertex
 10
130.53205
 20
336.8906
 30
0.0
 42
0.265
  0
VERTEX
  5
77
100
AcDbEntity
  8
1
  6
CONTINUOUS
 62
     5
100
AcDbVertex
100
AcDb2dVertex
 10
108.7032
 20
325.0505
 30
0.0
  0
VERTEX
  5
78
100
AcDbEntity
  8
1
  6
CONTINUOUS
 62
     5
100
AcDbVertex
100
AcDb2dVertex
 10
98.7933
 20
300.139
 30
0.0
  0
VERTEX
  5
79
100
AcDbEntity
  8
1
  6
CONTINUOUS
 62
     5
100
AcDbVertex
100
AcDb2dVertex
 10
99.7611
 20
299.5859
 30
0.0
  0
VERTEX
  5
7A
100
AcDbEntity
  8
1
  6
CONTINUOUS
 62
     5
100
AcDbVertex
100
AcDb2dVertex
 10
94.2424
 20
302.7395
 30
0.0
  0
VERTEX
  5
7B
100
AcDbEntity
  8
1
  6
CONTINUOUS
 62
     5
100
AcDbVertex
100
AcDb2dVertex
 10
94.9881
 20
302.3135
 30
0.0
  0
SEQEND
  5
7C
100
AcDbEntity
  8
1
  6
CONTINUOUS
 62
     5
  0
LINE
  5
7D
100
AcDbEntity
  8
1
  6
CONTINUOUS
 62
     5
100
AcDbLine
 10
94.2424
 20
302.7395
 30
0.0
 11
99.7611
 21
299.5859
 31
0.0
  0
LINE
  5
7E
100
AcDbEntity
  8
1
  6
CONTINUOUS
 62
     5
100
AcDbLine
 10
94.2424
 20
302.7395
 30
0.0
 11
99.7611
 21
299.5859
 31
0.0
  0
LINE
  5
7F
100
AcDbEntity
  8
1
  6
CONTINUOUS
 62
     5
100
AcDbLine
 10
154.3821
 20
329.0126
 30
0.0
 11
148.9144
 21
329.0126
 31
0.0
  0
LINE
  5
80
100
AcDbEntity
  8
1
  6
CONTINUOUS
 62
     5
100
AcDbLine
 10
152.5821
 20
325.8733
 30
0.0
 11
148.9144
 21
325.8733
 31
0.0
  0
POLYLINE
  5
81
100
AcDbEntity
  8
1
  6
CONTINUOUS
 62
     5
100
AcDb2dPolyline
 66
     1
 10
0.0
 20
0.0
 30
0.0
  0
VERTEX
  5
82
100
AcDbEntity
  8
1
  6
CONTINUOUS
 62
     5
100
AcDbVertex
100
AcDb2dVertex
 10
96.0648
 20
301.6981
 30
0.0
  0
VERTEX
  5
83
100
AcDbEntity
  8
1
  6
CONTINUOUS
 62
     5
100
AcDbVertex
100
AcDb2dVertex
 10
110.661699
 20
313.88525
 30
0.0
 42
-0.123637
  0
VERTEX
  5
84
100
AcDbEntity
  8
1
  6
CONTINUOUS
 62
     5
100
AcDbVertex
100
AcDb2dVertex
 10
119.2821
 20
317.0906
 30
0.0
  0
VERTEX
  5
85
100
AcDbEntity
  8
1
  6
CONTINUOUS
 62
     5
100
AcDbVertex
100
AcDb2dVertex
 10
141.7893
 20
317.0906
 30
0.0
  0
VERTEX
  5
86
100
AcDbEntity
  8
1
  6
CONTINUOUS
 62
     5
100
AcDbVertex
100
AcDb2dVertex
 10
141.7893
 20
317.5996
 30
0.0
  0
VERTEX
  5
87
100
AcDbEntity
  8
1
  6
CONTINUOUS
 62
     5
100
AcDbVertex
100
AcDb2dVertex
 10
141.7893
 20
311.4802
 30
0.0
  0
VERTEX
  5
88
100
AcDbEntity
  8
1
  6
CONTINUOUS
 62
     5
100
AcDbVertex
100
AcDb2dVertex
 10
141.7893
 20
313.5919
 30
0.0
  0
VERTEX
  5
89
100
AcDbEntity
  8
1
  6
CONTINUOUS
 62
     5
100
AcDbVertex
100
AcDb2dVertex
 10
119.282053
 20
313.591852
 30
0.0
 42
0.141058
  0
VERTEX
  5
8A
100
AcDbEntity
  8
1
  6
CONTINUOUS
 62
     5
100
AcDbVertex
100
AcDb2dVertex
 10
112.393
 20
310.5368
 30
0.0
  0
VERTEX
  5
8B
100
AcDbEntity
  8
1
  6
CONTINUOUS
 62
     5
100
AcDbVertex
100
AcDb2dVertex
 10
97.9351
 20
300.6293
 30
0.0
  0
VERTEX
  5
8C
100
AcDbEntity
  8
1
  6
CONTINUOUS
 62
     5
100
AcDbVertex
100
AcDb2dVertex
 10
96.0648
 20
301.6981
 30
0.0
  0
SEQEND
  5
8D
100
AcDbEntity
  8
1
  6
CONTINUOUS
 62
     5
  0
POLYLINE
  5
8E
100
AcDbEntity
  8
1
  6
CONTINUOUS
 62
     5
100
AcDb2dPolyline
 66
     1
 10
0.0
 20
0.0
 30
0.0
  0
VERTEX
  5
8F
100
AcDbEntity
  8
1
  6
CONTINUOUS
 62
     5
100
AcDbVertex
100
AcDb2dVertex
 10
148.9821
 20
340.4906
 30
0.0
  0
VERTEX
  5
90
100
AcDbEntity
  8
1
  6
CONTINUOUS
 62
     5
100
AcDbVertex
100
AcDb2dVertex
 10
158.88205
 20
340.4906
 30
0.0
 42
-0.301513
  0
VERTEX
  5
91
100
AcDbEntity
  8
1
  6
CONTINUOUS
 62
     5
100
AcDbVertex
100
AcDb2dVertex
 10
171.5893
 20
327.875
 30
0.0
  0
VERTEX
  5
92
100
AcDbEntity
  8
1
  6
CONTINUOUS
 62
     5
100
AcDbVertex
100
AcDb2dVertex
 10
176.7099
 20
302.2291
 30
0.0
  0
VERTEX
  5
93
100
AcDbEntity
  8
1
  6
CONTINUOUS
 62
     5
100
AcDbVertex
100
AcDb2dVertex
 10
177.6031
 20
302.7395
 30
0.0
  0
VERTEX
  5
94
100
AcDbEntity
  8
1
  6
CONTINUOUS
 62
     5
100
AcDbVertex
100
AcDb2dVertex
 10
172.0845
 20
299.5859
 30
0.0
  0
VERTEX
  5
95
100
AcDbEntity
  8
1
  6
CONTINUOUS
 62
     5
100
AcDbVertex
100
AcDb2dVertex
 10
173.0974
 20
300.1648
 30
0.0
  0
VERTEX
  5
96
100
AcDbEntity
  8
1
  6
CONTINUOUS
 62
     5
100
AcDbVertex
100
AcDb2dVertex
 10
167.719
 20
327.1019
 30
0.0
 42
0.36062
  0
VERTEX
  5
97
100
AcDbEntity
  8
1
  6
CONTINUOUS
 62
     5
100
AcDbVertex
100
AcDb2dVertex
 10
156.6321
 20
336.8906
 30
0.0
  0
VERTEX
  5
98
100
AcDbEntity
  8
1
  6
CONTINUOUS
 62
     5
100
AcDbVertex
100
AcDb2dVertex
 10
148.9821
 20
336.8906
 30
0.0
  0
VERTEX
  5
99
100
AcDbEntity
  8
1
  6
CONTINUOUS
 62
     5
100
AcDbVertex
100
AcDb2dVertex
 10
148.9821
 20
340.4906
 30
0.0
  0
SEQEND
  5
9A
100
AcDbEntity
  8
1
  6
CONTINUOUS
 62
     5
  0
LINE
  5
9B
100
AcDbEntity
  8
1
  6
CONTINUOUS
 62
     5
100
AcDbLine
 10
177.6031
 20
302.7395
 30
0.0
 11
172.0845
 21
299.5859
 31
0.0
  0
POLYLINE
  5
9C
100
AcDbEntity
  8
1
  6
CONTINUOUS
 62
     5
100
AcDb2dPolyline
 66
     1
 10
0.0
 20
0.0
 30
0.0
  0
VERTEX
  5
9D
100
AcDbEntity
  8
1
  6
CONTINUOUS
 62
     5
100
AcDbVertex
100
AcDb2dVertex
 10
152.58205
 20
317.0906
 30
0.0
 42
-0.16726
  0
VERTEX
  5
9E
100
AcDbEntity
  8
1
  6
CONTINUOUS
 62
     5
100
AcDbVertex
100
AcDb2dVertex
 10
161.7084
 20
313.2379
 30
0.0
  0
VERTEX
  5
9F
100
AcDbEntity
  8
1
  6
CONTINUOUS
 62
     5
100
AcDbVertex
100
AcDb2dVertex
 10
175.8379
 20
301.7308
 30
0.0
  0
VERTEX
  5
A0
100
AcDbEntity
  8
1
  6
CONTINUOUS
 62
     5
100
AcDbVertex
100
AcDb2dVertex
 10
177.6031
 20
302.7395
 30
0.0
  0
VERTEX
  5
A1
100
AcDbEntity
  8
1
  6
CONTINUOUS
 62
     5
100
AcDbVertex
100
AcDb2dVertex
 10
172.0845
 20
299.5859
 30
0.0
  0
VERTEX
  5
A2
100
AcDbEntity
  8
1
  6
CONTINUOUS
 62
     5
100
AcDbVertex
100
AcDb2dVertex
 10
173.0974
 20
300.1648
 30
0.0
  0
VERTEX
  5
A3
100
AcDbEntity
  8
1
  6
CONTINUOUS
 62
     5
100
AcDbVertex
100
AcDb2dVertex
 10
159.614809
 20
310.907946
 30
0.0
 42
0.130731
  0
VERTEX
  5
A4
100
AcDbEntity
  8
1
  6
CONTINUOUS
 62
     5
100
AcDbVertex
100
AcDb2dVertex
 10
152.5821
 20
313.5919
 30
0.0
  0
VERTEX
  5
A5
100
AcDbEntity
  8
1
  6
CONTINUOUS
 62
     5
100
AcDbVertex
100
AcDb2dVertex
 10
148.9893
 20
313.5919
 30
0.0
  0
VERTEX
  5
A6
100
AcDbEntity
  8
1
  6
CONTINUOUS
 62
     5
100
AcDbVertex
100
AcDb2dVertex
 10
148.9893
 20
311.4802
 30
0.0
  0
VERTEX
  5
A7
100
AcDbEntity
  8
1
  6
CONTINUOUS
 62
     5
100
AcDbVertex
100
AcDb2dVertex
 10
148.9893
 20
317.5996
 30
0.0
  0
VERTEX
  5
A8
100
AcDbEntity
  8
1
  6
CONTINUOUS
 62
     5
100
AcDbVertex
100
AcDb2dVertex
 10
152.5821
 20
317.0906
 30
0.0
  0
SEQEND
  5
A9
100
AcDbEntity
  8
1
  6
CONTINUOUS
 62
     5
  0
LINE
  5
AA
100
AcDbEntity
  8
1
  6
CONTINUOUS
 62
     5
100
AcDbLine
 10
148.9893
 20
317.5996
 30
0.0
 11
148.9893
 21
311.4802
 31
0.0
  0
LINE
  5
AB
100
AcDbEntity
  8
1
  6
CONTINUOUS
 62
     5
100
AcDbLine
 10
129.9183
 20
320.9614
 30
0.0
 11
127.1359
 21
305.9795
 31
0.0
  0
ARC
  5
AC
100
AcDbEntity
  8
1
  6
CONTINUOUS
 62
     5
100
AcDbCircle
 10
136.219719
 20
326.496562
 30
0.0
 40
10.514376
210
0.0
220
0.0
230
1.0
100
AcDbArc
 50
175.661875
 51
175.867108
  0
LINE
  5
AD
100
AcDbEntity
  8
1
  6
CONTINUOUS
 62
     5
100
AcDbLine
 10
130.5321
 20
336.8906
 30
0.0
 11
141.7821
 21
336.8906
 31
0.0
  0
LINE
  5
AE
100
AcDbEntity
  8
1
  6
CONTINUOUS
 62
     5
100
AcDbLine
 10
141.7821
 20
341.134
 30
0.0
 11
141.7821
 21
335.0146
 31
0.0
  0
LINE
  5
AF
100
AcDbEntity
  8
1
  6
CONTINUOUS
 62
     5
100
AcDbLine
 10
141.7821
 20
329.0126
 30
0.0
 11
121.0821
 21
329.0126
 31
0.0
  0
LINE
  5
B0
100
AcDbEntity
  8
1
  6
CONTINUOUS
 62
     5
100
AcDbLine
 10
141.7821
 20
341.134
 30
0.0
 11
141.7821
 21
335.0146
 31
0.0
  0
POLYLINE
  5
B1
100
AcDbEntity
  8
1
  6
CONTINUOUS
 62
     5
100
AcDb2dPolyline
 66
     1
 10
0.0
 20
0.0
 30
0.0
 70
     1
  0
VERTEX
  5
B2
100
AcDbEntity
  8
1
  6
CONTINUOUS
 62
     5
100
AcDbVertex
100
AcDb2dVertex
 10
123.9891
 20
299.5103
 30
0.0
  0
VERTEX
  5
B3
100
AcDbEntity
  8
1
  6
CONTINUOUS
 62
     5
100
AcDbVertex
100
AcDb2dVertex
 10
125.647
 20
325.8733
 30
0.0
  0
VERTEX
  5
B4
100
AcDbEntity
  8
1
  6
CONTINUOUS
 62
     5
100
AcDbVertex
100
AcDb2dVertex
 10
122.8821
 20
325.8733
 30
0.0
  0
VERTEX
  5
B5
100
AcDbEntity
  8
1
  6
CONTINUOUS
 62
     5
100
AcDbVertex
100
AcDb2dVertex
 10
141.7144
 20
325.8733
 30
0.0
  0
VERTEX
  5
B6
100
AcDbEntity
  8
1
  6
CONTINUOUS
 62
     5
100
AcDbVertex
100
AcDb2dVertex
 10
128.458
 20
325.8733
 30
0.0
  0
VERTEX
  5
B7
100
AcDbEntity
  8
1
  6
CONTINUOUS
 62
     5
100
AcDbVertex
100
AcDb2dVertex
 10
126.6354
 20
298.7281
 30
0.0
  0
VERTEX
  5
B8
100
AcDbEntity
  8
1
  6
CONTINUOUS
 62
     5
100
AcDbVertex
100
AcDb2dVertex
 10
123.9891
 20
299.5103
 30
0.0
  0
SEQEND
  5
B9
100
AcDbEntity
  8
1
  6
CONTINUOUS
 62
     5
  0
LINE
  5
BA
100
AcDbEntity
  8
1
  6
CONTINUOUS
 62
     5
100
AcDbLine
 10
122.8821
 20
325.8733
 30
0.0
 11
141.7144
 21
325.8733
 31
0.0
  0
POLYLINE
  5
BB
100
AcDbEntity
  8
1
  6
CONTINUOUS
 62
     5
100
AcDb2dPolyline
 66
     1
 10
0.0
 20
0.0
 30
0.0
  0
VERTEX
  5
BC
100
AcDbEntity
  8
1
  6
CONTINUOUS
 62
     5
100
AcDbVertex
100
AcDb2dVertex
 10
126.010817
 20
329.0126
 30
0.0
 42
-0.300111
  0
VERTEX
  5
BD
100
AcDbEntity
  8
1
  6
CONTINUOUS
 62
     5
100
AcDbVertex
100
AcDb2dVertex
 10
134.51425
 20
336.8717
 30
0.0
  0
VERTEX
  5
BE
100
AcDbEntity
  8
1
  6
CONTINUOUS
 62
     5
100
AcDbVertex
100
AcDb2dVertex
 10
130.5321
 20
336.8906
 30
0.0
  0
VERTEX
  5
BF
100
AcDbEntity
  8
1
  6
CONTINUOUS
 62
     5
100
AcDbVertex
100
AcDb2dVertex
 10
141.7821
 20
336.8906
 30
0.0
  0
VERTEX
  5
C0
100
AcDbEntity
  8
1
  6
CONTINUOUS
 62
     5
100
AcDbVertex
100
AcDb2dVertex
 10
141.7821
 20
335.0146
 30
0.0
  0
VERTEX
  5
C1
100
AcDbEntity
  8
1
  6
CONTINUOUS
 62
     5
100
AcDbVertex
100
AcDb2dVertex
 10
141.7821
 20
341.134
 30
0.0
  0
VERTEX
  5
C2
100
AcDbEntity
  8
1
  6
CONTINUOUS
 62
     5
100
AcDbVertex
100
AcDb2dVertex
 10
141.7821
 20
335.0146
 30
0.0
  0
VERTEX
  5
C3
100
AcDbEntity
  8
1
  6
CONTINUOUS
 62
     5
100
AcDbVertex
100
AcDb2dVertex
 10
142.0323
 20
335.2474
 30
0.0
  0
VERTEX
  5
C4
100
AcDbEntity
  8
1
  6
CONTINUOUS
 62
     5
100
AcDbVertex
100
AcDb2dVertex
 10
137.22085
 20
335.24735
 30
0.0
 42
0.256175
  0
VERTEX
  5
C5
100
AcDbEntity
  8
1
  6
CONTINUOUS
 62
     5
100
AcDbVertex
100
AcDb2dVertex
 10
129.26147
 20
329.0126
 30
0.0
  0
VERTEX
  5
C6
100
AcDbEntity
  8
1
  6
CONTINUOUS
 62
     5
100
AcDbVertex
100
AcDb2dVertex
 10
121.0821
 20
329.0126
 30
0.0
  0
VERTEX
  5
C7
100
AcDbEntity
  8
1
  6
CONTINUOUS
 62
     5
100
AcDbVertex
100
AcDb2dVertex
 10
141.7821
 20
329.0126
 30
0.0
  0
VERTEX
  5
C8
100
AcDbEntity
  8
1
  6
CONTINUOUS
 62
     5
100
AcDbVertex
100
AcDb2dVertex
 10
126.0108
 20
329.0126
 30
0.0
  0
SEQEND
  5
C9
100
AcDbEntity
  8
1
  6
CONTINUOUS
 62
     5
  0
POLYLINE
  5
CA
100
AcDbEntity
  8
1
  6
CONTINUOUS
 62
     5
100
AcDb2dPolyline
 66
     1
 10
0.0
 20
0.0
 30
0.0
  0
VERTEX
  5
CB
100
AcDbEntity
  8
1
  6
CONTINUOUS
 62
     5
100
AcDbVertex
100
AcDb2dVertex
 10
125.613
 20
298.9087
 30
0.0
  0
VERTEX
  5
CC
100
AcDbEntity
  8
1
  6
CONTINUOUS
 62
     5
100
AcDbVertex
100
AcDb2dVertex
 10
127.809055
 20
309.302508
 30
0.0
 42
-0.375523
  0
VERTEX
  5
CD
100
AcDbEntity
  8
1
  6
CONTINUOUS
 62
     5
100
AcDbVertex
100
AcDb2dVertex
 10
134.99545
 20
313.76915
 30
0.0
  0
VERTEX
  5
CE
100
AcDbEntity
  8
1
  6
CONTINUOUS
 62
     5
100
AcDbVertex
100
AcDb2dVertex
 10
140.9473
 20
313.7725
 30
0.0
  0
VERTEX
  5
CF
100
AcDbEntity
  8
1
  6
CONTINUOUS
 62
     5
100
AcDbVertex
100
AcDb2dVertex
 10
118.4401
 20
313.7725
 30
0.0
  0
VERTEX
  5
D0
100
AcDbEntity
  8
1
  6
CONTINUOUS
 62
     5
100
AcDbVertex
100
AcDb2dVertex
 10
140.9473
 20
313.7725
 30
0.0
  0
VERTEX
  5
D1
100
AcDbEntity
  8
1
  6
CONTINUOUS
 62
     5
100
AcDbVertex
100
AcDb2dVertex
 10
140.9473
 20
311.6608
 30
0.0
  0
VERTEX
  5
D2
100
AcDbEntity
  8
1
  6
CONTINUOUS
 62
     5
100
AcDbVertex
100
AcDb2dVertex
 10
140.9473
 20
317.7802
 30
0.0
  0
VERTEX
  5
D3
100
AcDbEntity
  8
1
  6
CONTINUOUS
 62
     5
100
AcDbVertex
100
AcDb2dVertex
 10
140.9473
 20
311.6608
 30
0.0
  0
VERTEX
  5
D4
100
AcDbEntity
  8
1
  6
CONTINUOUS
 62
     5
100
AcDbVertex
100
AcDb2dVertex
 10
140.8294
 20
312.0244
 30
0.0
  0
VERTEX
  5
D5
100
AcDbEntity
  8
1
  6
CONTINUOUS
 62
     5
100
AcDbVertex
100
AcDb2dVertex
 10
134.568161
 20
311.997235
 30
0.0
 42
0.27889
  0
VERTEX
  5
D6
100
AcDbEntity
  8
1
  6
CONTINUOUS
 62
     5
100
AcDbVertex
100
AcDb2dVertex
 10
129.6135
 20
307.5577
 30
0.0
  0
VERTEX
  5
D7
100
AcDbEntity
  8
1
  6
CONTINUOUS
 62
     5
100
AcDbVertex
100
AcDb2dVertex
 10
127.9731
 20
299.006
 30
0.0
  0
VERTEX
  5
D8
100
AcDbEntity
  8
1
  6
CONTINUOUS
 62
     5
100
AcDbVertex
100
AcDb2dVertex
 10
125.613
 20
298.9087
 30
0.0
  0
SEQEND
  5
D9
100
AcDbEntity
  8
1
  6
CONTINUOUS
 62
     5
  0
ARC
  5
DA
100
AcDbEntity
  8
1
  6
CONTINUOUS
 62
     5
100
AcDbCircle
 10
135.760883
 20
305.681438
 30
0.0
 40
6.427432
210
0.0
220
0.0
230
1.0
100
AcDbArc
 50
100.694214
 51
163.027303
  0
LINE
  5
DB
100
AcDbEntity
  8
1
  6
CONTINUOUS
 62
     5
100
AcDbLine
 10
133.3959
 20
311.6579
 30
0.0
 11
141.7906
 21
311.6944
 31
0.0
  0
LINE
  5
DC
100
AcDbEntity
  8
1
  6
CONTINUOUS
 62
     5
100
AcDbLine
 10
140.9473
 20
314.1532
 30
0.0
 11
140.9473
 21
314.3753
 31
0.0
  0
LINE
  5
DD
100
AcDbEntity
  8
1
  6
CONTINUOUS
 62
     5
100
AcDbLine
 10
141.7893
 20
313.5919
 30
0.0
 11
119.2821
 21
313.5919
 31
0.0
  0
LINE
  5
DE
100
AcDbEntity
  8
1
  6
CONTINUOUS
 62
     5
100
AcDbLine
 10
141.7893
 20
313.5919
 30
0.0
 11
119.2821
 21
313.5919
 31
0.0
  0
LINE
  5
DF
100
AcDbEntity
  8
1
  6
CONTINUOUS
 62
     5
100
AcDbLine
 10
141.7893
 20
317.5996
 30
0.0
 11
141.7893
 21
311.4802
 31
0.0
  0
ARC
  5
E0
100
AcDbEntity
  8
1
  6
CONTINUOUS
 62
     5
100
AcDbCircle
 10
135.760883
 20
305.681438
 30
0.0
 40
6.427432
210
0.0
220
0.0
230
1.0
100
AcDbArc
 50
100.694214
 51
163.027303
  0
LINE
  5
E1
100
AcDbEntity
  8
1
  6
CONTINUOUS
 62
     5
100
AcDbLine
 10
134.5681
 20
311.9972
 30
0.0
 11
140.8294
 21
312.0244
 31
0.0
  0
LINE
  5
E2
100
AcDbEntity
  8
1
  6
CONTINUOUS
 62
     5
100
AcDbLine
 10
134.5681
 20
311.9972
 30
0.0
 11
140.8294
 21
312.0244
 31
0.0
  0
LINE
  5
E3
100
AcDbEntity
  8
1
  6
CONTINUOUS
 62
     5
100
AcDbLine
 10
140.9473
 20
311.6608
 30
0.0
 11
140.9473
 21
313.5919
 31
0.0
  0
LINE
  5
E4
100
AcDbEntity
  8
1
  6
CONTINUOUS
 62
     5
100
AcDbLine
 10
141.7893
 20
313.5919
 30
0.0
 11
119.2821
 21
313.5919
 31
0.0
  0
LINE
  5
E5
100
AcDbEntity
  8
1
  6
CONTINUOUS
 62
     5
100
AcDbLine
 10
133.3956
 20
311.7233
 30
0.0
 11
141.7903
 21
311.7598
 31
0.0
  0
LINE
  5
E6
100
AcDbEntity
  8
1
  6
CONTINUOUS
 62
     5
100
AcDbLine
 10
133.3954
 20
311.7404
 30
0.0
 11
141.7902
 21
311.7769
 31
0.0
  0
LINE
  5
E7
100
AcDbEntity
  8
1
  6
CONTINUOUS
 62
     5
100
AcDbLine
 10
133.3953
 20
311.7917
 30
0.0
 11
141.79
 21
311.8282
 31
0.0
  0
LINE
  5
E8
100
AcDbEntity
  8
1
  6
CONTINUOUS
 62
     5
100
AcDbLine
 10
133.395
 20
311.843
 30
0.0
 11
141.7897
 21
311.8795
 31
0.0
  0
LINE
  5
E9
100
AcDbEntity
  8
1
  6
CONTINUOUS
 62
     5
100
AcDbLine
 10
133.395
 20
311.8601
 30
0.0
 11
141.7897
 21
311.8966
 31
0.0
  0
LINE
  5
EA
100
AcDbEntity
  8
1
  6
CONTINUOUS
 62
     5
100
AcDbLine
 10
133.3948
 20
311.8942
 30
0.0
 11
141.7896
 21
311.9306
 31
0.0
  0
LINE
  5
EB
100
AcDbEntity
  8
1
  6
CONTINUOUS
 62
     5
100
AcDbLine
 10
133.3945
 20
311.9455
 30
0.0
 11
141.7893
 21
311.9819
 31
0.0
  0
LINE
  5
EC
100
AcDbEntity
  8
1
  6
CONTINUOUS
 62
     5
100
AcDbLine
 10
133.3944
 20
311.9797
 30
0.0
 11
141.7891
 21
312.0161
 31
0.0
  0
LINE
  5
ED
100
AcDbEntity
  8
1
  6
CONTINUOUS
 62
     5
100
AcDbLine
 10
133.3944
 20
311.9968
 30
0.0
 11
141.7891
 21
312.0332
 31
0.0
  0
LINE
  5
EE
100
AcDbEntity
  8
1
  6
CONTINUOUS
 62
     5
100
AcDbLine
 10
133.3936
 20
312.1675
 30
0.0
 11
141.7884
 21
312.2039
 31
0.0
  0
LINE
  5
EF
100
AcDbEntity
  8
1
  6
CONTINUOUS
 62
     5
100
AcDbLine
 10
133.3935
 20
312.2017
 30
0.0
 11
141.7882
 21
312.2381
 31
0.0
  0
LINE
  5
F0
100
AcDbEntity
  8
1
  6
CONTINUOUS
 62
     5
100
AcDbLine
 10
133.393
 20
312.287
 30
0.0
 11
141.7878
 21
312.3235
 31
0.0
  0
LINE
  5
F1
100
AcDbEntity
  8
1
  6
CONTINUOUS
 62
     5
100
AcDbLine
 10
133.3926
 20
312.3895
 30
0.0
 11
141.7873
 21
312.4259
 31
0.0
  0
LINE
  5
F2
100
AcDbEntity
  8
1
  6
CONTINUOUS
 62
     5
100
AcDbLine
 10
133.3923
 20
312.4577
 30
0.0
 11
141.787
 21
312.4942
 31
0.0
  0
LINE
  5
F3
100
AcDbEntity
  8
1
  6
CONTINUOUS
 62
     5
100
AcDbLine
 10
133.3918
 20
312.5773
 30
0.0
 11
141.7866
 21
312.6137
 31
0.0
  0
LINE
  5
F4
100
AcDbEntity
  8
1
  6
CONTINUOUS
 62
     5
100
AcDbLine
 10
133.3915
 20
312.6284
 30
0.0
 11
141.7863
 21
312.6649
 31
0.0
  0
LINE
  5
F5
100
AcDbEntity
  8
1
  6
CONTINUOUS
 62
     5
100
AcDbLine
 10
133.3911
 20
312.748
 30
0.0
 11
141.7858
 21
312.7844
 31
0.0
  0
LINE
  5
F6
100
AcDbEntity
  8
1
  6
CONTINUOUS
 62
     5
100
AcDbLine
 10
133.3906
 20
312.8504
 30
0.0
 11
141.7854
 21
312.8869
 31
0.0
  0
LINE
  5
F7
100
AcDbEntity
  8
1
  6
CONTINUOUS
 62
     5
100
AcDbLine
 10
133.3903
 20
312.9187
 30
0.0
 11
141.7851
 21
312.9551
 31
0.0
  0
LINE
  5
F8
100
AcDbEntity
  8
1
  6
CONTINUOUS
 62
     5
100
AcDbLine
 10
133.3894
 20
313.1408
 30
0.0
 11
141.7842
 21
313.1773
 31
0.0
  0
LINE
  5
F9
100
AcDbEntity
  8
1
  6
CONTINUOUS
 62
     5
100
AcDbLine
 10
133.3887
 20
313.2946
 30
0.0
 11
141.7834
 21
313.331
 31
0.0
  0
LINE
  5
FA
100
AcDbEntity
  8
1
  6
CONTINUOUS
 62
     5
100
AcDbLine
 10
133.3882
 20
313.4141
 30
0.0
 11
141.783
 21
313.4506
 31
0.0
  0
LINE
  5
FB
100
AcDbEntity
  8
1
  6
CONTINUOUS
 62
     5
100
AcDbLine
 10
133.3879
 20
313.4825
 30
0.0
 11
141.7827
 21
313.519
 31
0.0
  0
LINE
  5
FC
100
AcDbEntity
  8
1
  6
CONTINUOUS
 62
     5
100
AcDbLine
 10
133.3879
 20
313.4825
 30
0.0
 11
141.7827
 21
313.519
 31
0.0
  0
LINE
  5
FD
100
AcDbEntity
  8
1
  6
CONTINUOUS
 62
     5
100
AcDbLine
 10
133.3885
 20
313.3288
 30
0.0
 11
141.7833
 21
313.3652
 31
0.0
  0
LINE
  5
FE
100
AcDbEntity
  8
1
  6
CONTINUOUS
 62
     5
100
AcDbLine
 10
133.3897
 20
313.0556
 30
0.0
 11
141.7845
 21
313.0921
 31
0.0
  0
LINE
  5
FF
100
AcDbEntity
  8
1
  6
CONTINUOUS
 62
     5
100
AcDbLine
 10
133.3903
 20
312.9019
 30
0.0
 11
141.7851
 21
312.9383
 31
0.0
  0
LINE
  5
100
100
AcDbEntity
  8
1
  6
CONTINUOUS
 62
     5
100
AcDbLine
 10
133.3911
 20
312.748
 30
0.0
 11
141.7858
 21
312.7844
 31
0.0
  0
LINE
  5
101
100
AcDbEntity
  8
1
  6
CONTINUOUS
 62
     5
100
AcDbLine
 10
133.3918
 20
312.5773
 30
0.0
 11
141.7866
 21
312.6137
 31
0.0
  0
LINE
  5
102
100
AcDbEntity
  8
1
  6
CONTINUOUS
 62
     5
100
AcDbLine
 10
133.3923
 20
312.4748
 30
0.0
 11
141.787
 21
312.5113
 31
0.0
  0
LINE
  5
103
100
AcDbEntity
  8
1
  6
CONTINUOUS
 62
     5
100
AcDbLine
 10
133.3929
 20
312.3209
 30
0.0
 11
141.7876
 21
312.3574
 31
0.0
  0
LINE
  5
104
100
AcDbEntity
  8
1
  6
CONTINUOUS
 62
     5
100
AcDbLine
 10
133.3935
 20
312.2012
 30
0.0
 11
141.7882
 21
312.2377
 31
0.0
  0
LINE
  5
105
100
AcDbEntity
  8
1
  6
CONTINUOUS
 62
     5
100
AcDbLine
 10
133.3938
 20
312.1328
 30
0.0
 11
141.7885
 21
312.1693
 31
0.0
  0
LINE
  5
106
100
AcDbEntity
  8
1
  6
CONTINUOUS
 62
     5
100
AcDbLine
 10
133.3942
 20
312.0133
 30
0.0
 11
141.789
 21
312.0497
 31
0.0
  0
LINE
  5
107
100
AcDbEntity
  8
1
  6
CONTINUOUS
 62
     5
100
AcDbLine
 10
133.3945
 20
311.9618
 30
0.0
 11
141.7893
 21
311.9983
 31
0.0
  0
LINE
  5
108
100
AcDbEntity
  8
1
  6
CONTINUOUS
 62
     5
100
AcDbLine
 10
133.3942
 20
312.0301
 30
0.0
 11
141.789
 21
312.0665
 31
0.0
  0
LINE
  5
109
100
AcDbEntity
  8
1
  6
CONTINUOUS
 62
     5
100
AcDbLine
 10
133.3939
 20
312.0812
 30
0.0
 11
141.7887
 21
312.1177
 31
0.0
  0
LINE
  5
10A
100
AcDbEntity
  8
1
  6
CONTINUOUS
 62
     5
100
AcDbLine
 10
133.3936
 20
312.1669
 30
0.0
 11
141.7884
 21
312.2033
 31
0.0
  0
LINE
  5
10B
100
AcDbEntity
  8
1
  6
CONTINUOUS
 62
     5
100
AcDbLine
 10
133.3929
 20
312.3377
 30
0.0
 11
141.7876
 21
312.3742
 31
0.0
  0
LINE
  5
10C
100
AcDbEntity
  8
1
  6
CONTINUOUS
 62
     5
100
AcDbLine
 10
133.3923
 20
312.4745
 30
0.0
 11
141.787
 21
312.511
 31
0.0
  0
LINE
  5
10D
100
AcDbEntity
  8
1
  6
CONTINUOUS
 62
     5
100
AcDbLine
 10
133.392
 20
312.5426
 30
0.0
 11
141.7867
 21
312.5791
 31
0.0
  0
LINE
  5
10E
100
AcDbEntity
  8
1
  6
CONTINUOUS
 62
     5
100
AcDbLine
 10
133.3915
 20
312.6451
 30
0.0
 11
141.7863
 21
312.6815
 31
0.0
  0
LINE
  5
10F
100
AcDbEntity
  8
1
  6
CONTINUOUS
 62
     5
100
AcDbLine
 10
133.3912
 20
312.6964
 30
0.0
 11
141.786
 21
312.7328
 31
0.0
  0
LINE
  5
110
100
AcDbEntity
  8
1
  6
CONTINUOUS
 62
     5
100
AcDbLine
 10
133.3909
 20
312.7646
 30
0.0
 11
141.7857
 21
312.8011
 31
0.0
  0
LINE
  5
111
100
AcDbEntity
  8
1
  6
CONTINUOUS
 62
     5
100
AcDbLine
 10
133.3903
 20
312.9355
 30
0.0
 11
141.7851
 21
312.9719
 31
0.0
  0
LINE
  5
112
100
AcDbEntity
  8
1
  6
CONTINUOUS
 62
     5
100
AcDbLine
 10
133.3894
 20
313.1407
 30
0.0
 11
141.7842
 21
313.1771
 31
0.0
  0
LINE
  5
113
100
AcDbEntity
  8
1
  6
CONTINUOUS
 62
     5
100
AcDbLine
 10
133.3893
 20
313.1749
 30
0.0
 11
141.784
 21
313.2113
 31
0.0
  0
LINE
  5
114
100
AcDbEntity
  8
1
  6
CONTINUOUS
 62
     5
100
AcDbLine
 10
133.389
 20
313.2433
 30
0.0
 11
141.7837
 21
313.2797
 31
0.0
  0
LINE
  5
115
100
AcDbEntity
  8
1
  6
CONTINUOUS
 62
     5
100
AcDbLine
 10
133.3885
 20
313.3288
 30
0.0
 11
141.7833
 21
313.3652
 31
0.0
  0
LINE
  5
116
100
AcDbEntity
  8
1
  6
CONTINUOUS
 62
     5
100
AcDbLine
 10
133.3885
 20
313.3459
 30
0.0
 11
141.7833
 21
313.3823
 31
0.0
  0
LINE
  5
117
100
AcDbEntity
  8
1
  6
CONTINUOUS
 62
     5
100
AcDbLine
 10
133.3909
 20
312.782
 30
0.0
 11
141.7857
 21
312.8185
 31
0.0
  0
LINE
  5
118
100
AcDbEntity
  8
1
  6
CONTINUOUS
 62
     5
100
AcDbLine
 10
133.3911
 20
312.7478
 30
0.0
 11
141.7858
 21
312.7843
 31
0.0
  0
LINE
  5
119
100
AcDbEntity
  8
1
  6
CONTINUOUS
 62
     5
100
AcDbLine
 10
133.3903
 20
312.9358
 30
0.0
 11
141.7851
 21
312.9722
 31
0.0
  0
LINE
  5
11A
100
AcDbEntity
  8
1
  6
CONTINUOUS
 62
     5
100
AcDbLine
 10
133.39
 20
312.9871
 30
0.0
 11
141.7848
 21
313.0235
 31
0.0
  0
LINE
  5
11B
100
AcDbEntity
  8
1
  6
CONTINUOUS
 62
     5
100
AcDbLine
 10
133.3888
 20
313.2779
 30
0.0
 11
141.7836
 21
313.3144
 31
0.0
  0
LINE
  5
11C
100
AcDbEntity
  8
1
  6
CONTINUOUS
 62
     5
100
AcDbLine
 10
133.3885
 20
313.3465
 30
0.0
 11
141.7833
 21
313.3829
 31
0.0
  0
LINE
  5
11D
100
AcDbEntity
  8
1
  6
CONTINUOUS
 62
     5
100
AcDbLine
 10
97.3831
 20
301.5383
 30
0.0
 11
118.7301
 21
314.5009
 31
0.0
  0
LINE
  5
11E
100
AcDbEntity
  8
1
  6
CONTINUOUS
 62
     5
100
AcDbLine
 10
97.1374
 20
301.9429
 30
0.0
 11
118.4844
 21
314.9054
 31
0.0
  0
LINE
  5
11F
100
AcDbEntity
  8
1
  6
CONTINUOUS
 62
     5
100
AcDbLine
 10
97.0452
 20
302.0947
 30
0.0
 11
118.3921
 21
315.0572
 31
0.0
  0
LINE
  5
120
100
AcDbEntity
  8
1
  6
CONTINUOUS
 62
     5
100
AcDbLine
 10
97.0935
 20
302.0152
 30
0.0
 11
118.4404
 21
314.9777
 31
0.0
  0
ARC
  5
121
100
AcDbEntity
  8
1
  6
CONTINUOUS
 62
     5
100
AcDbCircle
 10
122.635464
 20
293.356782
 30
0.0
 40
20.511055
210
0.0
220
0.0
230
1.0
100
AcDbArc
 50
99.409697
 51
120.649944
  0
LINE
  5
122
100
AcDbEntity
  8
1
  6
CONTINUOUS
 62
     5
100
AcDbLine
 10
97.9351
 20
300.6293
 30
0.0
 11
112.393
 21
310.5368
 31
0.0
  0
LINE
  5
123
100
AcDbEntity
  8
1
  6
CONTINUOUS
 62
     5
100
AcDbLine
 10
99.3043
 20
300.1315
 30
0.0
 11
113.7019
 21
311.2795
 31
0.0
  0
LINE
  5
124
100
AcDbEntity
  8
1
  6
CONTINUOUS
 62
     5
100
AcDbLine
 10
99.1848
 20
300.2857
 30
0.0
 11
113.5824
 21
311.4337
 31
0.0
  0
LINE
  5
125
100
AcDbEntity
  8
1
  6
CONTINUOUS
 62
     5
100
AcDbLine
 10
98.9653
 20
300.5692
 30
0.0
 11
113.3629
 21
311.7172
 31
0.0
  0
LINE
  5
126
100
AcDbEntity
  8
1
  6
CONTINUOUS
 62
     5
100
AcDbLine
 10
98.9653
 20
300.5692
 30
0.0
 11
113.3629
 21
311.7172
 31
0.0
  0
LINE
  5
127
100
AcDbEntity
  8
1
  6
CONTINUOUS
 62
     5
100
AcDbLine
 10
98.8983
 20
300.6557
 30
0.0
 11
113.2959
 21
311.8037
 31
0.0
  0
LINE
  5
128
100
AcDbEntity
  8
1
  6
CONTINUOUS
 62
     5
100
AcDbLine
 10
98.8648
 20
300.6989
 30
0.0
 11
113.2624
 21
311.8469
 31
0.0
  0
LINE
  5
129
100
AcDbEntity
  8
1
  6
CONTINUOUS
 62
     5
100
AcDbLine
 10
98.6713
 20
300.9488
 30
0.0
 11
113.0689
 21
312.0968
 31
0.0
  0
LINE
  5
12A
100
AcDbEntity
  8
1
  6
CONTINUOUS
 62
     5
100
AcDbLine
 10
98.5524
 20
301.1024
 30
0.0
 11
112.95
 21
312.2504
 31
0.0
  0
LINE
  5
12B
100
AcDbEntity
  8
1
  6
CONTINUOUS
 62
     5
100
AcDbLine
 10
99.2032
 20
300.2618
 30
0.0
 11
113.6008
 21
311.4098
 31
0.0
  0
LINE
  5
12C
100
AcDbEntity
  8
1
  6
CONTINUOUS
 62
     5
100
AcDbLine
 10
99.1621
 20
300.3149
 30
0.0
 11
113.5597
 21
311.4629
 31
0.0
  0
LINE
  5
12D
100
AcDbEntity
  8
1
  6
CONTINUOUS
 62
     5
100
AcDbLine
 10
99.0951
 20
300.4015
 30
0.0
 11
113.4927
 21
311.5495
 31
0.0
  0
LINE
  5
12E
100
AcDbEntity
  8
1
  6
CONTINUOUS
 62
     5
100
AcDbLine
 10
99.0616
 20
300.4448
 30
0.0
 11
113.4592
 21
311.5928
 31
0.0
  0
LINE
  5
12F
100
AcDbEntity
  8
1
  6
CONTINUOUS
 62
     5
100
AcDbLine
 10
98.8756
 20
300.685
 30
0.0
 11
113.2732
 21
311.833
 31
0.0
  0
LINE
  5
130
100
AcDbEntity
  8
1
  6
CONTINUOUS
 62
     5
100
AcDbLine
 10
98.7232
 20
300.8818
 30
0.0
 11
113.1208
 21
312.0298
 31
0.0
  0
LINE
  5
131
100
AcDbEntity
  8
1
  6
CONTINUOUS
 62
     5
100
AcDbLine
 10
98.7232
 20
300.8818
 30
0.0
 11
113.1208
 21
312.0298
 31
0.0
  0
LINE
  5
132
100
AcDbEntity
  8
1
  6
CONTINUOUS
 62
     5
100
AcDbLine
 10
98.4702
 20
301.2086
 30
0.0
 11
112.8678
 21
312.3566
 31
0.0
  0
LINE
  5
133
100
AcDbEntity
  8
1
  6
CONTINUOUS
 62
     5
100
AcDbLine
 10
98.7124
 20
300.8959
 30
0.0
 11
113.11
 21
312.0439
 31
0.0
  0
LINE
  5
134
100
AcDbEntity
  8
1
  6
CONTINUOUS
 62
     5
100
AcDbLine
 10
100.0896
 20
308.7979
 30
0.0
 11
105.6748
 21
309.749
 31
0.0
  0
LINE
  5
135
100
AcDbEntity
  8
1
  6
CONTINUOUS
 62
     5
100
AcDbLine
 10
103.4524
 20
313.0223
 30
0.0
 11
109.0377
 21
313.9733
 31
0.0
  0
LINE
  5
136
100
AcDbEntity
  8
1
  6
CONTINUOUS
 62
     5
100
AcDbLine
 10
106.8151
 20
317.2468
 30
0.0
 11
112.4004
 21
318.1978
 31
0.0
  0
LINE
  5
137
100
AcDbEntity
  8
1
  6
CONTINUOUS
 62
     5
100
AcDbLine
 10
110.178
 20
321.4712
 30
0.0
 11
115.7632
 21
322.4222
 31
0.0
  0
LINE
  5
138
100
AcDbEntity
  8
1
  6
CONTINUOUS
 62
     5
100
AcDbLine
 10
116.709
 20
323.5531
 30
0.0
 11
114.0429
 21
325.9151
 31
0.0
  0
LINE
  5
139
100
AcDbEntity
  8
1
  6
CONTINUOUS
 62
     5
100
AcDbLine
 10
120.0214
 20
325.4278
 30
0.0
 11
117.0718
 21
328.0411
 31
0.0
  0
LINE
  5
13A
100
AcDbEntity
  8
1
  6
CONTINUOUS
 62
     5
100
AcDbLine
 10
124.9474
 20
325.8733
 30
0.0
 11
121.3878
 21
329.0269
 31
0.0
  0
LINE
  5
13B
100
AcDbEntity
  8
1
  6
CONTINUOUS
 62
     5
100
AcDbLine
 10
130.3762
 20
325.8733
 30
0.0
 11
126.8326
 21
329.0126
 31
0.0
  0
LINE
  5
13C
100
AcDbEntity
  8
1
  6
CONTINUOUS
 62
     5
100
AcDbLine
 10
135.805
 20
325.8733
 30
0.0
 11
132.2614
 21
329.0126
 31
0.0
  0
LINE
  5
13D
100
AcDbEntity
  8
1
  6
CONTINUOUS
 62
     5
100
AcDbLine
 10
141.2338
 20
325.8733
 30
0.0
 11
137.6902
 21
329.0126
 31
0.0
  0
LINE
  5
13E
100
AcDbEntity
  8
1
  6
CONTINUOUS
 62
     5
100
AcDbLine
 10
134.4964
 20
336.6517
 30
0.0
 11
130.9368
 21
339.8053
 31
0.0
  0
LINE
  5
13F
100
AcDbEntity
  8
1
  6
CONTINUOUS
 62
     5
100
AcDbLine
 10
149.7342
 20
325.8733
 30
0.0
 11
153.2778
 21
329.0126
 31
0.0
  0
LINE
  5
140
100
AcDbEntity
  8
1
  6
CONTINUOUS
 62
     5
100
AcDbLine
 10
154.8511
 20
325.597
 30
0.0
 11
157.8583
 21
328.2611
 31
0.0
  0
LINE
  5
141
100
AcDbEntity
  8
1
  6
CONTINUOUS
 62
     5
100
AcDbLine
 10
158.3413
 20
323.8795
 30
0.0
 11
161.1286
 21
326.3488
 31
0.0
  0
LINE
  5
142
100
AcDbEntity
  8
1
  6
CONTINUOUS
 62
     5
100
AcDbLine
 10
171.9318
 20
309.5657
 30
0.0
 11
168.261
 21
310.1909
 31
0.0
  0
LINE
  5
143
100
AcDbEntity
  8
1
  6
CONTINUOUS
 62
     5
100
AcDbLine
 10
169.4883
 20
313.6337
 30
0.0
 11
165.4033
 21
314.3294
 31
0.0
  0
LINE
  5
144
100
AcDbEntity
  8
1
  6
CONTINUOUS
 62
     5
100
AcDbLine
 10
167.0448
 20
317.7017
 30
0.0
 11
162.5457
 21
318.4679
 31
0.0
  0
LINE
  5
145
100
AcDbEntity
  8
1
  6
CONTINUOUS
 62
     5
100
AcDbLine
 10
164.6013
 20
321.7696
 30
0.0
 11
159.688
 21
322.6064
 31
0.0
  0
LINE
  5
146
100
AcDbEntity
  8
1
  6
CONTINUOUS
 62
     5
100
AcDbLine
 10
141.8002
 20
325.8733
 30
0.0
 11
139.4634
 21
323.803
 31
0.0
  0
LINE
  5
147
100
AcDbEntity
  8
1
  6
CONTINUOUS
 62
     5
100
AcDbLine
 10
137.3382
 20
325.8733
 30
0.0
 11
135.0013
 21
323.803
 31
0.0
  0
LINE
  5
148
100
AcDbEntity
  8
1
  6
CONTINUOUS
 62
     5
100
AcDbLine
 10
134.2111
 20
323.6464
 30
0.0
 11
132.58
 21
325.0915
 31
0.0
  0
LINE
  5
149
100
AcDbEntity
  8
1
  6
CONTINUOUS
 62
     5
100
AcDbLine
 10
132.0198
 20
320.7781
 30
0.0
 11
130.2633
 21
322.3343
 31
0.0
  0
LINE
  5
14A
100
AcDbEntity
  8
1
  6
CONTINUOUS
 62
     5
100
AcDbLine
 10
131.1091
 20
316.7753
 30
0.0
 11
129.4189
 21
318.2728
 31
0.0
  0
LINE
  5
14B
100
AcDbEntity
  8
1
  6
CONTINUOUS
 62
     5
100
AcDbLine
 10
129.2161
 20
311.7668
 30
0.0
 11
128.3527
 21
312.5317
 31
0.0
  0
LINE
  5
14C
100
AcDbEntity
  8
1
  6
CONTINUOUS
 62
     5
100
AcDbLine
 10
257.116
 20
351.0799
 30
0.0
 11
257.116
 21
270.3124
 31
0.0
  0
LINE
  5
14D
100
AcDbEntity
  8
1
  6
CONTINUOUS
 62
     5
100
AcDbLine
 10
335.161
 20
351.0799
 30
0.0
 11
335.161
 21
270.3124
 31
0.0
  0
LINE
  5
14E
100
AcDbEntity
  8
1
  6
CONTINUOUS
 62
     5
100
AcDbLine
 10
257.116
 20
351.0799
 30
0.0
 11
335.161
 21
351.0799
 31
0.0
  0
LINE
  5
14F
100
AcDbEntity
  8
1
  6
CONTINUOUS
 62
     5
100
AcDbLine
 10
257.116
 20
270.3124
 30
0.0
 11
335.161
 21
270.3124
 31
0.0
  0
LINE
  5
150
100
AcDbEntity
  8
1
  6
CONTINUOUS
 62
     5
100
AcDbLine
 10
276.1735
 20
335.6524
 30
0.0
 11
276.1735
 21
285.7399
 31
0.0
  0
LINE
  5
151
100
AcDbEntity
  8
1
  6
CONTINUOUS
 62
     5
100
AcDbLine
 10
316.1035
 20
335.6524
 30
0.0
 11
316.1035
 21
285.7399
 31
0.0
  0
LINE
  5
152
100
AcDbEntity
  8
1
  6
CONTINUOUS
 62
     5
100
AcDbLine
 10
276.1735
 20
335.6524
 30
0.0
 11
316.1035
 21
335.6524
 31
0.0
  0
LINE
  5
153
100
AcDbEntity
  8
1
  6
CONTINUOUS
 62
     5
100
AcDbLine
 10
276.1735
 20
285.7399
 30
0.0
 11
316.1035
 21
285.7399
 31
0.0
  0
LINE
  5
154
100
AcDbEntity
  8
1
  6
CONTINUOUS
 62
     5
100
AcDbLine
 10
283.4335
 20
329.2999
 30
0.0
 11
283.4335
 21
292.0924
 31
0.0
  0
LINE
  5
155
100
AcDbEntity
  8
1
  6
CONTINUOUS
 62
     5
100
AcDbLine
 10
308.8435
 20
329.2999
 30
0.0
 11
308.8435
 21
292.0924
 31
0.0
  0
LINE
  5
156
100
AcDbEntity
  8
1
  6
CONTINUOUS
 62
     5
100
AcDbLine
 10
283.4335
 20
329.2999
 30
0.0
 11
308.8435
 21
329.2999
 31
0.0
  0
LINE
  5
157
100
AcDbEntity
  8
1
  6
CONTINUOUS
 62
     5
100
AcDbLine
 10
283.4335
 20
292.0924
 30
0.0
 11
308.8435
 21
292.0924
 31
0.0
  0
LINE
  5
158
100
AcDbEntity
  8
1
  6
CONTINUOUS
 62
     5
100
AcDbLine
 10
329.716
 20
287.5549
 30
0.0
 11
329.716
 21
273.9424
 31
0.0
  0
LINE
  5
159
100
AcDbEntity
  8
1
  6
CONTINUOUS
 62
     5
100
AcDbLine
 10
326.9935
 20
287.5549
 30
0.0
 11
326.9935
 21
273.9424
 31
0.0
  0
LINE
  5
15A
100
AcDbEntity
  8
1
  6
CONTINUOUS
 62
     5
100
AcDbLine
 10
326.9935
 20
287.5549
 30
0.0
 11
329.716
 21
287.5549
 31
0.0
  0
LINE
  5
15B
100
AcDbEntity
  8
1
  6
CONTINUOUS
 62
     5
100
AcDbLine
 10
326.9935
 20
273.9424
 30
0.0
 11
329.716
 21
273.9424
 31
0.0
  0
LINE
  5
15C
100
AcDbEntity
  8
1
  6
CONTINUOUS
 62
     5
100
AcDbLine
 10
86.8821
 20
281.9906
 30
0.0
 11
184.9821
 21
281.9906
 31
0.0
  0
SPLINE
  5
15D
100
AcDbEntity
  8
1
  6
CONTINUOUS
 62
     5
100
AcDbSpline
210
0.0
220
0.0
230
1.0
 70
     8
 71
     3
 72
   107
 73
   103
 74
     0
 42
0.0
 43
0.0
 12
0.9983707026800872
 22
0.057060844982079
 32
0.0
 13
0.9170309469218277
 23
-0.3988160508149792
 33
0.0
 40
0.0
 40
0.0
 40
0.0
 40
0.0
 40
0.0229255796489788
 40
0.0229255796489788
 40
0.0229255796489788
 40
0.0656110083375589
 40
0.0656110083375589
 40
0.0656110083375589
 40
0.1062153288957798
 40
0.1062153288957798
 40
0.1062153288957798
 40
0.1547822836226653
 40
0.1547822836226653
 40
0.1547822836226653
 40
0.1879059841821539
 40
0.1879059841821539
 40
0.1879059841821539
 40
0.2111069023607579
 40
0.2111069023607579
 40
0.2111069023607579
 40
0.2434729918859581
 40
0.2434729918859581
 40
0.2434729918859581
 40
0.2607412075620146
 40
0.2607412075620146
 40
0.2607412075620146
 40
0.2882392310260841
 40
0.2882392310260841
 40
0.2882392310260841
 40
0.3178993572086964
 40
0.3178993572086964
 40
0.3178993572086964
 40
0.355558110263681
 40
0.355558110263681
 40
0.355558110263681
 40
0.3754153654448505
 40
0.3754153654448505
 40
0.3754153654448505
 40
0.396596207802251
 40
0.396596207802251
 40
0.396596207802251
 40
0.423416270061979
 40
0.423416270061979
 40
0.423416270061979
 40
0.4790973436312941
 40
0.4790973436312941
 40
0.4790973436312941
 40
0.4994646299040149
 40
0.4994646299040149
 40
0.4994646299040149
 40
0.5367917620571042
 40
0.5367917620571042
 40
0.5367917620571042
 40
0.5689420078617257
 40
0.5689420078617257
 40
0.5689420078617257
 40
0.5892244686597654
 40
0.5892244686597654
 40
0.5892244686597654
 40
0.6207909256083641
 40
0.6207909256083641
 40
0.6207909256083641
 40
0.6476036260492387
 40
0.6476036260492387
 40
0.6476036260492387
 40
0.6801835372718882
 40
0.6801835372718882
 40
0.6801835372718882
 40
0.7056879334827012
 40
0.7056879334827012
 40
0.7056879334827012
 40
0.7389995183459179
 40
0.7389995183459179
 40
0.7389995183459179
 40
0.765463117122051
 40
0.765463117122051
 40
0.765463117122051
 40
0.8051890377266479
 40
0.8051890377266479
 40
0.8051890377266479
 40
0.8331339952828828
 40
0.8331339952828828
 40
0.8331339952828828
 40
0.8797445181579224
 40
0.8797445181579224
 40
0.8797445181579224
 40
0.896765462922551
 40
0.896765462922551
 40
0.896765462922551
 40
0.9203151822923178
 40
0.9203151822923178
 40
0.9203151822923178
 40
0.9458609437928993
 40
0.9458609437928993
 40
0.9458609437928993
 40
0.9659267889889144
 40
0.9659267889889144
 40
0.9659267889889144
 40
0.9835978205649184
 40
0.9835978205649184
 40
0.9835978205649184
 40
1.0
 40
1.0
 40
1.0
 40
1.0
 10
87.208800000000011
 20
301.57460000000003
 30
0.0
 10
88.494799999999998
 20
301.6481
 30
0.0
 10
89.780799999999999
 20
301.72160000000002
 30
0.0
 10
91.066800000000001
 20
301.79509999999999
 30
0.0
 10
93.461219776250218
 20
301.93195058596763
 30
0.0
 10
92.803273337822347
 20
306.34645842006489
 30
0.0
 10
92.940600000000003
 20
308.74180000000001
 30
0.0
 10
93.071231364930966
 20
311.02035782046164
 30
0.0
 10
93.106737942764923
 20
313.30301621150295
 30
0.0
 10
93.271300000000011
 20
315.57800000000003
 30
0.0
 10
93.468133190991082
 20
318.29911521979318
 30
0.0
 10
93.683863935928017
 20
321.01863368116761
 30
0.0
 10
93.932700000000011
 20
323.73760000000004
 30
0.0
 10
94.102411511069064
 20
325.59199310911708
 30
0.0
 10
94.371735124352597
 20
327.43316203139955
 30
0.0
 10
94.81450000000001
 20
329.25080000000003
 30
0.0
 10
95.124626932641675
 20
330.52393280447296
 30
0.0
 10
95.828744727981743
 20
331.6638594666033
 30
0.0
 10
96.247500000000002
 20
332.8895
 30
0.0
 10
96.831678200145191
 20
334.59931126368588
 30
0.0
 10
96.934975383770762
 20
336.44902542781978
 30
0.0
 10
97.5702
 20
338.1823
 30
0.0
 10
97.909110132076549
 20
339.10705055149714
 30
0.0
 10
98.50175737826001
 20
339.89874684182166
 30
0.0
 10
99.3339
 20
340.49780000000004
 30
0.0
 10
100.65900954040183
 20
341.45173630174861
 30
0.0
 10
102.03372860144256
 20
342.04401651444425
 30
0.0
 10
103.52250000000001
 20
342.48250000000002
 30
0.0
 10
105.12832987340803
 20
342.95546037577287
 30
0.0
 10
106.79874601998006
 20
343.15404002938692
 30
0.0
 10
108.37260000000001
 20
343.69540000000001
 30
0.0
 10
110.37088476835416
 20
344.38275181103592
 30
0.0
 10
112.32262964984996
 20
345.21133618109559
 30
0.0
 10
114.3249
 20
345.90070000000003
 30
0.0
 10
115.38068623983027
 20
346.26419778349441
 30
0.0
 10
116.4340011334922
 20
346.59745056117458
 30
0.0
 10
117.5215
 20
346.8931
 30
0.0
 10
118.681486203793
 20
347.2084559794485
 30
0.0
 10
119.85976306059261
 20
347.43188331667682
 30
0.0
 10
121.0489
 20
347.4443
 30
0.0
 10
122.55463457901713
 20
347.46002252010425
 30
0.0
 10
124.06355625511304
 20
347.39855991709931
 30
0.0
 10
125.56830000000001
 20
347.33410000000003
 30
0.0
 10
128.69229525215974
 20
347.20027490475906
 30
0.0
 10
131.81728441869896
 20
346.75323845969496
 30
0.0
 10
134.9376
 20
346.78280000000001
 30
0.0
 10
136.0789637818329
 20
346.79361315993862
 30
0.0
 10
137.213414556933
 20
347.04559049944481
 30
0.0
 10
138.35470000000001
 20
347.11360000000002
 30
0.0
 10
140.44633420140158
 20
347.23824103370953
 30
0.0
 10
142.54562253124442
 20
347.30556175008758
 30
0.0
 10
144.6378
 20
347.4443
 30
0.0
 10
146.43981413844261
 20
347.56379669261742
 30
0.0
 10
148.23824682323897
 20
347.74730182090133
 30
0.0
 10
150.03900000000002
 20
347.88550000000004
 30
0.0
 10
151.17503192761131
 20
347.97268437697068
 30
0.0
 10
152.33443844480351
 20
348.21233780421881
 30
0.0
 10
153.45600000000002
 20
347.9957
 30
0.0
 10
155.20153398129756
 20
347.65853736532733
 30
0.0
 10
156.907192693231
 20
347.17417938998608
 30
0.0
 10
158.63670000000002
 20
346.78280000000001
 30
0.0
 10
160.10575182935838
 20
346.45036046269252
 30
0.0
 10
161.57579820512487
 20
346.11889132821238
 30
0.0
 10
163.04590000000002
 20
345.79040000000003
 30
0.0
 10
164.83220966585804
 20
345.39125265062466
 30
0.0
 10
166.65099884968095
 20
345.17131069253196
 30
0.0
 10
168.44710000000001
 20
344.798
 30
0.0
 10
169.85313438294787
 20
344.50576274536172
 30
0.0
 10
171.21059507427191
 20
344.00797928275409
 30
0.0
 10
172.4152
 20
343.14410000000004
 30
0.0
 10
173.98854833094492
 20
342.01577734530269
 30
0.0
 10
175.19108011766667
 20
340.66234098527821
 30
0.0
 10
176.49370000000002
 20
339.28489999999999
 30
0.0
 10
177.52853548037211
 20
338.19062466840347
 30
0.0
 10
178.46961376469295
 20
337.27114048511959
 30
0.0
 10
179.3596
 20
335.86670000000004
 30
0.0
 10
180.69560584040292
 20
333.75841942645758
 30
0.0
 10
181.50393418758594
 20
331.61182638003322
 30
0.0
 10
181.34380000000002
 20
329.47130000000004
 30
0.0
 10
181.23115457838898
 20
327.9655597194058
 30
0.0
 10
180.20728519955671
 20
326.49339770624658
 30
0.0
 10
180.02100000000002
 20
324.95050000000003
 30
0.0
 10
179.71028739513216
 20
322.37703862736657
 30
0.0
 10
179.31143631697933
 20
319.73858159670442
 30
0.0
 10
179.3596
 20
317.12180000000001
 30
0.0
 10
179.37718811825721
 20
316.16621975177986
 30
0.0
 10
179.4590694514238
 20
315.21101533560716
 30
0.0
 10
179.4699
 20
314.25490000000002
 30
0.0
 10
179.48488485443184
 20
312.93204465030931
 30
0.0
 10
179.47616849037496
 20
311.60854291098349
 30
0.0
 10
179.4699
 20
310.28540000000004
 30
0.0
 10
179.46310020092074
 20
308.85010929846567
 30
0.0
 10
179.26773412061266
 20
307.41821717957134
 30
0.0
 10
179.24940000000001
 20
305.98509999999999
 30
0.0
 10
179.23499879978485
 20
304.85940611640319
 30
0.0
 10
179.61317219916606
 20
303.78644920071497
 30
0.0
 10
180.35170000000002
 20
302.78750000000002
 30
0.0
 10
181.00208616419133
 20
301.90777314592441
 30
0.0
 10
181.75602818945291
 20
301.30902318422841
 30
0.0
 10
182.66650000000001
 20
300.91300000000001
 30
0.0
 10
183.51159622106366
 20
300.54541289563497
 30
0.0
 10
184.35668780979944
 20
300.17783863904242
 30
0.0
 10
185.20180000000002
 20
299.81030000000004
 30
0.0
  0
SPLINE
  5
15E
100
AcDbEntity
  8
1
  6
CONTINUOUS
 62
     5
100
AcDbSpline
210
0.0
220
0.0
230
1.0
 70
     8
 71
     3
 72
    68
 73
    64
 74
     0
 42
0.0
 43
0.0
 12
0.9970532574832642
 22
-0.0767124614519162
 32
0.0
 13
0.9061327877504992
 23
-0.422993346240232
 33
0.0
 40
0.0
 40
0.0
 40
0.0
 40
0.0
 40
0.0572131613645056
 40
0.0572131613645056
 40
0.0572131613645056
 40
0.1036139600244583
 40
0.1036139600244583
 40
0.1036139600244583
 40
0.160427857683041
 40
0.160427857683041
 40
0.160427857683041
 40
0.2179890877144894
 40
0.2179890877144894
 40
0.2179890877144894
 40
0.2886165977863904
 40
0.2886165977863904
 40
0.2886165977863904
 40
0.3424046548486968
 40
0.3424046548486968
 40
0.3424046548486968
 40
0.4175187410113196
 40
0.4175187410113196
 40
0.4175187410113196
 40
0.4745738711160406
 40
0.4745738711160406
 40
0.4745738711160406
 40
0.5384379216200358
 40
0.5384379216200358
 40
0.5384379216200358
 40
0.6306469743060839
 40
0.6306469743060839
 40
0.6306469743060839
 40
0.7046692144779286
 40
0.7046692144779286
 40
0.7046692144779286
 40
0.7497678743189695
 40
0.7497678743189695
 40
0.7497678743189695
 40
0.7859859595881663
 40
0.7859859595881663
 40
0.7859859595881663
 40
0.8408809233410873
 40
0.8408809233410873
 40
0.8408809233410873
 40
0.8824100768996763
 40
0.8824100768996763
 40
0.8824100768996763
 40
0.9080228379408265
 40
0.9080228379408265
 40
0.9080228379408265
 40
0.9247722388142606
 40
0.9247722388142606
 40
0.9247722388142606
 40
0.9494274630488593
 40
0.9494274630488593
 40
0.9494274630488593
 40
0.9694475256901626
 40
0.9694475256901626
 40
0.9694475256901626
 40
0.9968939932437542
 40
0.9968939932437542
 40
0.9968939932437542
 40
1.0
 40
1.0
 40
1.0
 40
1.0
 10
87.098500000000001
 20
290.54810000000003
 30
0.0
 10
89.009100000000004
 20
290.40110000000004
 30
0.0
 10
90.919700000000006
 20
290.25409999999999
 30
0.0
 10
92.830300000000008
 20
290.1071
 30
0.0
 10
94.379827482931674
 20
289.98788062389252
 30
0.0
 10
95.921714911327513
 20
289.78328477396144
 30
0.0
 10
97.459900000000005
 20
289.5557
 30
0.0
 10
99.343279009232901
 20
289.27704147622654
 30
0.0
 10
101.19894759927836
 20
288.84082794497004
 30
0.0
 10
103.08160000000001
 20
288.56330000000003
 30
0.0
 10
104.98901688870606
 20
288.28212144089861
 30
0.0
 10
106.90122902317324
 20
288.03467348134865
 30
0.0
 10
108.81360000000001
 20
287.79160000000002
 30
0.0
 10
111.16007522912992
 20
287.49334934165267
 30
0.0
 10
113.52285107209354
 20
287.32668486792244
 30
0.0
 10
115.86810000000001
 20
287.0197
 30
0.0
 10
117.65417999957984
 20
286.78590838570886
 30
0.0
 10
119.37763960478877
 20
286.21990838421658
 30
0.0
 10
121.15900000000001
 20
285.91700000000003
 30
0.0
 10
123.64663880906846
 20
285.49399370986634
 30
0.0
 10
126.14268915556879
 20
285.13496845234533
 30
0.0
 10
128.65470000000002
 20
285.03500000000003
 30
0.0
 10
130.56277227878931
 20
284.95906599951735
 30
0.0
 10
132.48049897848006
 20
285.04125789000432
 30
0.0
 10
134.38650000000001
 20
285.14530000000002
 30
0.0
 10
136.51996188634746
 20
285.26175842459941
 30
0.0
 10
138.64638746692981
 20
285.6286689160616
 30
0.0
 10
140.77979999999999
 20
285.69650000000001
 30
0.0
 10
143.86009238844846
 20
285.79443678827556
 30
0.0
 10
146.96074144049686
 20
285.66223437112279
 30
0.0
 10
150.03900000000002
 20
285.36580000000004
 30
0.0
 10
152.51011956760246
 20
285.127832733498
 30
0.0
 10
154.95436210408911
 20
284.72727894571329
 30
0.0
 10
157.42420000000001
 20
284.48360000000002
 30
0.0
 10
158.92896909198654
 20
284.33513659416911
 30
0.0
 10
160.43403842735805
 20
284.13448890363458
 30
0.0
 10
161.9436
 20
284.15289999999999
 30
0.0
 10
163.15590719382251
 20
284.16768568676792
 30
0.0
 10
164.36863800832509
 20
284.22194613951154
 30
0.0
 10
165.58110000000002
 20
284.26310000000001
 30
0.0
 10
167.41880225814222
 20
284.32547601085247
 30
0.0
 10
169.2554213905243
 20
284.40378320764
 30
0.0
 10
171.0925
 20
284.48360000000002
 30
0.0
 10
172.48228723103821
 20
284.54398302240975
 30
0.0
 10
173.84497167389091
 20
284.73696096116373
 30
0.0
 10
175.17100000000002
 20
285.36580000000004
 30
0.0
 10
175.98881697290108
 20
285.7536312620154
 30
0.0
 10
176.49668166236094
 20
286.45646604541679
 30
0.0
 10
177.04480000000001
 20
287.12990000000002
 30
0.0
 10
177.40324061280421
 20
287.5702904463472
 30
0.0
 10
177.52611127030156
 20
288.11973954170429
 30
0.0
 10
177.92670000000001
 20
288.56330000000003
 30
0.0
 10
178.51636914883704
 20
289.21622380566453
 30
0.0
 10
179.21093648572327
 20
289.85991240003403
 30
0.0
 10
180.02100000000002
 20
289.88659999999999
 30
0.0
 10
180.67877224919727
 20
289.90827035343023
 30
0.0
 10
181.33861998606366
 20
289.61206221335169
 30
0.0
 10
182.0052
 20
289.5557
 30
0.0
 10
182.91904662736428
 20
289.47843032868474
 30
0.0
 10
183.92768642634513
 20
289.83420128787287
 30
0.0
 10
184.76080000000002
 20
289.44550000000004
 30
0.0
 10
184.85508012488091
 20
289.40151223276047
 30
0.0
 10
184.94933514826661
 20
289.35750393143985
 30
0.0
 10
185.0436
 20
289.31350000000003
 30
0.0
  0
LINE
  5
15F
100
AcDbEntity
  8
1
  6
CONTINUOUS
 62
     7
100
AcDbLine
 10
188.6364
 20
296.7951
 30
0.0
 11
194.0944
 21
309.0537
 31
0.0
  0
LINE
  5
160
100
AcDbEntity
  8
1
  6
CONTINUOUS
 62
     7
100
AcDbLine
 10
194.0944
 20
309.0537
 30
0.0
 11
200.1702
 21
309.0537
 31
0.0
  0
LINE
  5
161
100
AcDbEntity
  8
1
  6
CONTINUOUS
 62
     7
100
AcDbLine
 10
81.5375
 20
297.4296
 30
0.0
 11
83.465
 21
324.8104
 31
0.0
  0
LINE
  5
162
100
AcDbEntity
  8
1
  6
CONTINUOUS
 62
     7
100
AcDbLine
 10
129.3989
 20
294.5502
 30
0.0
 11
140.2063
 21
277.026
 31
0.0
  0
LINE
  5
163
100
AcDbEntity
  8
1
  6
CONTINUOUS
 62
     7
100
AcDbLine
 10
140.2063
 20
277.026
 30
0.0
 11
146.7431
 21
277.026
 31
0.0
  0
TEXT
  5
164
100
AcDbEntity
  8
1
  6
CONTINUOUS
 62
     7
100
AcDbText
 10
137.1781
 20
341.0348
 30
0.0
 40
4.5
  1
0
  7
MONOTXT
210
0.0
220
0.0
230
1.0
100
AcDbText
  0
TEXT
  5
165
100
AcDbEntity
  8
1
  6
CONTINUOUS
 62
     7
100
AcDbText
 10
136.0015
 20
317.7565
 30
0.0
 40
4.5
  1
0
  7
MONOTXT
210
0.0
220
0.0
230
1.0
100
AcDbText
  0
TEXT
  5
166
100
AcDbEntity
  8
1
  6
CONTINUOUS
 62
     7
100
AcDbText
 10
136.1322
 20
329.788
 30
0.0
 40
4.5
  1
N
  7
MONOTXT
210
0.0
220
0.0
230
1.0
100
AcDbText
  0
TEXT
  5
167
100
AcDbEntity
  8
1
  6
CONTINUOUS
 62
     7
100
AcDbText
 10
137.4397
 20
341.1661
 30
0.0
 40
4.5
  1
/
  7
MONOTXT
210
0.0
220
0.0
230
1.0
100
AcDbText
  0
TEXT
  5
168
100
AcDbEntity
  8
1
  6
CONTINUOUS
 62
     7
100
AcDbText
 10
136.2631
 20
317.7565
 30
0.0
 40
4.5
  1
/
  7
MONOTXT
210
0.0
220
0.0
230
1.0
100
AcDbText
  0
TEXT
  5
169
100
AcDbEntity
  8
1
  6
CONTINUOUS
 62
     7
100
AcDbText
 10
146.7431
 20
275.7182
 30
0.0
 40
3.0
  1
TO CONTROL CABINET
  7
MONOTXT
210
0.0
220
0.0
230
1.0
100
AcDbText
  0
INSERT
  5
16F
100
AcDbEntity
  8
1
  6
CONTINUOUS
 62
     1
100
AcDbBlockReference
  2
LDR
 10
129.3989
 20
294.5502
 30
0.0
 41
240.0
 42
240.0
 50
121.66267
210
0.0
220
0.0
230
1.0
  0
INSERT
  5
170
100
AcDbEntity
  8
1
  6
CONTINUOUS
 62
     1
100
AcDbBlockReference
  2
LDR
 10
129.3989
 20
294.5502
 30
0.0
 41
240.0
 42
240.0
 50
121.66267
210
0.0
220
0.0
230
1.0
  0
INSERT
  5
171
100
AcDbEntity
  8
1
  6
CONTINUOUS
 62
     1
100
AcDbBlockReference
  2
LDR
 10
81.5375
 20
297.4296
 30
0.0
 41
240.000001
 42
240.000001
 50
265.972879
210
0.0
220
0.0
230
1.0
  0
INSERT
  5
172
100
AcDbEntity
  8
1
  6
CONTINUOUS
 62
     1
100
AcDbBlockReference
  2
LDR
 10
188.6364
 20
296.7951
 30
0.0
 41
240.000002
 42
240.000002
 50
245.999533
210
0.0
220
0.0
230
1.0
  0
TEXT
  5
173
100
AcDbEntity
  8
1
  6
CONTINUOUS
 62
     7
100
AcDbText
 10
174.7895
 20
365.5469
 30
0.0
 40
3.0
  1
SPLICE KITS
  7
MONOTXT
 11
174.7895
 21
368.5469
 31
0.0
210
0.0
220
0.0
230
1.0
100
AcDbText
 73
     3
  0
TEXT
  5
174
100
AcDbEntity
  8
1
  6
CONTINUOUS
 62
     7
100
AcDbText
 10
174.7895
 20
360.1469
 30
0.0
 40
3.0
  1
(NO FUSES)
  7
MONOTXT
 11
174.7895
 21
363.1469
 31
0.0
210
0.0
220
0.0
230
1.0
100
AcDbText
 73
     3
  0
TEXT
  5
175
100
AcDbEntity
  8
1
  6
CONTINUOUS
 62
     7
100
AcDbText
 10
201.0013
 20
307.658
 30
0.0
 40
3.0
  1
TYPICAL ROADWAY
  7
MONOTXT
 11
201.0013
 21
310.658
 31
0.0
210
0.0
220
0.0
230
1.0
100
AcDbText
 73
     3
  0
TEXT
  5
176
100
AcDbEntity
  8
1
  6
CONTINUOUS
 62
     7
100
AcDbText
 10
201.0013
 20
302.258
 30
0.0
 40
3.0
  1
LIGHTING CIRCUIT
  7
MONOTXT
 11
201.0013
 21
305.258
 31
0.0
210
0.0
220
0.0
230
1.0
100
AcDbText
 73
     3
  0
TEXT
  5
177
100
AcDbEntity
  8
1
  6
CONTINUOUS
 62
     7
100
AcDbText
 10
38.0438
 20
329.0856
 30
0.0
 40
3.0
  1
TYPICAL ROADWAY
  7
MONOTXT
 11
38.0438
 21
332.0856
 31
0.0
210
0.0
220
0.0
230
1.0
100
AcDbText
 73
     3
  0
TEXT
  5
178
100
AcDbEntity
  8
1
  6
CONTINUOUS
 62
     7
100
AcDbText
 10
38.0438
 20
323.6856
 30
0.0
 40
3.0
  1
LIGHTING CIRCUIT
  7
MONOTXT
 11
38.0438
 21
326.6856
 31
0.0
210
0.0
220
0.0
230
1.0
100
AcDbText
 73
     3
  0
TEXT
  5
179
100
AcDbEntity
  8
1
  6
CONTINUOUS
 62
     7
100
AcDbText
 10
78.0941
 20
250.6267
 30
0.0
 40
4.2
  1
120/240 VOLT JUNCTION BOX DETAIL
  7
MONOTXT
210
0.0
220
0.0
230
1.0
100
AcDbText
  0
LINE
  5
17A
100
AcDbEntity
  8
1
  6
CONTINUOUS
 62
     7
100
AcDbLine
 10
76.351
 20
248.3599
 30
0.0
 11
204.7226
 21
248.3599
 31
0.0
  0
LINE
  5
17B
100
AcDbEntity
  8
1
  6
CONTINUOUS
 62
     5
100
AcDbLine
 10
376.022
 20
352.0246
 30
0.0
 11
376.022
 21
271.2571
 31
0.0
  0
LINE
  5
17C
100
AcDbEntity
  8
1
  6
CONTINUOUS
 62
     5
100
AcDbLine
 10
457.697
 20
352.0246
 30
0.0
 11
457.697
 21
271.2571
 31
0.0
  0
LINE
  5
17D
100
AcDbEntity
  8
1
  6
CONTINUOUS
 62
     5
100
AcDbLine
 10
376.022
 20
352.0246
 30
0.0
 11
457.697
 21
352.0246
 31
0.0
  0
LINE
  5
17E
100
AcDbEntity
  8
1
  6
CONTINUOUS
 62
     5
100
AcDbLine
 10
376.022
 20
271.2571
 30
0.0
 11
457.697
 21
271.2571
 31
0.0
  0
LINE
  5
17F
100
AcDbEntity
  8
1
  6
CONTINUOUS
 62
     5
100
AcDbLine
 10
382.3745
 20
345.6721
 30
0.0
 11
382.3745
 21
283.9621
 31
0.0
  0
LINE
  5
180
100
AcDbEntity
  8
1
  6
CONTINUOUS
 62
     5
100
AcDbLine
 10
382.3745
 20
345.6721
 30
0.0
 11
442.3094
 21
345.6721
 31
0.0
  0
LINE
  5
181
100
AcDbEntity
  8
1
  6
CONTINUOUS
 62
     5
100
AcDbLine
 10
385.097
 20
342.9496
 30
0.0
 11
385.097
 21
287.1535
 31
0.0
  0
LINE
  5
182
100
AcDbEntity
  8
1
  6
CONTINUOUS
 62
     5
100
AcDbLine
 10
388.727
 20
340.2271
 30
0.0
 11
388.727
 21
290.3146
 31
0.0
  0
LINE
  5
183
100
AcDbEntity
  8
1
  6
CONTINUOUS
 62
     5
100
AcDbLine
 10
385.097
 20
342.9496
 30
0.0
 11
411.559
 21
342.9496
 31
0.0
  0
LINE
  5
184
100
AcDbEntity
  8
1
  6
CONTINUOUS
 62
     5
100
AcDbLine
 10
382.3745
 20
283.9621
 30
0.0
 11
401.0951
 21
283.9621
 31
0.0
  0
LINE
  5
185
100
AcDbEntity
  8
1
  6
CONTINUOUS
 62
     5
100
AcDbLine
 10
385.097
 20
287.1535
 30
0.0
 11
401.0951
 21
287.1535
 31
0.0
  0
LINE
  5
186
100
AcDbEntity
  8
1
  6
CONTINUOUS
 62
     5
100
AcDbLine
 10
388.727
 20
290.3146
 30
0.0
 11
401.0951
 21
290.3146
 31
0.0
  0
LINE
  5
187
100
AcDbEntity
  8
1
  6
CONTINUOUS
 62
     5
100
AcDbLine
 10
388.727
 20
340.2271
 30
0.0
 11
402.6601
 21
340.2271
 31
0.0
  0
LINE
  5
188
100
AcDbEntity
  8
1
  6
CONTINUOUS
 62
     5
100
AcDbLine
 10
409.5995
 20
287.5921
 30
0.0
 11
432.287
 21
287.5921
 31
0.0
  0
LINE
  5
189
100
AcDbEntity
  8
1
  6
CONTINUOUS
 62
     5
100
AcDbLine
 10
432.287
 20
287.5921
 30
0.0
 11
432.287
 21
294.8521
 31
0.0
  0
LINE
  5
18A
100
AcDbEntity
  8
1
  6
CONTINUOUS
 62
     5
100
AcDbLine
 10
432.287
 20
299.3896
 30
0.0
 11
432.287
 21
313.9096
 31
0.0
  0
ARC
  5
18B
100
AcDbEntity
  8
1
  6
CONTINUOUS
 62
     5
100
AcDbCircle
 10
432.84916
 20
297.12078
 30
0.0
 40
2.337347
210
0.0
220
0.0
230
1.0
100
AcDbArc
 50
103.915428
 51
256.084572
  0
LINE
  5
18C
100
AcDbEntity
  8
1
  6
CONTINUOUS
 62
     5
100
AcDbLine
 10
432.287
 20
313.9096
 30
0.0
 11
442.3094
 21
313.9096
 31
0.0
  0
LINE
  5
18D
100
AcDbEntity
  8
1
  6
CONTINUOUS
 62
     5
100
AcDbLine
 10
408.7319
 20
297.1482
 30
0.0
 11
442.3094
 21
297.1482
 31
0.0
  0
LINE
  5
18E
100
AcDbEntity
  8
1
  6
CONTINUOUS
 62
     5
100
AcDbLine
 10
408.7319
 20
297.1482
 30
0.0
 11
408.7319
 21
291.7032
 31
0.0
  0
LINE
  5
18F
100
AcDbEntity
  8
1
  6
CONTINUOUS
 62
     5
100
AcDbLine
 10
442.3094
 20
297.1482
 30
0.0
 11
442.3094
 21
308.0382
 31
0.0
  0
LINE
  5
190
100
AcDbEntity
  8
1
  6
CONTINUOUS
 62
     5
100
AcDbLine
 10
405.4534
 20
299.8707
 30
0.0
 11
405.4534
 21
291.7032
 31
0.0
  0
LINE
  5
191
100
AcDbEntity
  8
1
  6
CONTINUOUS
 62
     5
100
AcDbLine
 10
402.3341
 20
308.0382
 30
0.0
 11
402.3341
 21
291.7032
 31
0.0
  0
LINE
  5
192
100
AcDbEntity
  8
1
  6
CONTINUOUS
 62
     5
100
AcDbLine
 10
405.4534
 20
299.8707
 30
0.0
 11
411.5718
 21
299.8707
 31
0.0
  0
LINE
  5
193
100
AcDbEntity
  8
1
  6
CONTINUOUS
 62
     5
100
AcDbLine
 10
411.5718
 20
299.8707
 30
0.0
 11
411.5718
 21
308.0382
 31
0.0
  0
LINE
  5
194
100
AcDbEntity
  8
1
  6
CONTINUOUS
 62
     5
100
AcDbLine
 10
442.3094
 20
345.6721
 30
0.0
 11
442.3094
 21
329.3371
 31
0.0
  0
LINE
  5
195
100
AcDbEntity
  8
1
  6
CONTINUOUS
 62
     5
100
AcDbLine
 10
411.559
 20
342.9496
 30
0.0
 11
411.559
 21
329.3371
 31
0.0
  0
LINE
  5
196
100
AcDbEntity
  8
1
  6
CONTINUOUS
 62
     5
100
AcDbLine
 10
402.6601
 20
340.2271
 30
0.0
 11
402.6601
 21
329.3371
 31
0.0
  0
LINE
  5
197
100
AcDbEntity
  8
1
  6
CONTINUOUS
 62
     5
100
AcDbLine
 10
397.802
 20
335.6896
 30
0.0
 11
397.802
 21
303.0196
 31
0.0
  0
LINE
  5
198
100
AcDbEntity
  8
1
  6
CONTINUOUS
 62
     5
100
AcDbLine
 10
406.877
 20
335.6896
 30
0.0
 11
406.877
 21
303.0196
 31
0.0
  0
LINE
  5
199
100
AcDbEntity
  8
1
  6
CONTINUOUS
 62
     5
100
AcDbLine
 10
415.952
 20
335.6896
 30
0.0
 11
415.952
 21
303.0196
 31
0.0
  0
LINE
  5
19A
100
AcDbEntity
  8
1
  6
CONTINUOUS
 62
     5
100
AcDbLine
 10
425.027
 20
335.6896
 30
0.0
 11
425.027
 21
303.0196
 31
0.0
  0
LINE
  5
19B
100
AcDbEntity
  8
1
  6
CONTINUOUS
 62
     5
100
AcDbLine
 10
397.802
 20
335.6896
 30
0.0
 11
425.027
 21
335.6896
 31
0.0
  0
LINE
  5
19C
100
AcDbEntity
  8
1
  6
CONTINUOUS
 62
     5
100
AcDbLine
 10
425.027
 20
303.0196
 30
0.0
 11
397.802
 21
303.0196
 31
0.0
  0
LINE
  5
19D
100
AcDbEntity
  8
1
  6
CONTINUOUS
 62
     5
100
AcDbLine
 10
415.952
 20
318.4471
 30
0.0
 11
397.802
 21
318.4471
 31
0.0
  0
LINE
  5
19E
100
AcDbEntity
  8
1
  6
CONTINUOUS
 62
     5
100
AcDbLine
 10
397.802
 20
320.2621
 30
0.0
 11
415.952
 21
320.2621
 31
0.0
  0
CIRCLE
  5
19F
100
AcDbEntity
  8
1
  6
CONTINUOUS
 62
     5
100
AcDbCircle
 10
405.453337
 20
287.321141
 30
0.0
 40
7.71375
210
0.0
220
0.0
230
1.0
  0
CIRCLE
  5
1A0
100
AcDbEntity
  8
1
  6
CONTINUOUS
 62
     5
100
AcDbCircle
 10
416.85063
 20
279.520422
 30
0.0
 40
2.7225
210
0.0
220
0.0
230
1.0
  0
CIRCLE
  5
1A1
100
AcDbEntity
  8
1
  6
CONTINUOUS
 62
     5
100
AcDbCircle
 10
420.569716
 20
319.243664
 30
0.0
 40
2.7225
210
0.0
220
0.0
230
1.0
  0
CIRCLE
  5
1A2
100
AcDbEntity
  8
1
  6
CONTINUOUS
 62
     5
100
AcDbCircle
 10
402.574142
 20
314.323199
 30
0.0
 40
2.7225
210
0.0
220
0.0
230
1.0
  0
CIRCLE
  5
1A3
100
AcDbEntity
  8
1
  6
CONTINUOUS
 62
     5
100
AcDbCircle
 10
411.571853
 20
314.083316
 30
0.0
 40
2.7225
210
0.0
220
0.0
230
1.0
  0
LINE
  5
1A4
100
AcDbEntity
  8
1
  6
CONTINUOUS
 62
     5
100
AcDbLine
 10
437.7719
 20
303.5007
 30
0.0
 11
437.7719
 21
337.0782
 31
0.0
  0
LINE
  5
1A5
100
AcDbEntity
  8
1
  6
CONTINUOUS
 62
     5
100
AcDbLine
 10
446.8469
 20
303.5007
 30
0.0
 11
446.8469
 21
337.0782
 31
0.0
  0
LINE
  5
1A6
100
AcDbEntity
  8
1
  6
CONTINUOUS
 62
     5
100
AcDbLine
 10
437.7719
 20
303.5007
 30
0.0
 11
446.8469
 21
303.5007
 31
0.0
  0
LINE
  5
1A7
100
AcDbEntity
  8
1
  6
CONTINUOUS
 62
     5
100
AcDbLine
 10
437.7719
 20
337.0782
 30
0.0
 11
446.8469
 21
337.0782
 31
0.0
  0
CIRCLE
  5
1A8
100
AcDbEntity
  8
1
  6
CONTINUOUS
 62
     5
100
AcDbCircle
 10
451.762003
 20
320.803656
 30
0.0
 40
2.7225
210
0.0
220
0.0
230
1.0
  0
CIRCLE
  5
1A9
100
AcDbEntity
  8
1
  6
CONTINUOUS
 62
     5
100
AcDbCircle
 10
400.225835
 20
287.125877
 30
0.0
 40
0.9075
210
0.0
220
0.0
230
1.0
  0
CIRCLE
  5
1AA
100
AcDbEntity
  8
1
  6
CONTINUOUS
 62
     5
100
AcDbCircle
 10
402.698318
 20
330.208986
 30
0.0
 40
0.9075
210
0.0
220
0.0
230
1.0
  0
CIRCLE
  5
1AB
100
AcDbEntity
  8
1
  6
CONTINUOUS
 62
     5
100
AcDbCircle
 10
411.576088
 20
330.190836
 30
0.0
 40
0.9075
210
0.0
220
0.0
230
1.0
  0
CIRCLE
  5
1AC
100
AcDbEntity
  8
1
  6
CONTINUOUS
 62
     5
100
AcDbCircle
 10
402.390676
 20
307.272529
 30
0.0
 40
0.9075
210
0.0
220
0.0
230
1.0
  0
CIRCLE
  5
1AD
100
AcDbEntity
  8
1
  6
CONTINUOUS
 62
     5
100
AcDbCircle
 10
411.532528
 20
307.194635
 30
0.0
 40
0.9075
210
0.0
220
0.0
230
1.0
  0
CIRCLE
  5
1AE
100
AcDbEntity
  8
1
  6
CONTINUOUS
 62
     5
100
AcDbCircle
 10
402.345452
 20
292.595531
 30
0.0
 40
0.9075
210
0.0
220
0.0
230
1.0
  0
CIRCLE
  5
1AF
100
AcDbEntity
  8
1
  6
CONTINUOUS
 62
     5
100
AcDbCircle
 10
405.452732
 20
292.595531
 30
0.0
 40
0.9075
210
0.0
220
0.0
230
1.0
  0
CIRCLE
  5
1B0
100
AcDbEntity
  8
1
  6
CONTINUOUS
 62
     5
100
AcDbCircle
 10
408.752704
 20
292.595531
 30
0.0
 40
0.9075
210
0.0
220
0.0
230
1.0
  0
CIRCLE
  5
1B1
100
AcDbEntity
  8
1
  6
CONTINUOUS
 62
     5
100
AcDbCircle
 10
400.201786
 20
290.282465
 30
0.0
 40
0.9075
210
0.0
220
0.0
230
1.0
  0
CIRCLE
  5
1B2
100
AcDbEntity
  8
1
  6
CONTINUOUS
 62
     5
100
AcDbCircle
 10
400.201786
 20
283.993641
 30
0.0
 40
0.9075
210
0.0
220
0.0
230
1.0
  0
CIRCLE
  5
1B3
100
AcDbEntity
  8
1
  6
CONTINUOUS
 62
     5
100
AcDbCircle
 10
410.41464
 20
287.65616
 30
0.0
 40
0.9075
210
0.0
220
0.0
230
1.0
  0
CIRCLE
  5
1B4
100
AcDbEntity
  8
1
  6
CONTINUOUS
 62
     5
100
AcDbCircle
 10
442.306156
 20
330.181459
 30
0.0
 40
0.9075
210
0.0
220
0.0
230
1.0
  0
CIRCLE
  5
1B5
100
AcDbEntity
  8
1
  6
CONTINUOUS
 62
     5
100
AcDbCircle
 10
441.451896
 20
313.93494
 30
0.0
 40
0.9075
210
0.0
220
0.0
230
1.0
  0
CIRCLE
  5
1B6
100
AcDbEntity
  8
1
  6
CONTINUOUS
 62
     5
100
AcDbCircle
 10
442.320222
 20
307.233809
 30
0.0
 40
0.9075
210
0.0
220
0.0
230
1.0
  0
TEXT
  5
1B7
100
AcDbEntity
  8
1
  6
CONTINUOUS
 62
     7
100
AcDbText
 10
401.4144
 20
324.7894
 30
0.0
 40
3.0
  1
A
  7
MONOTXT
210
0.0
220
0.0
230
1.0
100
AcDbText
  0
TEXT
  5
1B8
100
AcDbEntity
  8
1
  6
CONTINUOUS
 62
     7
100
AcDbText
 10
410.3796
 20
324.7129
 30
0.0
 40
3.0
  1
A
  7
MONOTXT
210
0.0
220
0.0
230
1.0
100
AcDbText
  0
TEXT
  5
1B9
100
AcDbEntity
  8
1
  6
CONTINUOUS
 62
     7
100
AcDbText
 10
441.0446
 20
323.2031
 30
0.0
 40
3.0
  1
A
  7
MONOTXT
210
0.0
220
0.0
230
1.0
100
AcDbText
  0
TEXT
  5
1BA
100
AcDbEntity
  8
1
  6
CONTINUOUS
 62
     7
100
AcDbText
 10
401.8588
 20
312.4272
 30
0.0
 40
3.0
  1
1
  7
MONOTXT
210
0.0
220
0.0
230
1.0
100
AcDbText
  0
TEXT
  5
1BB
100
AcDbEntity
  8
1
  6
CONTINUOUS
 62
     7
100
AcDbText
 10
410.8699
 20
312.0892
 30
0.0
 40
3.0
  1
1
  7
MONOTXT
210
0.0
220
0.0
230
1.0
100
AcDbText
  0
TEXT
  5
1BC
100
AcDbEntity
  8
1
  6
CONTINUOUS
 62
     7
100
AcDbText
 10
403.8863
 20
304.4836
 30
0.0
 40
3.0
  1
B
  7
MONOTXT
210
0.0
220
0.0
230
1.0
100
AcDbText
  0
TEXT
  5
1BD
100
AcDbEntity
  8
1
  6
CONTINUOUS
 62
     7
100
AcDbText
 10
413.0102
 20
304.4836
 30
0.0
 40
3.0
  1
B
  7
MONOTXT
210
0.0
220
0.0
230
1.0
100
AcDbText
  0
TEXT
  5
1BE
100
AcDbEntity
  8
1
  6
CONTINUOUS
 62
     7
100
AcDbText
 10
419.783
 20
317.7699
 30
0.0
 40
3.0
  1
2
  7
MONOTXT
210
0.0
220
0.0
230
1.0
100
AcDbText
  0
TEXT
  5
1BF
100
AcDbEntity
  8
1
  6
CONTINUOUS
 62
     7
100
AcDbText
 10
450.8877
 20
318.9106
 30
0.0
 40
3.0
  1
3
  7
MONOTXT
210
0.0
220
0.0
230
1.0
100
AcDbText
  0
TEXT
  5
1C0
100
AcDbEntity
  8
1
  6
CONTINUOUS
 62
     7
100
AcDbText
 10
450.7063
 20
312.185
 30
0.0
 40
3.0
  1
B
  7
MONOTXT
210
0.0
220
0.0
230
1.0
100
AcDbText
  0
TEXT
  5
1C1
100
AcDbEntity
  8
1
  6
CONTINUOUS
 62
     7
100
AcDbText
 10
450.2519
 20
305.6525
 30
0.0
 40
3.0
  1
C
  7
MONOTXT
210
0.0
220
0.0
230
1.0
100
AcDbText
  0
TEXT
  5
1C2
100
AcDbEntity
  8
1
  6
CONTINUOUS
 62
     7
100
AcDbText
 10
415.9128
 20
277.7597
 30
0.0
 40
3.0
  1
4
  7
MONOTXT
210
0.0
220
0.0
230
1.0
100
AcDbText
  0
TEXT
  5
1C3
100
AcDbEntity
  8
1
  6
CONTINUOUS
 62
     7
100
AcDbText
 10
479.6945
 20
327.7285
 30
0.0
 40
3.0
  1
1.   CIRCUIT BREAKER, SEE NOTE 1.
  7
MONOTXT
 11
479.6945
 21
330.7285
 31
0.0
210
0.0
220
0.0
230
1.0
100
AcDbText
 73
     3
  0
TEXT
  5
1C4
100
AcDbEntity
  8
1
  6
CONTINUOUS
 62
     7
100
AcDbText
 10
479.6945
 20
322.3285
 30
0.0
 40
3.0
  1
 
  7
MONOTXT
 11
479.6945
 21
325.3285
 31
0.0
210
0.0
220
0.0
230
1.0
100
AcDbText
 73
     3
  0
TEXT
  5
1C5
100
AcDbEntity
  8
1
  6
CONTINUOUS
 62
     7
100
AcDbText
 10
479.6945
 20
316.9285
 30
0.0
 40
3.0
  1
2.   SPACE FOR FUTURE BREAKER
  7
MONOTXT
 11
479.6945
 21
319.9285
 31
0.0
210
0.0
220
0.0
230
1.0
100
AcDbText
 73
     3
  0
TEXT
  5
1C6
100
AcDbEntity
  8
1
  6
CONTINUOUS
 62
     7
100
AcDbText
 10
479.6945
 20
311.5285
 30
0.0
 40
3.0
  1
 
  7
MONOTXT
 11
479.6945
 21
314.5285
 31
0.0
210
0.0
220
0.0
230
1.0
100
AcDbText
 73
     3
  0
TEXT
  5
1C7
100
AcDbEntity
  8
1
  6
CONTINUOUS
 62
     7
100
AcDbText
 10
479.6945
 20
306.1285
 30
0.0
 40
3.0
  1
3.   SOLID NEUTRAL GROUND BAR
  7
MONOTXT
 11
479.6945
 21
309.1285
 31
0.0
210
0.0
220
0.0
230
1.0
100
AcDbText
 73
     3
  0
TEXT
  5
1C8
100
AcDbEntity
  8
1
  6
CONTINUOUS
 62
     7
100
AcDbText
 10
479.6945
 20
300.7285
 30
0.0
 40
3.0
  1
 
  7
MONOTXT
 11
479.6945
 21
303.7285
 31
0.0
210
0.0
220
0.0
230
1.0
100
AcDbText
 73
     3
  0
TEXT
  5
1C9
100
AcDbEntity
  8
1
  6
CONTINUOUS
 62
     7
100
AcDbText
 10
479.6945
 20
295.3285
 30
0.0
 40
3.0
  1
4.   CONDUIT HUB (POLE TYPE)
  7
MONOTXT
 11
479.6945
 21
298.3285
 31
0.0
210
0.0
220
0.0
230
1.0
100
AcDbText
 73
     3
  0
TEXT
  5
1CA
100
AcDbEntity
  8
1
  6
CONTINUOUS
 62
     7
100
AcDbText
 10
479.6945
 20
289.9285
 30
0.0
 40
3.0
  1
   (2" CHASE NIPPLE)
  7
MONOTXT
 11
479.6945
 21
292.9285
 31
0.0
210
0.0
220
0.0
230
1.0
100
AcDbText
 73
     3
  0
TEXT
  5
1CB
100
AcDbEntity
  8
1
  6
CONTINUOUS
 62
     7
100
AcDbText
 10
588.3764
 20
328.5338
 30
0.0
 40
3.0
  1
1A - LINE SERVICE
  7
MONOTXT
 11
588.3764
 21
331.5338
 31
0.0
210
0.0
220
0.0
230
1.0
100
AcDbText
 73
     3
  0
TEXT
  5
1CC
100
AcDbEntity
  8
1
  6
CONTINUOUS
 62
     7
100
AcDbText
 10
588.3764
 20
323.1338
 30
0.0
 40
3.0
  1
 
  7
MONOTXT
 11
588.3764
 21
326.1338
 31
0.0
210
0.0
220
0.0
230
1.0
100
AcDbText
 73
     3
  0
TEXT
  5
1CD
100
AcDbEntity
  8
1
  6
CONTINUOUS
 62
     7
100
AcDbText
 10
588.3764
 20
317.7338
 30
0.0
 40
3.0
  1
3A - LINE NEUTRAL
  7
MONOTXT
 11
588.3764
 21
320.7338
 31
0.0
210
0.0
220
0.0
230
1.0
100
AcDbText
 73
     3
  0
TEXT
  5
1CE
100
AcDbEntity
  8
1
  6
CONTINUOUS
 62
     7
100
AcDbText
 10
588.3764
 20
312.3338
 30
0.0
 40
3.0
  1
 
  7
MONOTXT
 11
588.3764
 21
315.3338
 31
0.0
210
0.0
220
0.0
230
1.0
100
AcDbText
 73
     3
  0
TEXT
  5
1CF
100
AcDbEntity
  8
1
  6
CONTINUOUS
 62
     7
100
AcDbText
 10
588.3764
 20
306.9338
 30
0.0
 40
3.0
  1
1B - TO APPLIANCE
  7
MONOTXT
 11
588.3764
 21
309.9338
 31
0.0
210
0.0
220
0.0
230
1.0
100
AcDbText
 73
     3
  0
TEXT
  5
1D0
100
AcDbEntity
  8
1
  6
CONTINUOUS
 62
     7
100
AcDbText
 10
588.3764
 20
301.5338
 30
0.0
 40
3.0
  1
 
  7
MONOTXT
 11
588.3764
 21
304.5338
 31
0.0
210
0.0
220
0.0
230
1.0
100
AcDbText
 73
     3
  0
TEXT
  5
1D1
100
AcDbEntity
  8
1
  6
CONTINUOUS
 62
     7
100
AcDbText
 10
588.3764
 20
296.1338
 30
0.0
 40
3.0
  1
3B - APPLIANCE GROUND
  7
MONOTXT
 11
588.3764
 21
299.1338
 31
0.0
210
0.0
220
0.0
230
1.0
100
AcDbText
 73
     3
  0
TEXT
  5
1D2
100
AcDbEntity
  8
1
  6
CONTINUOUS
 62
     7
100
AcDbText
 10
588.3764
 20
290.7338
 30
0.0
 40
3.0
  1
 
  7
MONOTXT
 11
588.3764
 21
293.7338
 31
0.0
210
0.0
220
0.0
230
1.0
100
AcDbText
 73
     3
  0
TEXT
  5
1D3
100
AcDbEntity
  8
1
  6
CONTINUOUS
 62
     7
100
AcDbText
 10
588.3764
 20
285.3338
 30
0.0
 40
3.0
  1
3C - LINE TO GROUND
  7
MONOTXT
 11
588.3764
 21
288.3338
 31
0.0
210
0.0
220
0.0
230
1.0
100
AcDbText
 73
     3
  0
TEXT
  5
1D4
100
AcDbEntity
  8
1
  6
CONTINUOUS
 62
     7
100
AcDbText
 10
507.3346
 20
338.5131
 30
0.0
 40
3.6
  1
LEGEND
  7
MONOTXT
210
0.0
220
0.0
230
1.0
100
AcDbText
  0
TEXT
  5
1D5
100
AcDbEntity
  8
1
  6
CONTINUOUS
 62
     7
100
AcDbText
 10
601.7939
 20
338.7816
 30
0.0
 40
3.6
  1
WIRING
  7
MONOTXT
210
0.0
220
0.0
230
1.0
100
AcDbText
  0
LINE
  5
1D6
100
AcDbEntity
  8
1
  6
CONTINUOUS
 62
     7
100
AcDbLine
 10
505.9928
 20
336.6341
 30
0.0
 11
528.3241
 21
336.6341
 31
0.0
  0
LINE
  5
1D7
100
AcDbEntity
  8
1
  6
CONTINUOUS
 62
     7
100
AcDbLine
 10
599.9155
 20
337.171
 30
0.0
 11
620.0418
 21
337.171
 31
0.0
  0
ELLIPSE
  5
1D8
100
AcDbEntity
  8
1
  6
CONTINUOUS
 62
     3
100
AcDbEllipse
 10
676.9929
 20
409.8369
 30
0.0
 11
1.2
 21
0.0
 31
0.0
210
0.0
220
0.0
230
1.0
 40
0.366793
 41
0.0
 42
6.2831753071795866
  0
ARC
  5
1D9
100
AcDbEntity
  8
1
  6
CONTINUOUS
 62
     3
100
AcDbCircle
 10
677.293979
 20
280.839998
 30
0.0
 40
2.165948
210
0.0
220
0.0
230
1.0
100
AcDbArc
 50
213.742414
 51
303.654047
  0
LINE
  5
1DA
100
AcDbEntity
  8
1
  6
CONTINUOUS
 62
     3
100
AcDbLine
 10
677.493
 20
409.3613
 30
0.0
 11
691.5827
 21
400.2114
 31
0.0
  0
ARC
  5
1DB
100
AcDbEntity
  8
1
  6
CONTINUOUS
 62
     3
100
AcDbCircle
 10
693.056737
 20
258.749582
 30
0.0
 40
2.468271
210
0.0
220
0.0
230
1.0
100
AcDbArc
 50
212.830364
 51
308.260986
  0
ELLIPSE
  5
1DC
100
AcDbEntity
  8
1
  6
CONTINUOUS
 62
     3
100
AcDbEllipse
 10
692.7892
 20
400.253
 30
0.0
 11
1.2
 21
0.0
 31
0.0
210
0.0
220
0.0
230
1.0
 40
0.366793
 41
0.0
 42
6.2831753071795866
  0
LINE
  5
1DD
100
AcDbEntity
  8
1
  6
CONTINUOUS
 62
     3
100
AcDbLine
 10
677.493
 20
409.3613
 30
0.0
 11
677.493
 21
407.5613
 31
0.0
  0
LINE
  5
1DE
100
AcDbEntity
  8
1
  6
CONTINUOUS
 62
     3
100
AcDbLine
 10
677.493
 20
407.5613
 30
0.0
 11
691.5827
 21
398.4114
 31
0.0
  0
LINE
  5
1DF
100
AcDbEntity
  8
1
  6
CONTINUOUS
 62
     3
100
AcDbLine
 10
675.7869
 20
407.2383
 30
0.0
 11
691.5692
 21
396.9892
 31
0.0
  0
LINE
  5
1E0
100
AcDbEntity
  8
1
  6
CONTINUOUS
 62
     3
100
AcDbLine
 10
675.7869
 20
407.2383
 30
0.0
 11
677.493
 21
407.5613
 31
0.0
  0
LINE
  5
1E1
100
AcDbEntity
  8
1
  6
CONTINUOUS
 62
     3
100
AcDbLine
 10
678.1929
 20
409.8369
 30
0.0
 11
678.195
 21
408.9054
 31
0.0
  0
ELLIPSE
  5
1E2
100
AcDbEntity
  8
1
  6
CONTINUOUS
 62
     3
100
AcDbEllipse
 10
675.12375
 20
404.97535
 30
0.0
 11
0.2232500065798734
 21
-1.1790499987541183
 31
0.0
210
0.0
220
0.0
230
1.0
 40
0.516919
 41
0.0
 42
6.2831753071795866
  0
LINE
  5
1E3
100
AcDbEntity
  8
1
  6
CONTINUOUS
 62
     3
100
AcDbLine
 10
675.7929
 20
409.8369
 30
0.0
 11
675.7849
 21
406.3219
 31
0.0
  0
LINE
  5
1E4
100
AcDbEntity
  8
1
  6
CONTINUOUS
 62
     3
100
AcDbLine
 10
677.0204
 20
405.0063
 30
0.0
 11
691.5632
 21
395.5622
 31
0.0
  0
LINE
  5
1E5
100
AcDbEntity
  8
1
  6
DASHED
 62
     3
100
AcDbLine
 10
677.3472
 20
405.5095
 30
0.0
 11
691.5662
 21
396.2756
 31
0.0
  0
LINE
  5
1E6
100
AcDbEntity
  8
1
  6
CONTINUOUS
 62
     3
100
AcDbLine
 10
674.9005
 20
406.1544
 30
0.0
 11
676.1572
 21
406.3924
 31
0.0
  0
LINE
  5
1E7
100
AcDbEntity
  8
1
  6
CONTINUOUS
 62
     3
100
AcDbLine
 10
680.7308
 20
407.2587
 30
0.0
 11
705.2609
 21
411.9044
 31
0.0
  0
LINE
  5
1E8
100
AcDbEntity
  8
1
  6
CONTINUOUS
 62
     3
100
AcDbLine
 10
675.347
 20
403.7963
 30
0.0
 11
678.0851
 21
404.3149
 31
0.0
  0
LINE
  5
1E9
100
AcDbEntity
  8
1
  6
CONTINUOUS
 62
     3
100
AcDbLine
 10
690.1696
 20
395.001
 30
0.0
 11
691.5619
 21
395.2646
 31
0.0
  0
LINE
  5
1EA
100
AcDbEntity
  8
1
  6
CONTINUOUS
 62
     3
100
AcDbLine
 10
694.0014
 20
395.7267
 30
0.0
 11
707.3243
 21
398.2501
 31
0.0
  0
LINE
  5
1EB
100
AcDbEntity
  8
1
  6
CONTINUOUS
 62
     3
100
AcDbLine
 10
690.7694
 20
392.672
 30
0.0
 11
691.5516
 21
392.8202
 31
0.0
  0
LINE
  5
1EC
100
AcDbEntity
  8
1
  6
CONTINUOUS
 62
     3
100
AcDbLine
 10
694.0117
 20
393.286
 30
0.0
 11
707.7709
 21
395.892
 31
0.0
  0
ELLIPSE
  5
1ED
100
AcDbEntity
  8
1
  6
CONTINUOUS
 62
     3
100
AcDbEllipse
 10
690.4695
 20
393.8365
 30
0.0
 11
0.2999000195381972
 21
-1.1644999949682222
 31
0.0
210
0.0
220
0.0
230
1.0
 40
0.357898
 41
0.0
 42
6.2831753071795866
  0
LINE
  5
1EE
100
AcDbEntity
  8
1
  6
DASHED
 62
     3
100
AcDbLine
 10
682.1869
 20
406.3131
 30
0.0
 11
703.4208
 21
410.3346
 31
0.0
  0
LINE
  5
1EF
100
AcDbEntity
  8
1
  6
DASHED
 62
     3
100
AcDbLine
 10
694.0067
 20
394.5064
 30
0.0
 11
707.5476
 21
397.071
 31
0.0
  0
LINE
  5
1F0
100
AcDbEntity
  8
1
  6
CONTINUOUS
 62
     3
100
AcDbLine
 10
675.7313
 20
383.1064
 30
0.0
 11
691.5234
 21
386.0973
 31
0.0
  0
ELLIPSE
  5
1F1
100
AcDbEntity
  8
1
  6
CONTINUOUS
 62
     3
100
AcDbEllipse
 10
675.9546
 20
381.92735
 30
0.0
 11
0.2232999822215676
 21
-1.179050003367053
 31
0.0
210
0.0
220
0.0
230
1.0
 40
0.517636
 41
0.0
 42
6.2831753071795866
  0
LINE
  5
1F2
100
AcDbEntity
  8
1
  6
CONTINUOUS
 62
     3
100
AcDbLine
 10
675.7791
 20
403.8781
 30
0.0
 11
675.7312
 21
383.1064
 31
0.0
  0
LINE
  5
1F3
100
AcDbEntity
  8
1
  6
CONTINUOUS
 62
     3
100
AcDbLine
 10
675.7263
 20
380.9576
 30
0.0
 11
675.4929
 21
279.6369
 31
0.0
  0
LINE
  5
1F4
100
AcDbEntity
  8
1
  6
CONTINUOUS
 62
     3
100
AcDbLine
 10
678.2058
 20
404.2365
 30
0.0
 11
678.2534
 21
383.5841
 31
0.0
  0
ELLIPSE
  5
1F5
100
AcDbEntity
  8
1
  6
CONTINUOUS
 62
     3
100
AcDbEllipse
 10
689.7354
 20
366.78235
 30
0.0
 11
0.2232999822215676
 21
-1.179050003367053
 31
0.0
210
0.0
220
0.0
230
1.0
 40
0.517636
 41
0.0
 42
6.2831753071795866
  0
LINE
  5
1F6
100
AcDbEntity
  8
1
  6
CONTINUOUS
 62
     3
100
AcDbLine
 10
689.3982
 20
367.9464
 30
0.0
 11
691.4488
 21
368.3349
 31
0.0
  0
LINE
  5
1F7
100
AcDbEntity
  8
1
  6
CONTINUOUS
 62
     3
100
AcDbLine
 10
689.9981
 20
365.6176
 30
0.0
 11
691.4385
 21
365.8904
 31
0.0
  0
LINE
  5
1F8
100
AcDbEntity
  8
1
  6
CONTINUOUS
 62
     3
100
AcDbLine
 10
694.1248
 20
366.3992
 30
0.0
 11
711.5104
 21
369.6919
 31
0.0
  0
LINE
  5
1F9
100
AcDbEntity
  8
1
  6
CONTINUOUS
 62
     3
100
AcDbLine
 10
678.1285
 20
381.6354
 30
0.0
 11
690.5773
 21
368.1698
 31
0.0
  0
LINE
  5
1FA
100
AcDbEntity
  8
1
  6
CONTINUOUS
 62
     3
100
AcDbLine
 10
679.2299
 20
382.6536
 30
0.0
 11
691.4534
 21
369.4317
 31
0.0
  0
LINE
  5
1FB
100
AcDbEntity
  8
1
  6
CONTINUOUS
 62
     3
100
AcDbLine
 10
676.1778
 20
380.7482
 30
0.0
 11
678.5358
 21
381.1948
 31
0.0
  0
LINE
  5
1FC
100
AcDbEntity
  8
1
  6
CONTINUOUS
 62
     3
100
AcDbLine
 10
678.667
 20
378.401
 30
0.0
 11
689.0862
 21
367.131
 31
0.0
  0
LINE
  5
1FD
100
AcDbEntity
  8
1
  6
CONTINUOUS
 62
     3
100
AcDbLine
 10
677.1467
 20
375.741
 30
0.0
 11
679.4848
 21
376.1838
 31
0.0
  0
LINE
  5
1FE
100
AcDbEntity
  8
1
  6
CONTINUOUS
 62
     3
100
AcDbLine
 10
677.1347
 20
380.9294
 30
0.0
 11
677.1467
 21
375.741
 31
0.0
  0
LINE
  5
1FF
100
AcDbEntity
  8
1
  6
CONTINUOUS
 62
     3
100
AcDbLine
 10
679.4817
 20
377.5199
 30
0.0
 11
679.4848
 21
376.1838
 31
0.0
  0
LINE
  5
200
100
AcDbEntity
  8
1
  6
CONTINUOUS
 62
     3
100
AcDbLine
 10
678.667
 20
378.401
 30
0.0
 11
678.784
 21
380.8632
 31
0.0
  0
LINE
  5
201
100
AcDbEntity
  8
1
  6
CONTINUOUS
 62
     3
100
AcDbLine
 10
677.1409
 20
343.9538
 30
0.0
 11
678.3447
 21
343.9538
 31
0.0
  0
LINE
  5
202
100
AcDbEntity
  8
1
  6
CONTINUOUS
 62
     3
100
AcDbLine
 10
677.1561
 20
350.5538
 30
0.0
 11
677.1409
 21
343.9538
 31
0.0
  0
LINE
  5
203
100
AcDbEntity
  8
1
  6
CONTINUOUS
 62
     3
100
AcDbLine
 10
678.6504
 20
348.1503
 30
0.0
 11
678.6456
 21
346.0701
 31
0.0
  0
LINE
  5
204
100
AcDbEntity
  8
1
  6
CONTINUOUS
 62
     3
100
AcDbLine
 10
678.271
 20
375.9539
 30
0.0
 11
678.3284
 21
351.0412
 31
0.0
  0
LINE
  5
205
100
AcDbEntity
  8
1
  6
CONTINUOUS
 62
     3
100
AcDbLine
 10
677.1561
 20
350.5538
 30
0.0
 11
678.3284
 21
351.0412
 31
0.0
  0
LINE
  5
206
100
AcDbEntity
  8
1
  6
CONTINUOUS
 62
     3
100
AcDbLine
 10
691.5827
 20
400.2114
 30
0.0
 11
691.4384
 21
365.8904
 31
0.0
  0
LINE
  5
207
100
AcDbEntity
  8
1
  6
CONTINUOUS
 62
     3
100
AcDbLine
 10
678.6504
 20
348.1503
 30
0.0
 11
691.4271
 21
363.1904
 31
0.0
  0
LINE
  5
208
100
AcDbEntity
  8
1
  6
CONTINUOUS
 62
     3
100
AcDbLine
 10
678.5888
 20
349.9313
 30
0.0
 11
691.4349
 21
365.0531
 31
0.0
  0
LINE
  5
209
100
AcDbEntity
  8
1
  6
CONTINUOUS
 62
     3
100
AcDbLine
 10
677.1561
 20
350.5538
 30
0.0
 11
678.5888
 21
349.9313
 31
0.0
  0
LINE
  5
20A
100
AcDbEntity
  8
1
  6
CONTINUOUS
 62
     3
100
AcDbLine
 10
678.3447
 20
343.9538
 30
0.0
 11
691.2355
 21
317.5908
 31
0.0
  0
LINE
  5
20B
100
AcDbEntity
  8
1
  6
CONTINUOUS
 62
     3
100
AcDbLine
 10
678.6456
 20
346.0701
 30
0.0
 11
691.2469
 21
320.2992
 31
0.0
  0
LINE
  5
20C
100
AcDbEntity
  8
1
  6
CONTINUOUS
 62
     3
100
AcDbLine
 10
678.3284
 20
351.0412
 30
0.0
 11
678.8532
 21
350.2426
 31
0.0
  0
LINE
  5
20D
100
AcDbEntity
  8
1
  6
CONTINUOUS
 62
     3
100
AcDbLine
 10
677.2587
 20
306.0369
 30
0.0
 11
677.2435
 21
299.4369
 31
0.0
  0
LINE
  5
20E
100
AcDbEntity
  8
1
  6
CONTINUOUS
 62
     3
100
AcDbLine
 10
677.2435
 20
299.4369
 30
0.0
 11
678.4473
 21
299.4369
 31
0.0
  0
LINE
  5
20F
100
AcDbEntity
  8
1
  6
CONTINUOUS
 62
     3
100
AcDbLine
 10
678.754
 20
304.0586
 30
0.0
 11
678.7482
 21
301.5532
 31
0.0
  0
LINE
  5
210
100
AcDbEntity
  8
1
  6
CONTINUOUS
 62
     3
100
AcDbLine
 10
677.2587
 20
306.0369
 30
0.0
 11
678.431
 21
306.5243
 31
0.0
  0
LINE
  5
211
100
AcDbEntity
  8
1
  6
CONTINUOUS
 62
     3
100
AcDbLine
 10
677.2587
 20
306.0369
 30
0.0
 11
678.6914
 21
305.4144
 31
0.0
  0
LINE
  5
212
100
AcDbEntity
  8
1
  6
CONTINUOUS
 62
     3
100
AcDbLine
 10
678.4473
 20
299.4369
 30
0.0
 11
691.051
 21
273.6611
 31
0.0
  0
LINE
  5
213
100
AcDbEntity
  8
1
  6
CONTINUOUS
 62
     3
100
AcDbLine
 10
678.7482
 20
301.5532
 30
0.0
 11
691.0623
 21
276.3696
 31
0.0
  0
LINE
  5
214
100
AcDbEntity
  8
1
  6
CONTINUOUS
 62
     3
100
AcDbLine
 10
678.431
 20
306.5243
 30
0.0
 11
679.0295
 21
305.6135
 31
0.0
  0
LINE
  5
215
100
AcDbEntity
  8
1
  6
CONTINUOUS
 62
     3
100
AcDbLine
 10
678.3447
 20
343.9538
 30
0.0
 11
678.431
 21
306.5243
 31
0.0
  0
LINE
  5
216
100
AcDbEntity
  8
1
  6
CONTINUOUS
 62
     3
100
AcDbLine
 10
678.4473
 20
299.4369
 30
0.0
 11
678.4943
 21
279.0371
 31
0.0
  0
LINE
  5
217
100
AcDbEntity
  8
1
  6
CONTINUOUS
 62
     3
100
AcDbLine
 10
691.4384
 20
365.8904
 30
0.0
 11
691.2355
 21
317.5908
 31
0.0
  0
LINE
  5
218
100
AcDbEntity
  8
1
  6
CONTINUOUS
 62
     3
100
AcDbLine
 10
678.6914
 20
305.4144
 30
0.0
 11
691.2153
 21
312.7908
 31
0.0
  0
LINE
  5
219
100
AcDbEntity
  8
1
  6
CONTINUOUS
 62
     3
100
AcDbLine
 10
678.754
 20
304.0586
 30
0.0
 11
691.2095
 21
311.3947
 31
0.0
  0
LINE
  5
21A
100
AcDbEntity
  8
1
  6
CONTINUOUS
 62
     3
100
AcDbLine
 10
700.4868
 20
408.5578
 30
0.0
 11
696.3595
 21
396.1734
 31
0.0
  0
LINE
  5
21B
100
AcDbEntity
  8
1
  6
CONTINUOUS
 62
     3
100
AcDbLine
 10
701.8369
 20
408.8135
 30
0.0
 11
697.7096
 21
396.429
 31
0.0
  0
LINE
  5
21C
100
AcDbEntity
  8
1
  6
CONTINUOUS
 62
     3
100
AcDbLine
 10
683.6428
 20
405.3676
 30
0.0
 11
700.4868
 21
408.5578
 31
0.0
  0
LINE
  5
21D
100
AcDbEntity
  8
1
  6
CONTINUOUS
 62
     3
100
AcDbLine
 10
701.8369
 20
408.8135
 30
0.0
 11
705.2029
 21
409.451
 31
0.0
  0
LINE
  5
21E
100
AcDbEntity
  8
1
  6
CONTINUOUS
 62
     3
100
AcDbLine
 10
696.0751
 20
393.6768
 30
0.0
 11
701.9985
 21
388.0813
 31
0.0
  0
LINE
  5
21F
100
AcDbEntity
  8
1
  6
CONTINUOUS
 62
     3
100
AcDbLine
 10
697.5307
 20
393.9525
 30
0.0
 11
703.4542
 21
388.3569
 31
0.0
  0
LINE
  5
220
100
AcDbEntity
  8
1
  6
CONTINUOUS
 62
     3
100
AcDbLine
 10
694.0399
 20
386.5739
 30
0.0
 11
701.9985
 21
388.0813
 31
0.0
  0
LINE
  5
221
100
AcDbEntity
  8
1
  6
CONTINUOUS
 62
     3
100
AcDbLine
 10
704.9279
 20
388.636
 30
0.0
 11
706.5919
 21
395.6687
 31
0.0
  0
LINE
  5
222
100
AcDbEntity
  8
1
  6
CONTINUOUS
 62
     3
100
AcDbLine
 10
706.4823
 20
389.9937
 30
0.0
 11
707.8829
 21
395.9132
 31
0.0
  0
LINE
  5
223
100
AcDbEntity
  8
1
  6
CONTINUOUS
 62
     3
100
AcDbLine
 10
703.4541
 20
388.3568
 30
0.0
 11
704.9279
 21
388.636
 31
0.0
  0
LINE
  5
224
100
AcDbEntity
  8
1
  6
CONTINUOUS
 62
     3
100
AcDbLine
 10
695.883
 20
369.1747
 30
0.0
 11
710.7197
 21
392.8706
 31
0.0
  0
LINE
  5
225
100
AcDbEntity
  8
1
  6
CONTINUOUS
 62
     3
100
AcDbLine
 10
697.4893
 20
369.4789
 30
0.0
 11
711.2118
 21
391.3953
 31
0.0
  0
LINE
  5
226
100
AcDbEntity
  8
1
  6
CONTINUOUS
 62
     3
100
AcDbLine
 10
706.1328
 20
388.8639
 30
0.0
 11
708.4909
 21
389.3109
 31
0.0
  0
LINE
  5
227
100
AcDbEntity
  8
1
  6
CONTINUOUS
 62
     3
100
AcDbLine
 10
710.0973
 20
389.6155
 30
0.0
 11
711.8323
 21
389.9443
 31
0.0
  0
LINE
  5
228
100
AcDbEntity
  8
1
  6
CONTINUOUS
 62
     3
100
AcDbLine
 10
694.0503
 20
384.1333
 30
0.0
 11
706.7558
 21
386.5397
 31
0.0
  0
LINE
  5
229
100
AcDbEntity
  8
1
  6
CONTINUOUS
 62
     3
100
AcDbLine
 10
708.362
 20
386.8439
 30
0.0
 11
710.8998
 21
387.3245
 31
0.0
  0
LINE
  5
22A
100
AcDbEntity
  8
1
  6
CONTINUOUS
 62
     3
100
AcDbLine
 10
694.1144
 20
368.8397
 30
0.0
 11
695.883
 21
369.1747
 31
0.0
  0
LINE
  5
22B
100
AcDbEntity
  8
1
  6
CONTINUOUS
 62
     3
100
AcDbLine
 10
712.4472
 20
372.3119
 30
0.0
 11
695.9123
 21
369.1809
 31
0.0
  0
LINE
  5
22C
100
AcDbEntity
  8
1
  6
CONTINUOUS
 62
     3
100
AcDbLine
 10
706.1328
 20
388.8639
 30
0.0
 11
711.6234
 21
393.66
 31
0.0
  0
LINE
  5
22D
100
AcDbEntity
  8
1
  6
CONTINUOUS
 62
     3
100
AcDbLine
 10
704.9279
 20
388.636
 30
0.0
 11
711.7673
 21
394.6103
 31
0.0
  0
LINE
  5
22E
100
AcDbEntity
  8
1
  6
CONTINUOUS
 62
     3
100
AcDbLine
 10
680.2741
 20
381.524
 30
0.0
 11
684.9905
 21
382.4172
 31
0.0
  0
LINE
  5
22F
100
AcDbEntity
  8
1
  6
CONTINUOUS
 62
     3
100
AcDbLine
 10
687.084
 20
382.8138
 30
0.0
 11
691.5131
 21
383.6527
 31
0.0
  0
LINE
  5
230
100
AcDbEntity
  8
1
  6
CONTINUOUS
 62
     3
100
AcDbLine
 10
687.084
 20
382.8138
 30
0.0
 11
691.5015
 21
380.8887
 31
0.0
  0
LINE
  5
231
100
AcDbEntity
  8
1
  6
CONTINUOUS
 62
     3
100
AcDbLine
 10
684.9905
 20
382.4172
 30
0.0
 11
691.496
 21
379.5821
 31
0.0
  0
LINE
  5
232
100
AcDbEntity
  8
1
  6
CONTINUOUS
 62
     3
100
AcDbLine
 10
694.0686
 20
379.7699
 30
0.0
 11
700.7059
 21
376.8774
 31
0.0
  0
LINE
  5
233
100
AcDbEntity
  8
1
  6
CONTINUOUS
 62
     3
100
AcDbLine
 10
701.8182
 20
376.3926
 30
0.0
 11
711.565
 21
372.1449
 31
0.0
  0
LINE
  5
234
100
AcDbEntity
  8
1
  6
CONTINUOUS
 62
     3
100
AcDbLine
 10
694.0741
 20
378.4586
 30
0.0
 11
700.062
 21
375.849
 31
0.0
  0
LINE
  5
235
100
AcDbEntity
  8
1
  6
CONTINUOUS
 62
     3
100
AcDbLine
 10
701.1743
 20
375.3643
 30
0.0
 11
709.4713
 21
371.7484
 31
0.0
  0
LINE
  5
236
100
AcDbEntity
  8
1
  6
CONTINUOUS
 62
     3
100
AcDbLine
 10
678.4473
 20
299.4369
 30
0.0
 11
678.4929
 21
279.6438
 31
0.0
  0
LINE
  5
237
100
AcDbEntity
  8
1
  6
CONTINUOUS
 62
     3
100
AcDbLine
 10
677.1059
 20
276.0192
 30
0.0
 11
677.1059
 21
272.4192
 31
0.0
  0
LINE
  5
238
100
AcDbEntity
  8
1
  6
CONTINUOUS
 62
     3
100
AcDbLine
 10
685.5059
 20
279.6192
 30
0.0
 11
685.5059
 21
276.0192
 31
0.0
  0
LINE
  5
239
100
AcDbEntity
  8
1
  6
CONTINUOUS
 62
     3
100
AcDbLine
 10
668.7059
 20
279.6192
 30
0.0
 11
668.7059
 21
276.0192
 31
0.0
  0
LINE
  5
23A
100
AcDbEntity
  8
1
  6
CONTINUOUS
 62
     3
100
AcDbLine
 10
668.7059
 20
279.6192
 30
0.0
 11
677.1059
 21
276.0192
 31
0.0
  0
LINE
  5
23B
100
AcDbEntity
  8
1
  6
CONTINUOUS
 62
     3
100
AcDbLine
 10
685.5059
 20
279.6192
 30
0.0
 11
677.1059
 21
276.0192
 31
0.0
  0
LINE
  5
23C
100
AcDbEntity
  8
1
  6
CONTINUOUS
 62
     3
100
AcDbLine
 10
675.6001
 20
282.5739
 30
0.0
 11
668.7059
 21
279.6192
 31
0.0
  0
LINE
  5
23D
100
AcDbEntity
  8
1
  6
CONTINUOUS
 62
     3
100
AcDbLine
 10
678.5909
 20
282.5828
 30
0.0
 11
685.5059
 21
279.6192
 31
0.0
  0
LINE
  5
23E
100
AcDbEntity
  8
1
  6
CONTINUOUS
 62
     3
100
AcDbLine
 10
675.5971
 20
281.267
 30
0.0
 11
673.0389
 21
280.1707
 31
0.0
  0
LINE
  5
23F
100
AcDbEntity
  8
1
  6
CONTINUOUS
 62
     3
100
AcDbLine
 10
673.0388
 20
279.0677
 30
0.0
 11
676.6333
 21
277.5273
 31
0.0
  0
LINE
  5
240
100
AcDbEntity
  8
1
  6
CONTINUOUS
 62
     3
100
AcDbLine
 10
681.1728
 20
279.0678
 30
0.0
 11
677.5787
 21
277.5273
 31
0.0
  0
LINE
  5
241
100
AcDbEntity
  8
1
  6
CONTINUOUS
 62
     3
100
AcDbLine
 10
678.5939
 20
281.2759
 30
0.0
 11
681.1728
 21
280.1707
 31
0.0
  0
ARC
  5
242
100
AcDbEntity
  8
1
  6
CONTINUOUS
 62
     3
100
AcDbCircle
 10
673.275205
 20
279.619163
 30
0.0
 40
0.6
210
0.0
220
0.0
230
1.0
100
AcDbArc
 50
113.197989
 51
246.799217
  0
ARC
  5
243
100
AcDbEntity
  8
1
  6
CONTINUOUS
 62
     3
100
AcDbCircle
 10
680.936435
 20
279.619249
 30
0.0
 40
0.6
210
0.0
220
0.0
230
1.0
100
AcDbArc
 50
293.196586
 51
66.799739
  0
ARC
  5
244
100
AcDbEntity
  8
1
  6
CONTINUOUS
 62
     3
100
AcDbCircle
 10
677.105899
 20
277.977503
 30
0.0
 40
0.6
210
0.0
220
0.0
230
1.0
100
AcDbArc
 50
246.803572
 51
293.198864
  0
ARC
  5
245
100
AcDbEntity
  8
1
  6
CONTINUOUS
 62
     3
100
AcDbCircle
 10
677.105904
 20
278.630266
 30
0.0
 40
1.2
210
0.0
220
0.0
230
1.0
100
AcDbArc
 50
246.804067
 51
293.201397
  0
SPLINE
  5
246
100
AcDbEntity
  8
1
  6
CONTINUOUS
 62
     3
100
AcDbSpline
210
0.0
220
0.0
230
1.0
 70
     8
 71
     3
 72
    86
 73
    82
 74
     0
 42
0.0
 43
0.0
 12
0.8737453549925091
 22
0.4863836496316609
 32
0.0
 13
-0.8565281131648986
 23
0.5161003694613856
 33
0.0
 40
0.0
 40
0.0
 40
0.0
 40
0.0
 40
0.0254738238970882
 40
0.0254738238970882
 40
0.0254738238970882
 40
0.0648521506115799
 40
0.0648521506115799
 40
0.0648521506115799
 40
0.1199597147979249
 40
0.1199597147979249
 40
0.1199597147979249
 40
0.1659504441900224
 40
0.1659504441900224
 40
0.1659504441900224
 40
0.1892902675640029
 40
0.1892902675640029
 40
0.1892902675640029
 40
0.2404559085487177
 40
0.2404559085487177
 40
0.2404559085487177
 40
0.3255963496128028
 40
0.3255963496128028
 40
0.3255963496128028
 40
0.3358312075468349
 40
0.3358312075468349
 40
0.3358312075468349
 40
0.3909355605415997
 40
0.3909355605415997
 40
0.3909355605415997
 40
0.4687443345409088
 40
0.4687443345409088
 40
0.4687443345409088
 40
0.4965794829462685
 40
0.4965794829462685
 40
0.4965794829462685
 40
0.509529768988799
 40
0.509529768988799
 40
0.509529768988799
 40
0.5483669544620504
 40
0.5483669544620504
 40
0.5483669544620504
 40
0.5548386832283969
 40
0.5548386832283969
 40
0.5548386832283969
 40
0.5742538599055838
 40
0.5742538599055838
 40
0.5742538599055838
 40
0.6276343325810139
 40
0.6276343325810139
 40
0.6276343325810139
 40
0.6653729958358635
 40
0.6653729958358635
 40
0.6653729958358635
 40
0.7019826017983003
 40
0.7019826017983003
 40
0.7019826017983003
 40
0.7541652517164679
 40
0.7541652517164679
 40
0.7541652517164679
 40
0.7963510207045589
 40
0.7963510207045589
 40
0.7963510207045589
 40
0.8340873387784011
 40
0.8340873387784011
 40
0.8340873387784011
 40
0.856978973675907
 40
0.856978973675907
 40
0.856978973675907
 40
0.8798628771169771
 40
0.8798628771169771
 40
0.8798628771169771
 40
0.9479108720506332
 40
0.9479108720506332
 40
0.9479108720506332
 40
0.9616346419731939
 40
0.9616346419731939
 40
0.9616346419731939
 40
0.9707870434638032
 40
0.9707870434638032
 40
0.9707870434638032
 40
1.0
 40
1.0
 40
1.0
 40
1.0
 10
668.70590000000004
 20
276.01920000000001
 30
0.0
 10
668.78266666666673
 20
276.06193333333334
 30
0.0
 10
668.8594333333333
 20
276.10466666666667
 30
0.0
 10
668.93619999999999
 20
276.1474
 30
0.0
 10
669.05486859459324
 20
276.21345867923083
 30
0.0
 10
669.15895946827027
 20
275.9960438691183
 30
0.0
 10
669.26769999999999
 20
275.91050000000001
 30
0.0
 10
669.41987573553592
 20
275.79078657763029
 30
0.0
 10
669.5131168368315
 20
275.62606038124193
 30
0.0
 10
669.69380000000001
 20
275.53160000000003
 30
0.0
 10
669.84459146730012
 20
275.45276686890242
 30
0.0
 10
670.01117060410502
 20
275.59852820009019
 30
0.0
 10
670.16730000000007
 20
275.57900000000001
 30
0.0
 10
670.24653406677487
 20
275.56908963878288
 30
0.0
 10
670.32614558818614
 20
275.56098446937426
 30
0.0
 10
670.40410000000008
 20
275.53160000000003
 30
0.0
 10
670.57499192939201
 20
275.46718326528702
 30
0.0
 10
670.7274602932722
 20
275.38991026186574
 30
0.0
 10
670.87760000000003
 20
275.29480000000001
 30
0.0
 10
671.12743486195086
 20
275.13653501027017
 30
0.0
 10
671.33918425718548
 20
274.93542047612095
 30
0.0
 10
671.58789999999999
 20
274.77370000000002
 30
0.0
 10
671.61779848609956
 20
274.7542593431578
 30
0.0
 10
671.64946268056099
 20
274.73861587894947
 30
0.0
 10
671.68259999999998
 20
274.72630000000004
 30
0.0
 10
671.86101093246612
 20
274.65999145468896
 30
0.0
 10
672.07216366664113
 20
274.7348086109281
 30
0.0
 10
672.25080000000003
 20
274.67900000000003
 30
0.0
 10
672.50303913057678
 20
274.60019679555381
 30
0.0
 10
672.71622463057759
 20
274.39207056237984
 30
0.0
 10
672.96109999999999
 20
274.30000000000001
 30
0.0
 10
673.04870120354497
 20
274.2670628691871
 30
0.0
 10
673.17728709845312
 20
274.32057829164785
 30
0.0
 10
673.24520000000007
 20
274.2527
 30
0.0
 10
673.27679643657018
 20
274.22111966566456
 30
0.0
 10
673.30832225475922
 20
274.18948891254001
 30
0.0
 10
673.33990000000006
 20
274.15790000000004
 30
0.0
 10
673.43459989656753
 20
274.06316661332551
 30
0.0
 10
673.52927667342158
 20
273.96841001249885
 30
0.0
 10
673.62400000000002
 20
273.87369999999999
 30
0.0
 10
673.63978445167936
 20
273.85791776694475
 30
0.0
 10
673.65560012769583
 20
273.84216676669467
 30
0.0
 10
673.67140000000006
 20
273.82640000000004
 30
0.0
 10
673.7187995934222
 20
273.77909972335732
 30
0.0
 10
673.76597832849234
 20
273.73161952667465
 30
0.0
 10
673.8134
 20
273.68430000000001
 30
0.0
 10
673.94378208625278
 20
273.55419875278147
 30
0.0
 10
674.1118350564451
 20
273.47268545545143
 30
0.0
 10
674.28700000000003
 20
273.40010000000001
 30
0.0
 10
674.41083724773421
 20
273.34878389275724
 30
0.0
 10
674.53656756921532
 20
273.32084622450361
 30
0.0
 10
674.66579999999999
 20
273.30529999999999
 30
0.0
 10
674.79116608243498
 20
273.29021888413121
 30
0.0
 10
674.92155376029484
 20
273.33321565193012
 30
0.0
 10
675.04460000000006
 20
273.30529999999999
 30
0.0
 10
675.2199878164347
 20
273.26550955010009
 30
0.0
 10
675.39010962200871
 20
273.20298412621827
 30
0.0
 10
675.56550000000004
 20
273.16320000000002
 30
0.0
 10
675.7072900007048
 20
273.13103750996413
 30
0.0
 10
675.84962201827432
 20
273.10049293299488
 30
0.0
 10
675.99160000000006
 20
273.06850000000003
 30
0.0
 10
676.1186031673335
 20
273.03988145103028
 30
0.0
 10
676.26572762646879
 20
273.0515171545797
 30
0.0
 10
676.37040000000002
 20
272.97380000000004
 30
0.0
 10
676.43389643741205
 20
272.92665515867157
 30
0.0
 10
676.49674019624115
 20
272.87907816624107
 30
0.0
 10
676.55990000000008
 20
272.83170000000001
 30
0.0
 10
676.62303847206829
 20
272.78433783533467
 30
0.0
 10
676.68617133236808
 20
272.73696969127275
 30
0.0
 10
676.74930000000006
 20
272.68960000000004
 30
0.0
 10
676.93702056376867
 20
272.54874061733233
 30
0.0
 10
677.05628056809701
 20
272.32087302192912
 30
0.0
 10
677.22280000000001
 20
272.16849999999999
 30
0.0
 10
677.25638327270781
 20
272.13776974413577
 30
0.0
 10
677.33055909405266
 20
272.13987955557968
 30
0.0
 10
677.36480000000006
 20
272.16849999999999
 30
0.0
 10
677.38763530840299
 20
272.18758701469443
 30
0.0
 10
677.391837737439
 20
272.2469084316707
 30
0.0
 10
677.36480000000006
 20
272.26320000000004
 30
0.0
 10
677.27850000000001
 20
272.3152
 30
0.0
 10
677.19220000000007
 20
272.36720000000003
 30
0.0
 10
677.10590000000002
 20
272.41919999999999
 30
0.0
  0
SPLINE
  5
247
100
AcDbEntity
  8
1
  6
CONTINUOUS
 62
     3
100
AcDbSpline
210
0.0
220
0.0
230
1.0
 70
     8
 71
     3
 72
    56
 73
    52
 74
     0
 42
0.0
 43
0.0
 12
0.9984822683193426
 22
0.0550741305138828
 32
0.0
 13
0.9368441266587442
 23
-0.3497471691736974
 33
0.0
 40
0.0
 40
0.0
 40
0.0
 40
0.0
 40
0.0898151247994209
 40
0.0898151247994209
 40
0.0898151247994209
 40
0.1991144640097765
 40
0.1991144640097765
 40
0.1991144640097765
 40
0.2548462106768233
 40
0.2548462106768233
 40
0.2548462106768233
 40
0.3018615983057352
 40
0.3018615983057352
 40
0.3018615983057352
 40
0.3712780909089362
 40
0.3712780909089362
 40
0.3712780909089362
 40
0.4249540583502706
 40
0.4249540583502706
 40
0.4249540583502706
 40
0.5010312179899067
 40
0.5010312179899067
 40
0.5010312179899067
 40
0.5751189881176658
 40
0.5751189881176658
 40
0.5751189881176658
 40
0.7289643727047828
 40
0.7289643727047828
 40
0.7289643727047828
 40
0.7430667895023484
 40
0.7430667895023484
 40
0.7430667895023484
 40
0.796758391348683
 40
0.796758391348683
 40
0.796758391348683
 40
0.801746979040449
 40
0.801746979040449
 40
0.801746979040449
 40
0.8419284023849679
 40
0.8419284023849679
 40
0.8419284023849679
 40
0.8753599195585519
 40
0.8753599195585519
 40
0.8753599195585519
 40
0.940149224083474
 40
0.940149224083474
 40
0.940149224083474
 40
0.9471892686391287
 40
0.9471892686391287
 40
0.9471892686391287
 40
1.0
 40
1.0
 40
1.0
 40
1.0
 10
677.12830000000008
 20
272.40570000000002
 30
0.0
 10
677.41233333333332
 20
272.42136666666664
 30
0.0
 10
677.69636666666668
 20
272.43703333333337
 30
0.0
 10
677.98040000000003
 20
272.45269999999999
 30
0.0
 10
678.3260506431003
 20
272.47176534470805
 30
0.0
 10
678.6156816082871
 20
272.72654337005918
 30
0.0
 10
678.92740000000003
 20
272.87900000000002
 30
0.0
 10
679.08634524673175
 20
272.95673765458201
 30
0.0
 10
679.24452764001182
 20
273.03434382426695
 30
0.0
 10
679.40100000000007
 20
273.11590000000001
 30
0.0
 10
679.53300032473419
 20
273.18470091590393
 30
0.0
 10
679.6420382372844
 20
273.29588557196365
 30
0.0
 10
679.77980000000002
 20
273.35270000000003
 30
0.0
 10
679.98320018161792
 20
273.43658441577196
 30
0.0
 10
680.19076959832523
 20
273.50910956960087
 30
0.0
 10
680.3954
 20
273.58949999999999
 30
0.0
 10
680.5536294691924
 20
273.6516615118091
 30
0.0
 10
680.71174305846603
 20
273.71420813147904
 30
0.0
 10
680.86890000000005
 20
273.779
 30
0.0
 10
681.09164500674137
 20
273.87083218411863
 30
0.0
 10
681.26435427570118
 20
274.06067910752893
 30
0.0
 10
681.48450000000003
 20
274.15790000000004
 30
0.0
 10
681.69888899524813
 20
274.2525786021867
 30
0.0
 10
681.92895972162842
 20
274.3079669313525
 30
0.0
 10
682.14740000000006
 20
274.39480000000003
 30
0.0
 10
682.60099751788255
 20
274.5751113633724
 30
0.0
 10
683.04041365111368
 20
274.7666329145639
 30
0.0
 10
683.47320000000002
 20
275.01050000000004
 30
0.0
 10
683.51287186596255
 20
275.03285436110912
 30
0.0
 10
683.53995272309317
 20
275.07137323509016
 30
0.0
 10
683.56790000000001
 20
275.1053
 30
0.0
 10
683.67430261778611
 20
275.23446809789561
 30
0.0
 10
683.61739184161434
 20
275.46977147325595
 30
0.0
 10
683.75729999999999
 20
275.57900000000001
 30
0.0
 10
683.7702991300855
 20
275.5891486278183
 30
0.0
 10
683.79089833118212
 20
275.57155283344031
 30
0.0
 10
683.80470000000003
 20
275.57900000000001
 30
0.0
 10
683.91586787594019
 20
275.63898446268593
 30
0.0
 10
684.0229725583082
 20
275.71077564255864
 30
0.0
 10
684.13620000000003
 20
275.76839999999999
 30
0.0
 10
684.23040684600915
 20
275.81634428706269
 30
0.0
 10
684.32527319571875
 20
275.86400296917208
 30
0.0
 10
684.4203
 20
275.91050000000001
 30
0.0
 10
684.60445917317315
 20
276.00060988864709
 30
0.0
 10
684.80400833903036
 20
276.06473979836568
 30
0.0
 10
684.98850000000004
 20
276.1474
 30
0.0
 10
685.00854697415571
 20
276.15638190691737
 30
0.0
 10
685.01491078007359
 20
276.20249846436309
 30
0.0
 10
685.03579999999999
 20
276.19470000000001
 30
0.0
 10
685.1925
 20
276.13620000000003
 30
0.0
 10
685.3492
 20
276.07769999999999
 30
0.0
 10
685.5059
 20
276.01920000000001
 30
0.0
  0
LINE
  5
248
100
AcDbEntity
  8
1
  6
CONTINUOUS
 62
     3
100
AcDbLine
 10
692.8131
 20
253.683
 30
0.0
 11
692.8131
 21
248.7187
 31
0.0
  0
LINE
  5
249
100
AcDbEntity
  8
1
  6
CONTINUOUS
 62
     3
100
AcDbLine
 10
701.2131
 20
257.283
 30
0.0
 11
701.2131
 21
252.483
 31
0.0
  0
LINE
  5
24A
100
AcDbEntity
  8
1
  6
CONTINUOUS
 62
     3
100
AcDbLine
 10
684.4131
 20
257.283
 30
0.0
 11
684.4131
 21
252.483
 31
0.0
  0
LINE
  5
24B
100
AcDbEntity
  8
1
  6
CONTINUOUS
 62
     3
100
AcDbLine
 10
684.4131
 20
257.283
 30
0.0
 11
692.8131
 21
253.683
 31
0.0
  0
LINE
  5
24C
100
AcDbEntity
  8
1
  6
CONTINUOUS
 62
     3
100
AcDbLine
 10
701.2131
 20
257.283
 30
0.0
 11
692.8131
 21
253.683
 31
0.0
  0
LINE
  5
24D
100
AcDbEntity
  8
1
  6
CONTINUOUS
 62
     3
100
AcDbLine
 10
690.994
 20
260.1034
 30
0.0
 11
684.4131
 21
257.283
 31
0.0
  0
LINE
  5
24E
100
AcDbEntity
  8
1
  6
CONTINUOUS
 62
     3
100
AcDbLine
 10
694.5713
 20
260.1295
 30
0.0
 11
701.2131
 21
257.283
 31
0.0
  0
LINE
  5
24F
100
AcDbEntity
  8
1
  6
CONTINUOUS
 62
     3
100
AcDbLine
 10
690.9885
 20
258.7955
 30
0.0
 11
688.7461
 21
257.8345
 31
0.0
  0
LINE
  5
250
100
AcDbEntity
  8
1
  6
CONTINUOUS
 62
     3
100
AcDbLine
 10
688.746
 20
256.7315
 30
0.0
 11
692.3405
 21
255.1911
 31
0.0
  0
LINE
  5
251
100
AcDbEntity
  8
1
  6
CONTINUOUS
 62
     3
100
AcDbLine
 10
696.88
 20
256.7316
 30
0.0
 11
693.2859
 21
255.1911
 31
0.0
  0
LINE
  5
252
100
AcDbEntity
  8
1
  6
CONTINUOUS
 62
     3
100
AcDbLine
 10
694.5768
 20
258.8216
 30
0.0
 11
696.88
 21
257.8345
 31
0.0
  0
ARC
  5
253
100
AcDbEntity
  8
1
  6
CONTINUOUS
 62
     3
100
AcDbCircle
 10
688.982405
 20
257.282963
 30
0.0
 40
0.6
210
0.0
220
0.0
230
1.0
100
AcDbArc
 50
113.197989
 51
246.799217
  0
ARC
  5
254
100
AcDbEntity
  8
1
  6
CONTINUOUS
 62
     3
100
AcDbCircle
 10
696.643635
 20
257.283049
 30
0.0
 40
0.6
210
0.0
220
0.0
230
1.0
100
AcDbArc
 50
293.196586
 51
66.799739
  0
ARC
  5
255
100
AcDbEntity
  8
1
  6
CONTINUOUS
 62
     3
100
AcDbCircle
 10
692.813099
 20
255.641303
 30
0.0
 40
0.6
210
0.0
220
0.0
230
1.0
100
AcDbArc
 50
246.803572
 51
293.198864
  0
ARC
  5
256
100
AcDbEntity
  8
1
  6
CONTINUOUS
 62
     3
100
AcDbCircle
 10
692.813104
 20
256.294066
 30
0.0
 40
1.2
210
0.0
220
0.0
230
1.0
100
AcDbArc
 50
246.804067
 51
293.201397
  0
SPLINE
  5
257
100
AcDbEntity
  8
1
  6
CONTINUOUS
 62
     3
100
AcDbSpline
210
0.0
220
0.0
230
1.0
 70
     8
 71
     3
 72
    86
 73
    82
 74
     0
 42
0.0
 43
0.0
 12
0.8737453549926776
 22
0.486383649631358
 32
0.0
 13
-0.8565281131644734
 23
0.5161003694620914
 33
0.0
 40
0.0
 40
0.0
 40
0.0
 40
0.0
 40
0.0254738238970882
 40
0.0254738238970882
 40
0.0254738238970882
 40
0.0648521506115799
 40
0.0648521506115799
 40
0.0648521506115799
 40
0.1199597147979249
 40
0.1199597147979249
 40
0.1199597147979249
 40
0.1659504441900224
 40
0.1659504441900224
 40
0.1659504441900224
 40
0.1892902675640029
 40
0.1892902675640029
 40
0.1892902675640029
 40
0.2404559085487177
 40
0.2404559085487177
 40
0.2404559085487177
 40
0.3255963496128028
 40
0.3255963496128028
 40
0.3255963496128028
 40
0.3358312075468349
 40
0.3358312075468349
 40
0.3358312075468349
 40
0.3909355605415997
 40
0.3909355605415997
 40
0.3909355605415997
 40
0.4687443345409088
 40
0.4687443345409088
 40
0.4687443345409088
 40
0.4965794829462685
 40
0.4965794829462685
 40
0.4965794829462685
 40
0.509529768988799
 40
0.509529768988799
 40
0.509529768988799
 40
0.5483669544620504
 40
0.5483669544620504
 40
0.5483669544620504
 40
0.5548386832283969
 40
0.5548386832283969
 40
0.5548386832283969
 40
0.5742538599055838
 40
0.5742538599055838
 40
0.5742538599055838
 40
0.6276343325810139
 40
0.6276343325810139
 40
0.6276343325810139
 40
0.6653729958358635
 40
0.6653729958358635
 40
0.6653729958358635
 40
0.7019826017983003
 40
0.7019826017983003
 40
0.7019826017983003
 40
0.7541652517164679
 40
0.7541652517164679
 40
0.7541652517164679
 40
0.7963510207045589
 40
0.7963510207045589
 40
0.7963510207045589
 40
0.8340873387784011
 40
0.8340873387784011
 40
0.8340873387784011
 40
0.856978973675907
 40
0.856978973675907
 40
0.856978973675907
 40
0.8798628771169771
 40
0.8798628771169771
 40
0.8798628771169771
 40
0.9479108720506332
 40
0.9479108720506332
 40
0.9479108720506332
 40
0.9616346419731939
 40
0.9616346419731939
 40
0.9616346419731939
 40
0.9707870434638032
 40
0.9707870434638032
 40
0.9707870434638032
 40
1.0
 40
1.0
 40
1.0
 40
1.0
 10
684.2713
 20
252.4041
 30
0.0
 10
684.34806666666668
 20
252.44683333333336
 30
0.0
 10
684.42483333333337
 20
252.48956666666666
 30
0.0
 10
684.50160000000005
 20
252.53230000000002
 30
0.0
 10
684.6202685945932
 20
252.59835867923081
 30
0.0
 10
684.72435946827034
 20
252.38094386911831
 30
0.0
 10
684.83310000000006
 20
252.2954
 30
0.0
 10
684.98527573553599
 20
252.1756865776303
 30
0.0
 10
685.07851683683145
 20
252.01096038124189
 30
0.0
 10
685.25920000000008
 20
251.91650000000001
 30
0.0
 10
685.40999146730007
 20
251.83766686890243
 30
0.0
 10
685.57657060410509
 20
251.98342820009017
 30
0.0
 10
685.73270000000002
 20
251.96390000000002
 30
0.0
 10
685.81193406677482
 20
251.95398963878287
 30
0.0
 10
685.89154558818609
 20
251.94588446937428
 30
0.0
 10
685.96950000000004
 20
251.91650000000001
 30
0.0
 10
686.14039192939197
 20
251.85208326528704
 30
0.0
 10
686.29286029327216
 20
251.77481026186572
 30
0.0
 10
686.44299999999998
 20
251.67970000000003
 30
0.0
 10
686.69283486195093
 20
251.52143501027018
 30
0.0
 10
686.90458425718555
 20
251.32032047612097
 30
0.0
 10
687.15330000000006
 20
251.15860000000001
 30
0.0
 10
687.18319848609963
 20
251.13915934315781
 30
0.0
 10
687.21486268056105
 20
251.12351587894946
 30
0.0
 10
687.24800000000005
 20
251.11120000000003
 30
0.0
 10
687.42641093246618
 20
251.04489145468898
 30
0.0
 10
687.63756366664109
 20
251.11970861092811
 30
0.0
 10
687.81619999999998
 20
251.06390000000002
 30
0.0
 10
688.06843913057673
 20
250.98509679555383
 30
0.0
 10
688.28162463057765
 20
250.77697056237986
 30
0.0
 10
688.52650000000006
 20
250.6849
 30
0.0
 10
688.61410120354492
 20
250.65196286918709
 30
0.0
 10
688.74268709845319
 20
250.70547829164784
 30
0.0
 10
688.81060000000002
 20
250.63760000000002
 30
0.0
 10
688.84219643657013
 20
250.60601966566458
 30
0.0
 10
688.87372225475917
 20
250.57438891254
 30
0.0
 10
688.90530000000001
 20
250.5428
 30
0.0
 10
688.99999989656749
 20
250.44806661332549
 30
0.0
 10
689.09467667342153
 20
250.35331001249884
 30
0.0
 10
689.18939999999998
 20
250.2586
 30
0.0
 10
689.20518445167932
 20
250.24281776694474
 30
0.0
 10
689.22100012769579
 20
250.22706676669466
 30
0.0
 10
689.23680000000002
 20
250.21130000000002
 30
0.0
 10
689.28419959342227
 20
250.16399972335731
 30
0.0
 10
689.33137832849229
 20
250.11651952667467
 30
0.0
 10
689.37880000000007
 20
250.06920000000002
 30
0.0
 10
689.50918208625285
 20
249.93909875278149
 30
0.0
 10
689.67723505644517
 20
249.85758545545144
 30
0.0
 10
689.85239999999999
 20
249.78500000000003
 30
0.0
 10
689.97623724773416
 20
249.73368389275723
 30
0.0
 10
690.10196756921539
 20
249.7057462245036
 30
0.0
 10
690.23120000000006
 20
249.6902
 30
0.0
 10
690.35656608243505
 20
249.67511888413122
 30
0.0
 10
690.4869537602948
 20
249.71811565193008
 30
0.0
 10
690.61000000000001
 20
249.6902
 30
0.0
 10
690.78538781643465
 20
249.65040955010005
 30
0.0
 10
690.95550962200878
 20
249.58788412621828
 30
0.0
 10
691.1309
 20
249.54810000000001
 30
0.0
 10
691.27269000070476
 20
249.51593750996415
 30
0.0
 10
691.41502201827427
 20
249.4853929329949
 30
0.0
 10
691.55700000000002
 20
249.45340000000002
 30
0.0
 10
691.68400316733346
 20
249.42478145103027
 30
0.0
 10
691.83112762646874
 20
249.43641715457971
 30
0.0
 10
691.93580000000009
 20
249.3587
 30
0.0
 10
691.99929643741211
 20
249.31155515867155
 30
0.0
 10
692.06214019624122
 20
249.26397816624106
 30
0.0
 10
692.12530000000004
 20
249.2166
 30
0.0
 10
692.18843847206836
 20
249.16923783533468
 30
0.0
 10
692.25157133236814
 20
249.12186969127274
 30
0.0
 10
692.31470000000002
 20
249.0745
 30
0.0
 10
692.50242056376874
 20
248.93364061733234
 30
0.0
 10
692.62168056809696
 20
248.7057730219291
 30
0.0
 10
692.78820000000007
 20
248.55340000000001
 30
0.0
 10
692.82178327270776
 20
248.52266974413578
 30
0.0
 10
692.89595909405261
 20
248.52477955557967
 30
0.0
 10
692.93020000000001
 20
248.55340000000001
 30
0.0
 10
692.95303530840295
 20
248.57248701469442
 30
0.0
 10
692.95723773743896
 20
248.63180843167069
 30
0.0
 10
692.93020000000001
 20
248.6481
 30
0.0
 10
692.84390000000008
 20
248.70010000000002
 30
0.0
 10
692.75760000000002
 20
248.75210000000001
 30
0.0
 10
692.67130000000009
 20
248.80410000000001
 30
0.0
  0
SPLINE
  5
258
100
AcDbEntity
  8
1
  6
CONTINUOUS
 62
     3
100
AcDbSpline
210
0.0
220
0.0
230
1.0
 70
     8
 71
     3
 72
    56
 73
    52
 74
     0
 42
0.0
 43
0.0
 12
0.9984822683193384
 22
0.0550741305139604
 32
0.0
 13
0.9368441266587442
 23
-0.3497471691736974
 33
0.0
 40
0.0
 40
0.0
 40
0.0
 40
0.0
 40
0.0898151247994209
 40
0.0898151247994209
 40
0.0898151247994209
 40
0.1991144640097765
 40
0.1991144640097765
 40
0.1991144640097765
 40
0.2548462106768233
 40
0.2548462106768233
 40
0.2548462106768233
 40
0.3018615983057352
 40
0.3018615983057352
 40
0.3018615983057352
 40
0.3712780909089362
 40
0.3712780909089362
 40
0.3712780909089362
 40
0.4249540583502706
 40
0.4249540583502706
 40
0.4249540583502706
 40
0.5010312179899067
 40
0.5010312179899067
 40
0.5010312179899067
 40
0.5751189881176658
 40
0.5751189881176658
 40
0.5751189881176658
 40
0.7289643727047828
 40
0.7289643727047828
 40
0.7289643727047828
 40
0.7430667895023484
 40
0.7430667895023484
 40
0.7430667895023484
 40
0.796758391348683
 40
0.796758391348683
 40
0.796758391348683
 40
0.801746979040449
 40
0.801746979040449
 40
0.801746979040449
 40
0.8419284023849679
 40
0.8419284023849679
 40
0.8419284023849679
 40
0.8753599195585519
 40
0.8753599195585519
 40
0.8753599195585519
 40
0.940149224083474
 40
0.940149224083474
 40
0.940149224083474
 40
0.9471892686391287
 40
0.9471892686391287
 40
0.9471892686391287
 40
1.0
 40
1.0
 40
1.0
 40
1.0
 10
692.8854
 20
248.85090000000002
 30
0.0
 10
693.16943333333336
 20
248.86656666666667
 30
0.0
 10
693.45346666666671
 20
248.88223333333337
 30
0.0
 10
693.73750000000007
 20
248.89790000000002
 30
0.0
 10
694.08315064310023
 20
248.91696534470805
 30
0.0
 10
694.37278160828714
 20
249.1717433700592
 30
0.0
 10
694.68450000000007
 20
249.32420000000002
 30
0.0
 10
694.84344524673168
 20
249.40193765458201
 30
0.0
 10
695.00162764001186
 20
249.47954382426698
 30
0.0
 10
695.15809999999999
 20
249.56110000000001
 30
0.0
 10
695.29010032473423
 20
249.62990091590393
 30
0.0
 10
695.39913823728432
 20
249.74108557196362
 30
0.0
 10
695.53690000000006
 20
249.7979
 30
0.0
 10
695.74030018161795
 20
249.88178441577196
 30
0.0
 10
695.94786959832527
 20
249.95430956960084
 30
0.0
 10
696.15250000000003
 20
250.03470000000002
 30
0.0
 10
696.31072946919244
 20
250.09686151180912
 30
0.0
 10
696.46884305846606
 20
250.15940813147907
 30
0.0
 10
696.62600000000009
 20
250.22420000000002
 30
0.0
 10
696.8487450067413
 20
250.31603218411865
 30
0.0
 10
697.0214542757011
 20
250.50587910752893
 30
0.0
 10
697.24160000000006
 20
250.60310000000001
 30
0.0
 10
697.45598899524816
 20
250.6977786021867
 30
0.0
 10
697.68605972162845
 20
250.7531669313525
 30
0.0
 10
697.90449999999998
 20
250.84
 30
0.0
 10
698.35809751788258
 20
251.0203113633724
 30
0.0
 10
698.79751365111372
 20
251.2118329145639
 30
0.0
 10
699.23030000000006
 20
251.45570000000001
 30
0.0
 10
699.26997186596259
 20
251.47805436110912
 30
0.0
 10
699.2970527230932
 20
251.51657323509019
 30
0.0
 10
699.32500000000005
 20
251.5505
 30
0.0
 10
699.43140261778615
 20
251.67966809789561
 30
0.0
 10
699.37449184161426
 20
251.91497147325595
 30
0.0
 10
699.51440000000002
 20
252.02420000000001
 30
0.0
 10
699.52739913008554
 20
252.0343486278183
 30
0.0
 10
699.54799833118216
 20
252.01675283344031
 30
0.0
 10
699.56180000000006
 20
252.02420000000001
 30
0.0
 10
699.67296787594023
 20
252.08418446268595
 30
0.0
 10
699.78007255830812
 20
252.15597564255867
 30
0.0
 10
699.89330000000007
 20
252.21360000000001
 30
0.0
 10
699.98750684600918
 20
252.26154428706269
 30
0.0
 10
700.08237319571867
 20
252.30920296917211
 30
0.0
 10
700.17740000000003
 20
252.35570000000001
 30
0.0
 10
700.36155917317308
 20
252.44580988864709
 30
0.0
 10
700.56110833903028
 20
252.50993979836568
 30
0.0
 10
700.74560000000008
 20
252.5926
 30
0.0
 10
700.76564697415574
 20
252.60158190691737
 30
0.0
 10
700.77201078007363
 20
252.64769846436309
 30
0.0
 10
700.79290000000003
 20
252.63990000000001
 30
0.0
 10
700.94960000000003
 20
252.5814
 30
0.0
 10
701.10630000000003
 20
252.52290000000002
 30
0.0
 10
701.26300000000003
 20
252.46440000000001
 30
0.0
  0
LINE
  5
259
100
AcDbEntity
  8
1
  6
CONTINUOUS
 62
     3
100
AcDbLine
 10
691.2355
 20
317.5909
 30
0.0
 11
691.2094
 21
311.3946
 31
0.0
  0
LINE
  5
25A
100
AcDbEntity
  8
1
  6
CONTINUOUS
 62
     3
100
AcDbLine
 10
693.9827
 20
400.2114
 30
0.0
 11
694.1248
 21
366.3992
 31
0.0
  0
LINE
  5
25B
100
AcDbEntity
  8
1
  6
CONTINUOUS
 62
     3
100
AcDbLine
 10
688.276
 20
294.9142
 30
0.0
 11
694.9907
 21
296.9759
 31
0.0
  0
LINE
  5
25C
100
AcDbEntity
  8
1
  6
CONTINUOUS
 62
     3
100
AcDbLine
 10
691.2094
 20
311.3947
 30
0.0
 11
691.1439
 21
295.7948
 31
0.0
  0
LINE
  5
25D
100
AcDbEntity
  8
1
  6
CONTINUOUS
 62
     3
100
AcDbLine
 10
691.0914
 20
283.3002
 30
0.0
 11
690.9827
 21
257.4114
 31
0.0
  0
LINE
  5
25E
100
AcDbEntity
  8
1
  6
CONTINUOUS
 62
     3
100
AcDbLine
 10
694.1248
 20
366.3992
 30
0.0
 11
694.4172
 21
296.7998
 31
0.0
  0
LINE
  5
25F
100
AcDbEntity
  8
1
  6
CONTINUOUS
 62
     3
100
AcDbLine
 10
694.4695
 20
284.3374
 30
0.0
 11
694.5852
 21
256.8115
 31
0.0
  0
LINE
  5
260
100
AcDbEntity
  8
1
  6
CONTINUOUS
 62
     3
100
AcDbLine
 10
689.2836
 20
293.9682
 30
0.0
 11
695.9983
 21
296.0299
 31
0.0
  0
LINE
  5
261
100
AcDbEntity
  8
1
  6
CONTINUOUS
 62
     3
100
AcDbLine
 10
690.0393
 20
293.2588
 30
0.0
 11
696.754
 21
295.3205
 31
0.0
  0
LINE
  5
262
100
AcDbEntity
  8
1
  6
CONTINUOUS
 62
     3
100
AcDbLine
 10
688.276
 20
294.9142
 30
0.0
 11
690.0393
 21
293.2588
 31
0.0
  0
LINE
  5
263
100
AcDbEntity
  8
1
  6
CONTINUOUS
 62
     3
100
AcDbLine
 10
694.9907
 20
296.9759
 30
0.0
 11
696.754
 21
295.3205
 31
0.0
  0
LINE
  5
264
100
AcDbEntity
  8
1
  6
CONTINUOUS
 62
     3
100
AcDbLine
 10
688.276
 20
294.9142
 30
0.0
 11
688.276
 21
284.6584
 31
0.0
  0
LINE
  5
265
100
AcDbEntity
  8
1
  6
CONTINUOUS
 62
     3
100
AcDbLine
 10
689.2836
 20
293.9682
 30
0.0
 11
689.2836
 21
283.7124
 31
0.0
  0
LINE
  5
266
100
AcDbEntity
  8
1
  6
CONTINUOUS
 62
     3
100
AcDbLine
 10
690.0393
 20
293.2588
 30
0.0
 11
690.0393
 21
283.003
 31
0.0
  0
LINE
  5
267
100
AcDbEntity
  8
1
  6
CONTINUOUS
 62
     3
100
AcDbLine
 10
688.276
 20
284.6584
 30
0.0
 11
690.0393
 21
283.003
 31
0.0
  0
LINE
  5
268
100
AcDbEntity
  8
1
  6
CONTINUOUS
 62
     3
100
AcDbLine
 10
690.0393
 20
283.003
 30
0.0
 11
696.754
 21
285.0647
 31
0.0
  0
LINE
  5
269
100
AcDbEntity
  8
1
  6
CONTINUOUS
 62
     3
100
AcDbLine
 10
696.754
 20
295.3205
 30
0.0
 11
696.754
 21
285.0647
 31
0.0
  0
LINE
  5
26A
100
AcDbEntity
  8
1
  6
CONTINUOUS
 62
     3
100
AcDbLine
 10
690.7174
 20
291.1879
 30
0.0
 11
694.7321
 21
292.4206
 31
0.0
  0
LINE
  5
26B
100
AcDbEntity
  8
1
  6
CONTINUOUS
 62
     3
100
AcDbLine
 10
690.7174
 20
291.1879
 30
0.0
 11
690.7174
 21
285.9532
 31
0.0
  0
LINE
  5
26C
100
AcDbEntity
  8
1
  6
CONTINUOUS
 62
     3
100
AcDbLine
 10
691.3174
 20
290.7445
 30
0.0
 11
691.3174
 21
285.5098
 31
0.0
  0
LINE
  5
26D
100
AcDbEntity
  8
1
  6
CONTINUOUS
 62
     3
100
AcDbLine
 10
691.3174
 20
290.7445
 30
0.0
 11
695.3321
 21
291.9772
 31
0.0
  0
LINE
  5
26E
100
AcDbEntity
  8
1
  6
CONTINUOUS
 62
     3
100
AcDbLine
 10
690.7174
 20
291.1879
 30
0.0
 11
691.3174
 21
290.7445
 31
0.0
  0
LINE
  5
26F
100
AcDbEntity
  8
1
  6
CONTINUOUS
 62
     3
100
AcDbLine
 10
694.7321
 20
292.4206
 30
0.0
 11
695.3321
 21
291.9772
 31
0.0
  0
LINE
  5
270
100
AcDbEntity
  8
1
  6
CONTINUOUS
 62
     3
100
AcDbLine
 10
695.3321
 20
291.9772
 30
0.0
 11
695.3321
 21
286.9333
 31
0.0
  0
LINE
  5
271
100
AcDbEntity
  8
1
  6
CONTINUOUS
 62
     3
100
AcDbLine
 10
690.7174
 20
285.9532
 30
0.0
 11
691.3174
 21
285.5098
 31
0.0
  0
LINE
  5
272
100
AcDbEntity
  8
1
  6
CONTINUOUS
 62
     3
100
AcDbLine
 10
691.3174
 20
285.5098
 30
0.0
 11
695.3321
 21
286.9333
 31
0.0
  0
LINE
  5
273
100
AcDbEntity
  8
1
  6
CONTINUOUS
 62
     3
100
AcDbLine
 10
695.9975
 20
290.8517
 30
0.0
 11
696.7638
 21
291.087
 31
0.0
  0
LINE
  5
274
100
AcDbEntity
  8
1
  6
CONTINUOUS
 62
     3
100
AcDbLine
 10
695.9975
 20
288.7734
 30
0.0
 11
696.7251
 21
288.9967
 31
0.0
  0
LINE
  5
275
100
AcDbEntity
  8
1
  6
CONTINUOUS
 62
     3
100
AcDbLine
 10
695.9975
 20
290.8517
 30
0.0
 11
695.9975
 21
288.7734
 31
0.0
  0
LINE
  5
276
100
AcDbEntity
  8
1
  6
CONTINUOUS
 62
     3
100
AcDbLine
 10
696.3651
 20
290.4994
 30
0.0
 11
697.139
 21
290.1123
 31
0.0
  0
LINE
  5
277
100
AcDbEntity
  8
1
  6
CONTINUOUS
 62
     3
100
AcDbLine
 10
696.3651
 20
289.2608
 30
0.0
 11
697.139
 21
289.6479
 31
0.0
  0
ELLIPSE
  5
278
100
AcDbEntity
  8
1
  6
CONTINUOUS
 62
     3
100
AcDbEllipse
 10
697.139
 20
289.8801
 30
0.0
 11
-0.0
 21
-0.2322
 31
0.0
210
0.0
220
0.0
230
1.0
 40
0.688491
 41
0.0
 42
3.1415926535897931
  0
ELLIPSE
  5
279
100
AcDbEntity
  8
1
  6
CONTINUOUS
 62
     3
100
AcDbEllipse
 10
697.39055
 20
289.30915
 30
0.0
 11
-0.2942917997138337
 21
0.5574496657564314
 31
0.0
210
0.0
220
0.0
230
1.0
 40
0.62472
 41
4.717650469340299
 42
1.3291772599905638
  0
LINE
  5
27A
100
AcDbEntity
  8
1
  6
CONTINUOUS
 62
     3
100
AcDbLine
 10
696.6974
 20
289.1766
 30
0.0
 11
698.0372
 21
289.588
 31
0.0
  0
LINE
  5
27B
100
AcDbEntity
  8
1
  6
CONTINUOUS
 62
     3
100
AcDbLine
 10
697.058
 20
288.0021
 30
0.0
 11
698.3978
 21
288.4135
 31
0.0
  0
LINE
  5
27C
100
AcDbEntity
  8
1
  6
CONTINUOUS
 62
     3
100
AcDbLine
 10
698.0372
 20
289.588
 30
0.0
 11
698.3978
 21
288.4135
 31
0.0
  0
LINE
  5
27D
100
AcDbEntity
  8
1
  6
CONTINUOUS
 62
     3
100
AcDbLine
 10
696.6974
 20
289.1766
 30
0.0
 11
697.058
 21
288.0021
 31
0.0
  0
LINE
  5
27E
100
AcDbEntity
  8
1
  6
CONTINUOUS
 62
     3
100
AcDbLine
 10
668.1608
 20
240.2306
 30
0.0
 11
676.3502
 21
232.5938
 31
0.0
  0
LINE
  5
27F
100
AcDbEntity
  8
1
  6
CONTINUOUS
 62
     3
100
AcDbLine
 10
668.1608
 20
240.2306
 30
0.0
 11
660.524
 21
232.5938
 31
0.0
  0
LINE
  5
280
100
AcDbEntity
  8
1
  6
CONTINUOUS
 62
     3
100
AcDbLine
 10
668.1608
 20
224.957
 30
0.0
 11
660.524
 21
232.5938
 31
0.0
  0
LINE
  5
281
100
AcDbEntity
  8
1
  6
CONTINUOUS
 62
     3
100
AcDbLine
 10
668.1608
 20
224.957
 30
0.0
 11
676.3502
 21
232.5938
 31
0.0
  0
LINE
  5
282
100
AcDbEntity
  8
1
  6
CONTINUOUS
 62
     3
100
AcDbLine
 10
668.1752
 20
239.3965
 30
0.0
 11
661.3725
 21
232.5938
 31
0.0
  0
LINE
  5
283
100
AcDbEntity
  8
1
  6
CONTINUOUS
 62
     3
100
AcDbLine
 10
668.1752
 20
239.3965
 30
0.0
 11
675.4703
 21
232.5937
 31
0.0
  0
LINE
  5
284
100
AcDbEntity
  8
1
  6
CONTINUOUS
 62
     3
100
AcDbLine
 10
668.1752
 20
225.791
 30
0.0
 11
675.4703
 21
232.5937
 31
0.0
  0
LINE
  5
285
100
AcDbEntity
  8
1
  6
CONTINUOUS
 62
     3
100
AcDbLine
 10
668.1752
 20
225.791
 30
0.0
 11
661.3725
 21
232.5938
 31
0.0
  0
LINE
  5
286
100
AcDbEntity
  8
1
  6
CONTINUOUS
 62
     3
100
AcDbLine
 10
660.524
 20
232.5938
 30
0.0
 11
660.524
 21
231.3938
 31
0.0
  0
LINE
  5
287
100
AcDbEntity
  8
1
  6
CONTINUOUS
 62
     3
100
AcDbLine
 10
668.1608
 20
224.957
 30
0.0
 11
668.1608
 21
223.757
 31
0.0
  0
LINE
  5
288
100
AcDbEntity
  8
1
  6
CONTINUOUS
 62
     3
100
AcDbLine
 10
676.3502
 20
232.5938
 30
0.0
 11
676.3502
 21
231.3938
 31
0.0
  0
SPLINE
  5
289
100
AcDbEntity
  8
1
  6
CONTINUOUS
 62
     3
100
AcDbSpline
210
0.0
220
0.0
230
1.0
 70
     8
 71
     3
 72
   143
 73
   139
 74
     0
 42
0.0
 43
0.0
 12
0.761476466606883
 22
-0.6481925568871464
 32
0.0
 13
0.627006804141534
 23
0.7790137787999774
 33
0.0
 40
0.0
 40
0.0
 40
0.0
 40
0.0
 40
0.0394243489236015
 40
0.0394243489236015
 40
0.0394243489236015
 40
0.0831915986748223
 40
0.0831915986748223
 40
0.0831915986748223
 40
0.104137010351989
 40
0.104137010351989
 40
0.104137010351989
 40
0.1303613152932616
 40
0.1303613152932616
 40
0.1303613152932616
 40
0.1504385173723501
 40
0.1504385173723501
 40
0.1504385173723501
 40
0.1656843394193313
 40
0.1656843394193313
 40
0.1656843394193313
 40
0.1960604601452172
 40
0.1960604601452172
 40
0.1960604601452172
 40
0.2208881524520993
 40
0.2208881524520993
 40
0.2208881524520993
 40
0.2491579830358049
 40
0.2491579830358049
 40
0.2491579830358049
 40
0.2720482794155702
 40
0.2720482794155702
 40
0.2720482794155702
 40
0.2951480006853001
 40
0.2951480006853001
 40
0.2951480006853001
 40
0.3263279002778231
 40
0.3263279002778231
 40
0.3263279002778231
 40
0.3375386382386879
 40
0.3375386382386879
 40
0.3375386382386879
 40
0.3679087710354309
 40
0.3679087710354309
 40
0.3679087710354309
 40
0.3762046299649122
 40
0.3762046299649122
 40
0.3762046299649122
 40
0.4101168455989444
 40
0.4101168455989444
 40
0.4101168455989444
 40
0.4135598270475562
 40
0.4135598270475562
 40
0.4135598270475562
 40
0.438817041074044
 40
0.438817041074044
 40
0.438817041074044
 40
0.4594768863756389
 40
0.4594768863756389
 40
0.4594768863756389
 40
0.4877732805577759
 40
0.4877732805577759
 40
0.4877732805577759
 40
0.5322818942101544
 40
0.5322818942101544
 40
0.5322818942101544
 40
0.5660884835778915
 40
0.5660884835778915
 40
0.5660884835778915
 40
0.5944805110649586
 40
0.5944805110649586
 40
0.5944805110649586
 40
0.6130244399982271
 40
0.6130244399982271
 40
0.6130244399982271
 40
0.6373724854483167
 40
0.6373724854483167
 40
0.6373724854483167
 40
0.6602624867478455
 40
0.6602624867478455
 40
0.6602624867478455
 40
0.6726779620253788
 40
0.6726779620253788
 40
0.6726779620253788
 40
0.6957776832951087
 40
0.6957776832951087
 40
0.6957776832951087
 40
0.7143216122283772
 40
0.7143216122283772
 40
0.7143216122283772
 40
0.7398129425745943
 40
0.7398129425745943
 40
0.7398129425745943
 40
0.7594138298795888
 40
0.7594138298795888
 40
0.7594138298795888
 40
0.7718298468667313
 40
0.7718298468667313
 40
0.7718298468667313
 40
0.7999232984896204
 40
0.7999232984896204
 40
0.7999232984896204
 40
0.8138663106674088
 40
0.8138663106674088
 40
0.8138663106674088
 40
0.8648757834856595
 40
0.8648757834856595
 40
0.8648757834856595
 40
0.8670533161495233
 40
0.8670533161495233
 40
0.8670533161495233
 40
0.8767915382687749
 40
0.8767915382687749
 40
0.8767915382687749
 40
0.8913188851839333
 40
0.8913188851839333
 40
0.8913188851839333
 40
0.9092790305955638
 40
0.9092790305955638
 40
0.9092790305955638
 40
0.9225269876711744
 40
0.9225269876711744
 40
0.9225269876711744
 40
0.9432421799089634
 40
0.9432421799089634
 40
0.9432421799089634
 40
0.9454197125728272
 40
0.9454197125728272
 40
0.9454197125728272
 40
0.9547863548216422
 40
0.9547863548216422
 40
0.9547863548216422
 40
0.9594055991602623
 40
0.9594055991602623
 40
0.9594055991602623
 40
0.9751080105073798
 40
0.9751080105073798
 40
0.9751080105073798
 40
1.0
 40
1.0
 40
1.0
 40
1.0
 10
660.524
 20
231.3938
 30
0.0
 10
660.75276666666673
 20
231.19906666666665
 30
0.0
 10
660.98153333333335
 20
231.00433333333336
 30
0.0
 10
661.21030000000007
 20
230.80960000000002
 30
0.0
 10
661.46426710682931
 20
230.59341526473898
 30
0.0
 10
661.72567967851148
 20
230.3859595934066
 30
0.0
 10
661.9846
 20
230.17590000000001
 30
0.0
 10
662.10850983568741
 20
230.07537312920854
 30
0.0
 10
662.24900605483333
 20
229.99813993799805
 30
0.0
 10
662.37180000000001
 20
229.89420000000001
 30
0.0
 10
662.52554182721383
 20
229.7640639744279
 30
0.0
 10
662.64060038423918
 20
229.59809053715622
 30
0.0
 10
662.75900000000001
 20
229.43650000000002
 30
0.0
 10
662.84964617792696
 20
229.31278705981649
 30
0.0
 10
662.91399592247456
 20
229.17115803130881
 30
0.0
 10
663.00530000000003
 20
229.04920000000001
 30
0.0
 10
663.07463265465151
 20
228.95658996224623
 30
0.0
 10
663.17560478082851
 20
228.8876744066626
 30
0.0
 10
663.25170000000003
 20
228.80270000000002
 30
0.0
 10
663.40331383604598
 20
228.63339506993853
 30
0.0
 10
663.45435280599906
 20
228.37433589267383
 30
0.0
 10
663.6037
 20
228.20410000000001
 30
0.0
 10
663.72576779835435
 20
228.06495898192753
 30
0.0
 10
664.04822437391988
 20
228.27721425963375
 30
0.0
 10
664.16690000000006
 20
228.1337
 30
0.0
 10
664.30202894401282
 20
227.97028876725054
 30
0.0
 10
664.34379137096039
 20
227.73194308209514
 30
0.0
 10
664.4837
 20
227.57040000000001
 30
0.0
 10
664.59698507878113
 20
227.43959734038347
 30
0.0
 10
664.72376882684375
 20
227.31574174956322
 30
0.0
 10
664.8356
 20
227.18310000000002
 30
0.0
 10
664.94845432422187
 20
227.04924470198173
 30
0.0
 10
665.03106347036305
 20
226.89317978602779
 30
0.0
 10
665.15240000000006
 20
226.76060000000001
 30
0.0
 10
665.31617950048883
 20
226.58164440274086
 30
0.0
 10
665.54133518881031
 20
226.48300457165675
 30
0.0
 10
665.75080000000003
 20
226.3733
 30
0.0
 10
665.82611310687207
 20
226.33385570344916
 30
0.0
 10
665.93344861700962
 20
226.3664803790397
 30
0.0
 10
665.99720000000002
 20
226.30280000000002
 30
0.0
 10
666.16990388213105
 20
226.13028846911473
 30
0.0
 10
666.24848512742415
 20
225.91407067698967
 30
0.0
 10
666.34910000000002
 20
225.70430000000002
 30
0.0
 10
666.37658380439041
 20
225.64699936336817
 30
0.0
 10
666.38272756012941
 20
225.58207399693202
 30
0.0
 10
666.41950000000008
 20
225.5282
 30
0.0
 10
666.56982016827692
 20
225.30797125496517
 30
0.0
 10
666.79992060275356
 20
225.17724692850877
 30
0.0
 10
667.01790000000005
 20
225.03530000000001
 30
0.0
 10
667.04003063956065
 20
225.02088865493141
 30
0.0
 10
667.06708191041491
 20
225.0150348532741
 30
0.0
 10
667.0883
 20
225.0001
 30
0.0
 10
667.2439528369041
 20
224.89054007607137
 30
0.0
 10
667.30124000349031
 20
224.66573958421654
 30
0.0
 10
667.44029999999998
 20
224.54240000000001
 30
0.0
 10
667.5540480172009
 20
224.44151093413532
 30
0.0
 10
667.76080560665821
 20
224.41367769766813
 30
0.0
 10
667.86270000000002
 20
224.33110000000002
 30
0.0
 10
668.0022578658436
 20
224.21799890704602
 30
0.0
 10
668.02922802632861
 20
223.72036477059569
 30
0.0
 10
668.16079999999999
 20
223.75700000000001
 30
0.0
 10
668.36775520800018
 20
223.8146251257007
 30
0.0
 10
668.58687989299108
 20
224.32624566000788
 30
0.0
 10
668.84820000000002
 20
224.50720000000001
 30
0.0
 10
669.04668610923238
 20
224.64464416112804
 30
0.0
 10
669.3307201041406
 20
224.71793924653204
 30
0.0
 10
669.51700000000005
 20
224.89450000000002
 30
0.0
 10
669.67344476483561
 20
225.0427822686155
 30
0.0
 10
669.78302292380897
 20
225.23810404021987
 30
0.0
 10
669.9393
 20
225.38740000000001
 30
0.0
 10
670.04137058992558
 20
225.48491095336351
 30
0.0
 10
670.14478533687191
 20
225.58163760824294
 30
0.0
 10
670.25610000000006
 20
225.66910000000001
 30
0.0
 10
670.40225535288448
 20
225.78393749195428
 30
0.0
 10
670.56474182378508
 20
225.87409575054906
 30
0.0
 10
670.71370000000002
 20
225.98600000000002
 30
0.0
 10
670.85373805168365
 20
226.09120304065496
 30
0.0
 10
670.99061597170635
 20
226.20011651118111
 30
0.0
 10
671.10090000000002
 20
226.33800000000002
 30
0.0
 10
671.16071776098954
 20
226.41278763431293
 30
0.0
 10
671.18855268824279
 20
226.50615788163054
 30
0.0
 10
671.24160000000006
 20
226.58450000000002
 30
0.0
 10
671.3402976405099
 20
226.7302601144992
 30
0.0
 10
671.4464943617329
 20
226.87143102288098
 30
0.0
 10
671.55840000000001
 20
227.00700000000001
 30
0.0
 10
671.64823529190801
 20
227.11583168017037
 30
0.0
 10
671.78525882680151
 20
227.18095891137614
 30
0.0
 10
671.87520000000006
 20
227.28870000000001
 30
0.0
 10
671.99883723814844
 20
227.4368058135984
 30
0.0
 10
672.00257926369954
 20
227.66141416513446
 30
0.0
 10
672.12160000000006
 20
227.8168
 30
0.0
 10
672.21311786146498
 20
227.93627984654495
 30
0.0
 10
672.31581046295094
 20
228.03986756639546
 30
0.0
 10
672.4384
 20
228.1337
 30
0.0
 10
672.5160533098101
 20
228.19313736482189
 30
0.0
 10
672.59197154497156
 20
228.25263889968801
 30
0.0
 10
672.6848
 20
228.27460000000002
 30
0.0
 10
672.89484092643181
 20
228.32429090408291
 30
0.0
 10
673.10683170485777
 20
228.3484973878081
 30
0.0
 10
673.31830000000002
 20
228.3802
 30
0.0
 10
673.42325346225039
 20
228.39593426839087
 30
0.0
 10
673.53125627655982
 20
228.38393945164398
 30
0.0
 10
673.63510000000008
 20
228.41540000000001
 30
0.0
 10
674.01500453717063
 20
228.53049607577981
 30
0.0
 10
673.9612061228321
 20
229.14592365278034
 30
0.0
 10
674.19830000000002
 20
229.43650000000002
 30
0.0
 10
674.20842125068964
 20
229.44890435261252
 30
0.0
 10
674.22508912535932
 20
229.45745521527095
 30
0.0
 10
674.23350000000005
 20
229.4717
 30
0.0
 10
674.27111457489377
 20
229.53540461395804
 30
0.0
 10
674.26519090949012
 20
229.61967783777837
 30
0.0
 10
674.3039
 20
229.68290000000002
 30
0.0
 10
674.36164569317918
 20
229.77721395916763
 30
0.0
 10
674.42186994091458
 20
229.8704241679975
 30
0.0
 10
674.47980000000007
 20
229.96460000000002
 30
0.0
 10
674.55141887789659
 20
230.08102949307292
 30
0.0
 10
674.61329589389595
 20
230.20297729588543
 30
0.0
 10
674.69100000000003
 20
230.3167
 30
0.0
 10
674.74831694475029
 20
230.40058537331424
 30
0.0
 10
674.86159639220455
 20
230.42633806086812
 30
0.0
 10
674.93740000000003
 20
230.49280000000002
 30
0.0
 10
675.05593044955071
 20
230.59672333231117
 30
0.0
 10
675.1732154244537
 20
230.7031633648765
 30
0.0
 10
675.2894
 20
230.80960000000002
 30
0.0
 10
675.3016130514352
 20
230.82078837068721
 30
0.0
 10
675.30950470079233
 20
230.83475732765646
 30
0.0
 10
675.32460000000003
 20
230.84480000000002
 30
0.0
 10
675.38953232899053
 20
230.88799848819045
 30
0.0
 10
675.46448693626951
 20
230.87697469079151
 30
0.0
 10
675.53579999999999
 20
230.8801
 30
0.0
 10
675.57096868234703
 20
230.88164127450204
 30
0.0
 10
675.60622546565878
 20
230.87857806264279
 30
0.0
 10
675.64139999999998
 20
230.8801
 30
0.0
 10
675.76097042465824
 20
230.8852735921887
 30
0.0
 10
675.91837425232177
 20
230.8572855550847
 30
0.0
 10
675.99340000000007
 20
230.95050000000001
 30
0.0
 10
676.11233333333337
 20
231.09826666666666
 30
0.0
 10
676.23126666666678
 20
231.24603333333337
 30
0.0
 10
676.35020000000009
 20
231.3938
 30
0.0
  0
LINE
  5
28A
100
AcDbEntity
  8
1
  6
HIDDEN
 62
     3
100
AcDbLine
 10
672.1998
 20
236.4231
 30
0.0
 11
686.4328
 21
251.6859
 31
0.0
  0
LINE
  5
28B
100
AcDbEntity
  8
1
  6
HIDDEN
 62
     3
100
AcDbLine
 10
673.0774
 20
235.6046
 30
0.0
 11
687.3104
 21
250.8674
 31
0.0
  0
LINE
  5
28C
100
AcDbEntity
  8
1
  6
HIDDEN
 62
     3
100
AcDbLine
 10
645.2504
 20
256.3525
 30
0.0
 11
664.7666
 21
236.8364
 31
0.0
  0
LINE
  5
28D
100
AcDbEntity
  8
1
  6
HIDDEN
 62
     3
100
AcDbLine
 10
673.2348
 20
228.3682
 30
0.0
 11
691.5185
 21
210.0845
 31
0.0
  0
LINE
  5
28E
100
AcDbEntity
  8
1
  6
HIDDEN
 62
     3
100
AcDbLine
 10
644.4018
 20
255.5039
 30
0.0
 11
663.918
 21
235.9878
 31
0.0
  0
LINE
  5
28F
100
AcDbEntity
  8
1
  6
HIDDEN
 62
     3
100
AcDbLine
 10
672.1081
 20
227.7976
 30
0.0
 11
690.6699
 21
209.2359
 31
0.0
  0
LINE
  5
290
100
AcDbEntity
  8
1
  6
HIDDEN
 62
     3
100
AcDbLine
 10
692.7827
 20
394.4129
 30
0.0
 11
692.7827
 21
296.2979
 31
0.0
  0
CIRCLE
  5
291
100
AcDbEntity
  8
1
  6
CONTINUOUS
 62
     3
100
AcDbCircle
 10
692.7826
 20
395.0652
 30
0.0
 40
0.6
210
0.0
220
0.0
230
1.0
  0
SPLINE
  5
292
100
AcDbEntity
  8
1
  6
CONTINUOUS
 62
     3
100
AcDbSpline
210
0.0
220
0.0
230
1.0
 70
     8
 71
     3
 72
    68
 73
    64
 74
     0
 42
0.0
 43
0.0
 12
-0.4470445725540843
 22
-0.8945116825117132
 32
0.0
 13
1.0
 23
0.0
 33
0.0
 40
0.0
 40
0.0
 40
0.0
 40
0.0
 40
0.0388281547854182
 40
0.0388281547854182
 40
0.0388281547854182
 40
0.0521843729043419
 40
0.0521843729043419
 40
0.0521843729043419
 40
0.1410998301603662
 40
0.1410998301603662
 40
0.1410998301603662
 40
0.2062106714651134
 40
0.2062106714651134
 40
0.2062106714651134
 40
0.281538047381687
 40
0.281538047381687
 40
0.281538047381687
 40
0.3224593595567557
 40
0.3224593595567557
 40
0.3224593595567557
 40
0.348359885600442
 40
0.348359885600442
 40
0.348359885600442
 40
0.3972717758800715
 40
0.3972717758800715
 40
0.3972717758800715
 40
0.4360155665633399
 40
0.4360155665633399
 40
0.4360155665633399
 40
0.4974329258216869
 40
0.4974329258216869
 40
0.4974329258216869
 40
0.5546946988941965
 40
0.5546946988941965
 40
0.5546946988941965
 40
0.5943652476156944
 40
0.5943652476156944
 40
0.5943652476156944
 40
0.6501041231416765
 40
0.6501041231416765
 40
0.6501041231416765
 40
0.6942684509158817
 40
0.6942684509158817
 40
0.6942684509158817
 40
0.7458780749018813
 40
0.7458780749018813
 40
0.7458780749018813
 40
0.7706877547510718
 40
0.7706877547510718
 40
0.7706877547510718
 40
0.8237120983892958
 40
0.8237120983892958
 40
0.8237120983892958
 40
0.8683701768094435
 40
0.8683701768094435
 40
0.8683701768094435
 40
0.9264858628343462
 40
0.9264858628343462
 40
0.9264858628343462
 40
0.9752100086359871
 40
0.9752100086359871
 40
0.9752100086359871
 40
1.0
 40
1.0
 40
1.0
 40
1.0
 10
692.75229999999999
 20
394.55110000000002
 30
0.0
 10
692.71703333333335
 20
394.48053333333337
 30
0.0
 10
692.6817666666667
 20
394.40996666666666
 30
0.0
 10
692.64650000000006
 20
394.33940000000001
 30
0.0
 10
692.63436887260218
 20
394.31512627911025
 30
0.0
 10
692.62735623406161
 20
394.28851456590178
 30
0.0
 10
692.61630000000002
 20
394.2638
 30
0.0
 10
692.54269607272306
 20
394.09926937400456
 30
0.0
 10
692.40133611625072
 20
393.96654884300023
 30
0.0
 10
692.3442
 20
393.79509999999999
 30
0.0
 10
692.30236047386165
 20
393.66955176853418
 30
0.0
 10
692.26274788133492
 20
393.54339176896877
 30
0.0
 10
692.22329999999999
 20
393.4171
 30
0.0
 10
692.17766235614715
 20
393.27099180410448
 30
0.0
 10
692.1312950009808
 20
393.12516566510232
 30
0.0
 10
692.08720000000005
 20
392.97860000000003
 30
0.0
 10
692.06324555742799
 20
392.89897875655674
 30
0.0
 10
692.04768261421566
 20
392.81712461519521
 30
0.0
 10
692.02679999999998
 20
392.73660000000001
 30
0.0
 10
692.01358266495856
 20
392.68563316188641
 30
0.0
 10
691.99824178913082
 20
392.63553167522133
 30
0.0
 10
691.98140000000001
 20
392.58539999999999
 30
0.0
 10
691.94959509608839
 20
392.49072875688233
 30
0.0
 10
691.90251989253636
 20
392.39923582815857
 30
0.0
 10
691.83030000000008
 20
392.32840000000004
 30
0.0
 10
691.77309361554831
 20
392.2722899522517
 30
0.0
 10
691.70762390393622
 20
392.22894142500894
 30
0.0
 10
691.64890000000003
 20
392.17720000000003
 30
0.0
 10
691.5558098030549
 20
392.09517855521449
 30
0.0
 10
691.48068694800111
 20
391.99943048120292
 30
0.0
 10
691.3768
 20
391.92009999999999
 30
0.0
 10
691.2799421911742
 20
391.84613713238036
 30
0.0
 10
691.1593116269031
 20
391.83127058123728
 30
0.0
 10
691.04420000000005
 20
391.8143
 30
0.0
 10
690.96445148439454
 20
391.8025429021373
 30
0.0
 10
690.88173036604439
 20
391.79892286549853
 30
0.0
 10
690.80240000000003
 20
391.8143
 30
0.0
 10
690.69093732703789
 20
391.83590555408358
 30
0.0
 10
690.58672877432218
 20
391.87584409571201
 30
0.0
 10
690.48490000000004
 20
391.93520000000001
 30
0.0
 10
690.40421664706957
 20
391.98223025648747
 30
0.0
 10
690.32757619083168
 20
392.02936735820407
 30
0.0
 10
690.27330000000006
 20
392.10160000000002
 30
0.0
 10
690.20987383817703
 20
392.18600974131124
 30
0.0
 10
690.15318278463212
 20
392.27385399812715
 30
0.0
 10
690.09190000000001
 20
392.35860000000002
 30
0.0
 10
690.06244025684441
 20
392.39933893612431
 30
0.0
 10
690.02914106671687
 20
392.43477954440067
 30
0.0
 10
690.00120000000004
 20
392.4796
 30
0.0
 10
689.94148311803224
 20
392.57539225746439
 30
0.0
 10
689.95389460558363
 20
392.69062848850405
 30
0.0
 10
689.94080000000008
 20
392.7971
 30
0.0
 10
689.92977148209854
 20
392.88677226718244
 30
0.0
 10
689.90703733613873
 20
392.9799924371253
 30
0.0
 10
689.94080000000008
 20
393.0693
 30
0.0
 10
689.98473696374174
 20
393.18552018831275
 30
0.0
 10
690.0996799370447
 20
393.24717003681218
 30
0.0
 10
690.21289999999999
 20
393.29610000000002
 30
0.0
 10
690.30782361240904
 20
393.33712284294484
 30
0.0
 10
690.40110549959161
 20
393.37170000000003
 30
0.0
 10
690.50010000000009
 20
393.37170000000003
 30
0.0
 10
690.55046666666669
 20
393.37170000000003
 30
0.0
 10
690.6008333333333
 20
393.37170000000003
 30
0.0
 10
690.65120000000002
 20
393.37170000000003
 30
0.0
  0
LINE
  5
293
100
AcDbEntity
  8
1
  6
CONTINUOUS
 62
     3
100
AcDbLine
 10
693.0298
 20
263.1429
 30
0.0
 11
693.0298
 21
258.9429
 31
0.0
  0
LINE
  5
294
100
AcDbEntity
  8
1
  6
CONTINUOUS
 62
     3
100
AcDbLine
 10
694.2298
 20
263.1429
 30
0.0
 11
694.2298
 21
258.9429
 31
0.0
  0
ARC
  5
295
100
AcDbEntity
  8
1
  6
CONTINUOUS
 62
     3
100
AcDbCircle
 10
693.6298
 20
263.255744
 30
0.0
 40
0.610519
210
0.0
220
0.0
230
1.0
100
AcDbArc
 50
349.34865
 51
190.651353
  0
ARC
  5
296
100
AcDbEntity
  8
1
  6
CONTINUOUS
 62
     3
100
AcDbCircle
 10
693.6298
 20
258.839456
 30
0.0
 40
0.610519
210
0.0
220
0.0
230
1.0
100
AcDbArc
 50
169.348647
 51
10.65135
  0
LINE
  5
297
100
AcDbEntity
  8
1
  6
CONTINUOUS
 62
     7
100
AcDbLine
 10
690.0513
 20
394.688
 30
0.0
 11
693.177
 21
426.0847
 31
0.0
  0
LINE
  5
298
100
AcDbEntity
  8
1
  6
CONTINUOUS
 62
     7
100
AcDbLine
 10
693.177
 20
426.0847
 30
0.0
 11
692.7862
 21
395.5999
 31
0.0
  0
LINE
  5
299
100
AcDbEntity
  8
1
  6
CONTINUOUS
 62
     7
100
AcDbLine
 10
693.177
 20
426.0847
 30
0.0
 11
701.2515
 21
426.0847
 31
0.0
  0
LINE
  5
29A
100
AcDbEntity
  8
1
  6
CONTINUOUS
 62
     7
100
AcDbLine
 10
673.9022
 20
385.308
 30
0.0
 11
667.3905
 21
385.308
 31
0.0
  0
LINE
  5
29B
100
AcDbEntity
  8
1
  6
CONTINUOUS
 62
     7
100
AcDbLine
 10
673.9022
 20
385.308
 30
0.0
 11
690.0499
 21
392.2627
 31
0.0
  0
INSERT
  5
29C
100
AcDbEntity
  8
1
  6
CONTINUOUS
 62
     1
100
AcDbBlockReference
  2
LDR
 10
692.7862
 20
395.5999
 30
0.0
 41
240.000002
 42
240.000002
 50
269.265537
210
0.0
220
0.0
230
1.0
  0
INSERT
  5
29D
100
AcDbEntity
  8
1
  6
CONTINUOUS
 62
     1
100
AcDbBlockReference
  2
LDR
 10
692.7862
 20
395.5999
 30
0.0
 41
240.000002
 42
240.000002
 50
269.265537
210
0.0
220
0.0
230
1.0
  0
INSERT
  5
29E
100
AcDbEntity
  8
1
  6
CONTINUOUS
 62
     1
100
AcDbBlockReference
  2
LDR
 10
690.0513
 20
394.688
 30
0.0
 41
240.000002
 42
240.000002
 50
264.314649
210
0.0
220
0.0
230
1.0
  0
INSERT
  5
29F
100
AcDbEntity
  8
1
  6
CONTINUOUS
 62
     1
100
AcDbBlockReference
  2
LDR
 10
690.0513
 20
394.688
 30
0.0
 41
240.000002
 42
240.000002
 50
264.314649
210
0.0
220
0.0
230
1.0
  0
INSERT
  5
2A0
100
AcDbEntity
  8
1
  6
CONTINUOUS
 62
     1
100
AcDbBlockReference
  2
LDR
 10
690.0499
 20
392.2627
 30
0.0
 41
240.000001
 42
240.000001
 50
23.301203
210
0.0
220
0.0
230
1.0
  0
INSERT
  5
2A1
100
AcDbEntity
  8
1
  6
CONTINUOUS
 62
     1
100
AcDbBlockReference
  2
LDR
 10
690.0499
 20
392.2627
 30
0.0
 41
240.000001
 42
240.000001
 50
23.301203
210
0.0
220
0.0
230
1.0
  0
LINE
  5
2A2
100
AcDbEntity
  8
1
  6
CONTINUOUS
 62
     7
100
AcDbLine
 10
695.7836
 20
296.5962
 30
0.0
 11
706.5404
 21
313.3346
 31
0.0
  0
INSERT
  5
2A3
100
AcDbEntity
  8
1
  6
CONTINUOUS
 62
     1
100
AcDbBlockReference
  2
LDR
 10
695.7836
 20
296.5962
 30
0.0
 41
239.999999
 42
239.999999
 50
237.27356
210
0.0
220
0.0
230
1.0
  0
INSERT
  5
2A4
100
AcDbEntity
  8
1
  6
CONTINUOUS
 62
     1
100
AcDbBlockReference
  2
LDR
 10
695.7836
 20
296.5962
 30
0.0
 41
239.999999
 42
239.999999
 50
237.27356
210
0.0
220
0.0
230
1.0
  0
LINE
  5
2A5
100
AcDbEntity
  8
1
  6
CONTINUOUS
 62
     7
100
AcDbLine
 10
698.4609
 20
288.1334
 30
0.0
 11
701.1381
 21
282.1345
 31
0.0
  0
LINE
  5
2A6
100
AcDbEntity
  8
1
  6
CONTINUOUS
 62
     7
100
AcDbLine
 10
701.1381
 20
282.1345
 30
0.0
 11
705.9571
 21
282.1345
 31
0.0
  0
LINE
  5
2A7
100
AcDbEntity
  8
1
  6
CONTINUOUS
 62
     7
100
AcDbLine
 10
695.7836
 20
284.3841
 30
0.0
 11
698.9963
 21
272.2791
 31
0.0
  0
LINE
  5
2A8
100
AcDbEntity
  8
1
  6
CONTINUOUS
 62
     7
100
AcDbLine
 10
698.9963
 20
272.2791
 30
0.0
 11
704.4579
 21
272.2791
 31
0.0
  0
INSERT
  5
2A9
100
AcDbEntity
  8
1
  6
CONTINUOUS
 62
     1
100
AcDbBlockReference
  2
LDR
 10
698.4609
 20
288.1334
 30
0.0
 41
240.0
 42
240.0
 50
114.050338
210
0.0
220
0.0
230
1.0
  0
INSERT
  5
2AA
100
AcDbEntity
  8
1
  6
CONTINUOUS
 62
     1
100
AcDbBlockReference
  2
LDR
 10
695.7836
 20
284.3841
 30
0.0
 41
240.000001
 42
240.000001
 50
104.863785
210
0.0
220
0.0
230
1.0
  0
LINE
  5
2AB
100
AcDbEntity
  8
1
  6
CONTINUOUS
 62
     7
100
AcDbLine
 10
675.4436
 20
233.4757
 30
0.0
 11
684.4935
 21
239.7707
 31
0.0
  0
LINE
  5
2AC
100
AcDbEntity
  8
1
  6
CONTINUOUS
 62
     7
100
AcDbLine
 10
684.4935
 20
239.7707
 30
0.0
 11
690.307
 21
239.7707
 31
0.0
  0
INSERT
  5
2AD
100
AcDbEntity
  8
1
  6
CONTINUOUS
 62
     1
100
AcDbBlockReference
  2
LDR
 10
675.4436
 20
233.4757
 30
0.0
 41
240.0
 42
240.0
 50
214.822003
210
0.0
220
0.0
230
1.0
  0
TEXT
  5
2AE
100
AcDbEntity
  8
1
  6
CONTINUOUS
 62
     7
100
AcDbText
 10
690.1272
 20
238.152
 30
0.0
 40
3.0
  1
TYPE "H" JUNCTION BOX
  7
MONOTXT
210
0.0
220
0.0
230
1.0
100
AcDbText
  0
TEXT
  5
2AF
100
AcDbEntity
  8
1
  6
CONTINUOUS
 62
     7
100
AcDbText
 10
707.6876
 20
280.7185
 30
0.0
 40
3.0
  1
PADLOCK
  7
MONOTXT
210
0.0
220
0.0
230
1.0
100
AcDbText
  0
TEXT
  5
2B0
100
AcDbEntity
  8
1
  6
CONTINUOUS
 62
     7
100
AcDbText
 10
705.7698
 20
271.2435
 30
0.0
 40
3.0
  1
SEE CIRCUIT BREAKER
  7
MONOTXT
 11
705.7698
 21
274.2435
 31
0.0
210
0.0
220
0.0
230
1.0
100
AcDbText
 73
     3
  0
TEXT
  5
2B1
100
AcDbEntity
  8
1
  6
CONTINUOUS
 62
     7
100
AcDbText
 10
705.7698
 20
265.8435
 30
0.0
 40
3.0
  1
DETAIL ON THIS SHEET.
  7
MONOTXT
 11
705.7698
 21
268.8435
 31
0.0
210
0.0
220
0.0
230
1.0
100
AcDbText
 73
     3
  0
LINE
  5
2B2
100
AcDbEntity
  8
1
  6
CONTINUOUS
 62
     7
100
AcDbLine
 10
706.5404
 20
313.3346
 30
0.0
 11
712.4823
 21
313.3327
 31
0.0
  0
TEXT
  5
2B3
100
AcDbEntity
  8
1
  6
CONTINUOUS
 62
     7
100
AcDbText
 10
702.4753
 20
424.569
 30
0.0
 40
3.0
  1
COUPLING WIRE OUTLETS
  7
MONOTXT
210
0.0
220
0.0
230
1.0
100
AcDbText
  0
TEXT
  5
2B4
100
AcDbEntity
  8
1
  6
CONTINUOUS
 62
     7
100
AcDbText
 10
625.1022
 20
383.8938
 30
0.0
 40
3.0
  1
FLEXIBLE CONDUIT
  7
MONOTXT
210
0.0
220
0.0
230
1.0
100
AcDbText
  0
TEXT
  5
2B5
100
AcDbEntity
  8
1
  6
CONTINUOUS
 62
     7
100
AcDbText
 10
647.3264
 20
462.409
 30
0.0
 40
3.0
  1
NOTE
  7
MONOTXT
 11
647.3264
 21
465.409
 31
0.0
210
0.0
220
0.0
230
1.0
100
AcDbText
 73
     3
  0
TEXT
  5
2B6
100
AcDbEntity
  8
1
  6
CONTINUOUS
 62
     7
100
AcDbText
 10
647.3264
 20
457.009
 30
0.0
 40
3.0
  1
1.   COMPONENTS SHALL BE SIZED AS REQUIRED ACCORDING
  7
MONOTXT
 11
647.3264
 21
460.009
 31
0.0
210
0.0
220
0.0
230
1.0
100
AcDbText
 73
     3
  0
TEXT
  5
2B7
100
AcDbEntity
  8
1
  6
CONTINUOUS
 62
     7
100
AcDbText
 10
647.3264
 20
451.609
 30
0.0
 40
3.0
  1
   TO LOAD.
  7
MONOTXT
 11
647.3264
 21
454.609
 31
0.0
210
0.0
220
0.0
230
1.0
100
AcDbText
 73
     3
  0
LINE
  5
2B8
100
AcDbEntity
  8
1
  6
CONTINUOUS
 62
     7
100
AcDbLine
 10
646.174
 20
461.7861
 30
0.0
 11
659.0526
 21
461.7861
 31
0.0
  0
TEXT
  5
2B9
100
AcDbEntity
  8
1
  6
CONTINUOUS
 62
     7
100
AcDbText
 10
386.8249
 20
251.709
 30
0.0
 40
4.2
  1
120 or 240 VOLT CONTROL CABINET
  7
MONOTXT
210
0.0
220
0.0
230
1.0
100
AcDbText
  0
LINE
  5
2BA
100
AcDbEntity
  8
1
  6
CONTINUOUS
 62
     7
100
AcDbLine
 10
385.9357
 20
249.4422
 30
0.0
 11
509.1634
 21
249.4422
 31
0.0
  0
LINE
  5
2BB
100
AcDbEntity
  8
1
  6
CONTINUOUS
 62
     7
100
AcDbLine
 10
670.2901
 20
185.1446
 30
0.0
 11
745.2321
 21
185.1446
 31
0.0
  0
TEXT
  5
2BC
100
AcDbEntity
  8
1
  6
CONTINUOUS
 62
     7
100
AcDbText
 10
671.1677
 20
187.4114
 30
0.0
 40
4.2
  1
TYPICAL INSTALLATION
  7
MONOTXT
210
0.0
220
0.0
230
1.0
100
AcDbText
  0
LINE
  5
2BD
100
AcDbEntity
  8
1
  6
CONTINUOUS
 62
     5
100
AcDbLine
 10
89.127
 20
163.6396
 30
0.0
 11
187.227
 21
163.6396
 31
0.0
  0
LINE
  5
2BE
100
AcDbEntity
  8
1
  6
CONTINUOUS
 62
     5
100
AcDbLine
 10
187.227
 20
163.6396
 30
0.0
 11
187.227
 21
96.1396
 31
0.0
  0
LINE
  5
2BF
100
AcDbEntity
  8
1
  6
CONTINUOUS
 62
     5
100
AcDbLine
 10
187.227
 20
96.1396
 30
0.0
 11
89.127
 21
96.1396
 31
0.0
  0
LINE
  5
2C0
100
AcDbEntity
  8
1
  6
CONTINUOUS
 62
     5
100
AcDbLine
 10
89.127
 20
96.1396
 30
0.0
 11
89.127
 21
163.6396
 31
0.0
  0
LINE
  5
2C1
100
AcDbEntity
  8
1
  6
CONTINUOUS
 62
     5
100
AcDbLine
 10
92.2034
 20
108.3752
 30
0.0
 11
79.6034
 21
108.3752
 31
0.0
  0
LINE
  5
2C2
100
AcDbEntity
  8
1
  6
CONTINUOUS
 62
     5
100
AcDbLine
 10
92.2034
 20
112.4252
 30
0.0
 11
79.6034
 21
112.4252
 31
0.0
  0
LINE
  5
2C3
100
AcDbEntity
  8
1
  6
CONTINUOUS
 62
     5
100
AcDbLine
 10
98.894
 20
117.152
 30
0.0
 11
104.4126
 21
113.9984
 31
0.0
  0
LINE
  5
2C4
100
AcDbEntity
  8
1
  6
CONTINUOUS
 62
     5
100
AcDbLine
 10
99.5637
 20
118.3241
 30
0.0
 11
98.894
 21
117.152
 31
0.0
  0
LINE
  5
2C5
100
AcDbEntity
  8
1
  6
CONTINUOUS
 62
     5
100
AcDbLine
 10
105.0824
 20
115.1705
 30
0.0
 11
104.4126
 21
113.9984
 31
0.0
  0
ARC
  5
2C6
100
AcDbEntity
  8
1
  6
CONTINUOUS
 62
     5
100
AcDbCircle
 10
92.425702
 20
120.699129
 30
0.0
 40
8.276916
210
0.0
220
0.0
230
1.0
100
AcDbArc
 50
268.460614
 51
331.149475
  0
ARC
  5
2C7
100
AcDbEntity
  8
1
  6
CONTINUOUS
 62
     5
100
AcDbCircle
 10
93.089
 20
120.500397
 30
0.0
 40
12.157499
210
0.0
220
0.0
230
1.0
100
AcDbArc
 50
265.822414
 51
330.125094
  0
LINE
  5
2C8
100
AcDbEntity
  8
1
  6
CONTINUOUS
 62
     5
100
AcDbLine
 10
126.9381
 20
117.4633
 30
0.0
 11
126.9381
 21
121.0633
 31
0.0
  0
LINE
  5
2C9
100
AcDbEntity
  8
1
  6
CONTINUOUS
 62
     5
100
AcDbLine
 10
131.4381
 20
117.4633
 30
0.0
 11
131.4381
 21
121.0633
 31
0.0
  0
ARC
  5
2CA
100
AcDbEntity
  8
1
  6
CONTINUOUS
 62
     5
100
AcDbCircle
 10
129.1881
 20
118.04972
 30
0.0
 40
2.325177
210
0.0
220
0.0
230
1.0
100
AcDbArc
 50
194.609281
 51
345.390719
  0
ELLIPSE
  5
2CB
100
AcDbEntity
  8
1
  6
CONTINUOUS
 62
     5
100
AcDbEllipse
 10
129.16245
 20
123.457775
 30
0.0
 11
3.8781000030703638
 21
-0.1436249170953409
 31
0.0
210
0.0
220
0.0
230
1.0
 40
0.505045
 41
0.0
 42
6.2831753071795866
  0
ELLIPSE
  5
2CC
100
AcDbEntity
  8
1
  6
CONTINUOUS
 62
     5
100
AcDbEllipse
 10
129.16245
 20
123.457775
 30
0.0
 11
3.8781000030703638
 21
-0.1436249170953409
 31
0.0
210
0.0
220
0.0
230
1.0
 40
0.757256
 41
3.1415926535897931
 42
0.0
  0
ARC
  5
2CD
100
AcDbEntity
  8
1
  6
CONTINUOUS
 62
     5
100
AcDbCircle
 10
122.869008
 20
124.812564
 30
0.0
 40
11.663835
210
0.0
220
0.0
230
1.0
100
AcDbArc
 50
93.430353
 51
148.606397
  0
ARC
  5
2CE
100
AcDbEntity
  8
1
  6
CONTINUOUS
 62
     5
100
AcDbCircle
 10
123.944942
 20
124.076656
 30
0.0
 40
9.239531
210
0.0
220
0.0
230
1.0
100
AcDbArc
 50
89.837789
 51
132.894633
  0
ARC
  5
2CF
100
AcDbEntity
  8
1
  6
CONTINUOUS
 62
     5
100
AcDbCircle
 10
154.773192
 20
124.812564
 30
0.0
 40
11.663835
210
0.0
220
0.0
230
1.0
100
AcDbArc
 50
35.718697
 51
86.569647
  0
ARC
  5
2D0
100
AcDbEntity
  8
1
  6
CONTINUOUS
 62
     5
100
AcDbCircle
 10
153.697258
 20
124.076656
 30
0.0
 40
9.239531
210
0.0
220
0.0
230
1.0
100
AcDbArc
 50
38.390536
 51
90.162211
  0
LINE
  5
2D1
100
AcDbEntity
  8
1
  6
CONTINUOUS
 62
     5
100
AcDbLine
 10
142.8711
 20
148.5769
 30
0.0
 11
150.0711
 21
148.5769
 31
0.0
  0
LINE
  5
2D2
100
AcDbEntity
  8
1
  6
CONTINUOUS
 62
     5
100
AcDbLine
 10
142.8711
 20
142.4575
 30
0.0
 11
150.0711
 21
142.4575
 31
0.0
  0
LINE
  5
2D3
100
AcDbEntity
  8
1
  6
CONTINUOUS
 62
     5
100
AcDbLine
 10
142.8035
 20
130.8797
 30
0.0
 11
150.0035
 21
130.8797
 31
0.0
  0
LINE
  5
2D4
100
AcDbEntity
  8
1
  6
CONTINUOUS
 62
     5
100
AcDbLine
 10
142.8035
 20
136.9991
 30
0.0
 11
150.0035
 21
136.9991
 31
0.0
  0
LINE
  5
2D5
100
AcDbEntity
  8
1
  6
CONTINUOUS
 62
     5
100
AcDbLine
 10
142.8035
 20
136.9991
 30
0.0
 11
142.8035
 21
130.8797
 31
0.0
  0
LINE
  5
2D6
100
AcDbEntity
  8
1
  6
CONTINUOUS
 62
     5
100
AcDbLine
 10
150.0035
 20
136.9991
 30
0.0
 11
150.0035
 21
130.8797
 31
0.0
  0
LINE
  5
2D7
100
AcDbEntity
  8
1
  6
CONTINUOUS
 62
     5
100
AcDbLine
 10
136.1478
 20
131.2459
 30
0.0
 11
142.8035
 21
131.2459
 31
0.0
  0
ARC
  5
2D8
100
AcDbEntity
  8
1
  6
CONTINUOUS
 62
     5
100
AcDbCircle
 10
139.13648
 20
125.808631
 30
0.0
 40
6.204478
210
0.0
220
0.0
230
1.0
100
AcDbArc
 50
118.796303
 51
152.578094
  0
LINE
  5
2D9
100
AcDbEntity
  8
1
  6
CONTINUOUS
 62
     5
100
AcDbLine
 10
155.4711
 20
136.4555
 30
0.0
 11
150.0035
 21
136.4555
 31
0.0
  0
LINE
  5
2DA
100
AcDbEntity
  8
1
  6
CONTINUOUS
 62
     5
100
AcDbLine
 10
153.6711
 20
133.3162
 30
0.0
 11
150.0035
 21
133.3162
 31
0.0
  0
LINE
  5
2DB
100
AcDbEntity
  8
1
  6
CONTINUOUS
 62
     5
100
AcDbLine
 10
142.8711
 20
136.4555
 30
0.0
 11
122.1711
 21
136.4555
 31
0.0
  0
LINE
  5
2DC
100
AcDbEntity
  8
1
  6
CONTINUOUS
 62
     5
100
AcDbLine
 10
142.8711
 20
148.5769
 30
0.0
 11
142.8711
 21
142.4575
 31
0.0
  0
POLYLINE
  5
2DD
100
AcDbEntity
  8
1
  6
CONTINUOUS
 62
     5
100
AcDb2dPolyline
 66
     1
 10
0.0
 20
0.0
 30
0.0
  0
VERTEX
  5
2DE
100
AcDbEntity
  8
1
  6
CONTINUOUS
 62
     5
100
AcDbVertex
100
AcDb2dVertex
 10
127.099867
 20
136.4555
 30
0.0
 42
-0.300111
  0
VERTEX
  5
2DF
100
AcDbEntity
  8
1
  6
CONTINUOUS
 62
     5
100
AcDbVertex
100
AcDb2dVertex
 10
135.6033
 20
144.3146
 30
0.0
  0
VERTEX
  5
2E0
100
AcDbEntity
  8
1
  6
CONTINUOUS
 62
     5
100
AcDbVertex
100
AcDb2dVertex
 10
131.6211
 20
144.3335
 30
0.0
  0
VERTEX
  5
2E1
100
AcDbEntity
  8
1
  6
CONTINUOUS
 62
     5
100
AcDbVertex
100
AcDb2dVertex
 10
142.8711
 20
144.3335
 30
0.0
  0
VERTEX
  5
2E2
100
AcDbEntity
  8
1
  6
CONTINUOUS
 62
     5
100
AcDbVertex
100
AcDb2dVertex
 10
142.8711
 20
142.4575
 30
0.0
  0
VERTEX
  5
2E3
100
AcDbEntity
  8
1
  6
CONTINUOUS
 62
     5
100
AcDbVertex
100
AcDb2dVertex
 10
142.8711
 20
148.5769
 30
0.0
  0
VERTEX
  5
2E4
100
AcDbEntity
  8
1
  6
CONTINUOUS
 62
     5
100
AcDbVertex
100
AcDb2dVertex
 10
142.8711
 20
142.4575
 30
0.0
  0
VERTEX
  5
2E5
100
AcDbEntity
  8
1
  6
CONTINUOUS
 62
     5
100
AcDbVertex
100
AcDb2dVertex
 10
143.1213
 20
142.6903
 30
0.0
  0
VERTEX
  5
2E6
100
AcDbEntity
  8
1
  6
CONTINUOUS
 62
     5
100
AcDbVertex
100
AcDb2dVertex
 10
138.3099
 20
142.69025
 30
0.0
 42
0.256175
  0
VERTEX
  5
2E7
100
AcDbEntity
  8
1
  6
CONTINUOUS
 62
     5
100
AcDbVertex
100
AcDb2dVertex
 10
130.35052
 20
136.4555
 30
0.0
  0
VERTEX
  5
2E8
100
AcDbEntity
  8
1
  6
CONTINUOUS
 62
     5
100
AcDbVertex
100
AcDb2dVertex
 10
122.1711
 20
136.4555
 30
0.0
  0
VERTEX
  5
2E9
100
AcDbEntity
  8
1
  6
CONTINUOUS
 62
     5
100
AcDbVertex
100
AcDb2dVertex
 10
142.8711
 20
136.4555
 30
0.0
  0
VERTEX
  5
2EA
100
AcDbEntity
  8
1
  6
CONTINUOUS
 62
     5
100
AcDbVertex
100
AcDb2dVertex
 10
127.0998
 20
136.4555
 30
0.0
  0
SEQEND
  5
2EB
100
AcDbEntity
  8
1
  6
CONTINUOUS
 62
     5
  0
LINE
  5
2EC
100
AcDbEntity
  8
1
  6
CONTINUOUS
 62
     5
100
AcDbLine
 10
117.7955
 20
130.9982
 30
0.0
 11
115.0293
 21
133.4489
 31
0.0
  0
LINE
  5
2ED
100
AcDbEntity
  8
1
  6
CONTINUOUS
 62
     5
100
AcDbLine
 10
121.1105
 20
132.8707
 30
0.0
 11
118.1609
 21
135.484
 31
0.0
  0
LINE
  5
2EE
100
AcDbEntity
  8
1
  6
CONTINUOUS
 62
     5
100
AcDbLine
 10
126.0365
 20
133.3162
 30
0.0
 11
122.4768
 21
136.4698
 31
0.0
  0
LINE
  5
2EF
100
AcDbEntity
  8
1
  6
CONTINUOUS
 62
     5
100
AcDbLine
 10
131.4653
 20
133.3162
 30
0.0
 11
127.9217
 21
136.4555
 31
0.0
  0
LINE
  5
2F0
100
AcDbEntity
  8
1
  6
CONTINUOUS
 62
     5
100
AcDbLine
 10
136.8941
 20
133.3162
 30
0.0
 11
133.3505
 21
136.4555
 31
0.0
  0
LINE
  5
2F1
100
AcDbEntity
  8
1
  6
CONTINUOUS
 62
     5
100
AcDbLine
 10
142.3229
 20
133.3162
 30
0.0
 11
138.7793
 21
136.4555
 31
0.0
  0
LINE
  5
2F2
100
AcDbEntity
  8
1
  6
CONTINUOUS
 62
     5
100
AcDbLine
 10
150.8232
 20
133.3162
 30
0.0
 11
154.3668
 21
136.4555
 31
0.0
  0
LINE
  5
2F3
100
AcDbEntity
  8
1
  6
CONTINUOUS
 62
     5
100
AcDbLine
 10
155.9402
 20
133.0399
 30
0.0
 11
158.9474
 21
135.704
 31
0.0
  0
LINE
  5
2F4
100
AcDbEntity
  8
1
  6
CONTINUOUS
 62
     5
100
AcDbLine
 10
159.4304
 20
131.3224
 30
0.0
 11
162.2177
 21
133.7917
 31
0.0
  0
LINE
  5
2F5
100
AcDbEntity
  8
1
  6
CONTINUOUS
 62
     5
100
AcDbLine
 10
170.5773
 20
121.0766
 30
0.0
 11
166.4924
 21
121.7723
 31
0.0
  0
LINE
  5
2F6
100
AcDbEntity
  8
1
  6
CONTINUOUS
 62
     5
100
AcDbLine
 10
168.1338
 20
125.1446
 30
0.0
 11
163.6347
 21
125.9108
 31
0.0
  0
LINE
  5
2F7
100
AcDbEntity
  8
1
  6
CONTINUOUS
 62
     5
100
AcDbLine
 10
165.6903
 20
129.2125
 30
0.0
 11
160.7771
 21
130.0493
 31
0.0
  0
LINE
  5
2F8
100
AcDbEntity
  8
1
  6
CONTINUOUS
 62
     5
100
AcDbLine
 10
142.8893
 20
133.3162
 30
0.0
 11
140.5524
 21
131.2459
 31
0.0
  0
LINE
  5
2F9
100
AcDbEntity
  8
1
  6
CONTINUOUS
 62
     5
100
AcDbLine
 10
138.4272
 20
133.3162
 30
0.0
 11
136.0904
 21
131.2459
 31
0.0
  0
LINE
  5
2FA
100
AcDbEntity
  8
1
  6
CONTINUOUS
 62
     5
100
AcDbLine
 10
135.5478
 20
130.87
 30
0.0
 11
133.2621
 21
132.8948
 31
0.0
  0
LINE
  5
2FB
100
AcDbEntity
  8
1
  6
CONTINUOUS
 62
     5
100
AcDbLine
 10
133.4067
 20
127.957
 30
0.0
 11
130.3434
 21
130.6711
 31
0.0
  0
LINE
  5
2FC
100
AcDbEntity
  8
1
  6
CONTINUOUS
 62
     5
100
AcDbLine
 10
234.1336
 20
168.6989
 30
0.0
 11
234.1336
 21
87.9314
 31
0.0
  0
LINE
  5
2FD
100
AcDbEntity
  8
1
  6
CONTINUOUS
 62
     5
100
AcDbLine
 10
312.1786
 20
168.6989
 30
0.0
 11
312.1786
 21
87.9314
 31
0.0
  0
LINE
  5
2FE
100
AcDbEntity
  8
1
  6
CONTINUOUS
 62
     5
100
AcDbLine
 10
234.1336
 20
168.6989
 30
0.0
 11
312.1786
 21
168.6989
 31
0.0
  0
LINE
  5
2FF
100
AcDbEntity
  8
1
  6
CONTINUOUS
 62
     5
100
AcDbLine
 10
234.1336
 20
87.9314
 30
0.0
 11
312.1786
 21
87.9314
 31
0.0
  0
LINE
  5
300
100
AcDbEntity
  8
1
  6
CONTINUOUS
 62
     5
100
AcDbLine
 10
253.1911
 20
153.2714
 30
0.0
 11
253.1911
 21
103.3589
 31
0.0
  0
LINE
  5
301
100
AcDbEntity
  8
1
  6
CONTINUOUS
 62
     5
100
AcDbLine
 10
293.1211
 20
153.2714
 30
0.0
 11
293.1211
 21
103.3589
 31
0.0
  0
LINE
  5
302
100
AcDbEntity
  8
1
  6
CONTINUOUS
 62
     5
100
AcDbLine
 10
253.1911
 20
153.2714
 30
0.0
 11
293.1211
 21
153.2714
 31
0.0
  0
LINE
  5
303
100
AcDbEntity
  8
1
  6
CONTINUOUS
 62
     5
100
AcDbLine
 10
253.1911
 20
103.3589
 30
0.0
 11
293.1211
 21
103.3589
 31
0.0
  0
LINE
  5
304
100
AcDbEntity
  8
1
  6
CONTINUOUS
 62
     5
100
AcDbLine
 10
260.4511
 20
146.9189
 30
0.0
 11
260.4511
 21
109.7114
 31
0.0
  0
LINE
  5
305
100
AcDbEntity
  8
1
  6
CONTINUOUS
 62
     5
100
AcDbLine
 10
285.8611
 20
146.9189
 30
0.0
 11
285.8611
 21
109.7114
 31
0.0
  0
LINE
  5
306
100
AcDbEntity
  8
1
  6
CONTINUOUS
 62
     5
100
AcDbLine
 10
260.4511
 20
146.9189
 30
0.0
 11
285.8611
 21
146.9189
 31
0.0
  0
LINE
  5
307
100
AcDbEntity
  8
1
  6
CONTINUOUS
 62
     5
100
AcDbLine
 10
260.4511
 20
109.7114
 30
0.0
 11
285.8611
 21
109.7114
 31
0.0
  0
LINE
  5
308
100
AcDbEntity
  8
1
  6
CONTINUOUS
 62
     5
100
AcDbLine
 10
306.7336
 20
105.1739
 30
0.0
 11
306.7336
 21
91.5614
 31
0.0
  0
LINE
  5
309
100
AcDbEntity
  8
1
  6
CONTINUOUS
 62
     5
100
AcDbLine
 10
304.0111
 20
105.1739
 30
0.0
 11
304.0111
 21
91.5614
 31
0.0
  0
LINE
  5
30A
100
AcDbEntity
  8
1
  6
CONTINUOUS
 62
     5
100
AcDbLine
 10
304.0111
 20
105.1739
 30
0.0
 11
306.7336
 21
105.1739
 31
0.0
  0
LINE
  5
30B
100
AcDbEntity
  8
1
  6
CONTINUOUS
 62
     5
100
AcDbLine
 10
304.0111
 20
91.5614
 30
0.0
 11
306.7336
 21
91.5614
 31
0.0
  0
SPLINE
  5
30C
100
AcDbEntity
  8
1
  6
CONTINUOUS
 62
     5
100
AcDbSpline
210
0.0
220
0.0
230
1.0
 70
     8
 71
     3
 72
   107
 73
   103
 74
     0
 42
0.0
 43
0.0
 12
0.998370702680086
 22
0.0570608449821017
 32
0.0
 13
0.9170177214218716
 23
-0.3988464599294306
 33
0.0
 40
0.0
 40
0.0
 40
0.0
 40
0.0
 40
0.0228280280313139
 40
0.0228280280313139
 40
0.0228280280313139
 40
0.0653312537639266
 40
0.0653312537639266
 40
0.0653312537639266
 40
0.1057634157352601
 40
0.1057634157352601
 40
0.1057634157352601
 40
0.154123074593383
 40
0.154123074593383
 40
0.154123074593383
 40
0.1871065057044535
 40
0.1871065057044535
 40
0.1871065057044535
 40
0.2102084842015097
 40
0.2102084842015097
 40
0.2102084842015097
 40
0.2424362782738521
 40
0.2424362782738521
 40
0.2424362782738521
 40
0.2596314851712329
 40
0.2596314851712329
 40
0.2596314851712329
 40
0.2870122476671006
 40
0.2870122476671006
 40
0.2870122476671006
 40
0.316546165774124
 40
0.316546165774124
 40
0.316546165774124
 40
0.3540446754531067
 40
0.3540446754531067
 40
0.3540446754531067
 40
0.3738179993556084
 40
0.3738179993556084
 40
0.3738179993556084
 40
0.3949088054139391
 40
0.3949088054139391
 40
0.3949088054139391
 40
0.4216141683163638
 40
0.4216141683163638
 40
0.4216141683163638
 40
0.4770582762635753
 40
0.4770582762635753
 40
0.4770582762635753
 40
0.4994333541334616
 40
0.4994333541334616
 40
0.4994333541334616
 40
0.5387618004746936
 40
0.5387618004746936
 40
0.5387618004746936
 40
0.5707751942993775
 40
0.5707751942993775
 40
0.5707751942993775
 40
0.5909713693786565
 40
0.5909713693786565
 40
0.5909713693786565
 40
0.6224035065418264
 40
0.6224035065418264
 40
0.6224035065418264
 40
0.6491026914355018
 40
0.6491026914355018
 40
0.6491026914355018
 40
0.6815439704799552
 40
0.6815439704799552
 40
0.6815439704799552
 40
0.7069398418400983
 40
0.7069398418400983
 40
0.7069398418400983
 40
0.7401096811492159
 40
0.7401096811492159
 40
0.7401096811492159
 40
0.7664606735306855
 40
0.7664606735306855
 40
0.7664606735306855
 40
0.8060175546659411
 40
0.8060175546659411
 40
0.8060175546659411
 40
0.833844335303743
 40
0.833844335303743
 40
0.833844335303743
 40
0.8802558853697312
 40
0.8802558853697312
 40
0.8802558853697312
 40
0.8972049711873305
 40
0.8972049711873305
 40
0.8972049711873305
 40
0.9206538923935175
 40
0.9206538923935175
 40
0.9206538923935175
 40
0.9460915429953809
 40
0.9460915429953809
 40
0.9460915429953809
 40
0.9660716392040377
 40
0.9660716392040377
 40
0.9660716392040377
 40
0.9836678497888806
 40
0.9836678497888806
 40
0.9836678497888806
 40
1.0
 40
1.0
 40
1.0
 40
1.0
 10
89.453699999999998
 20
115.7236
 30
0.0
 10
90.739699999999999
 20
115.7971
 30
0.0
 10
92.025700000000001
 20
115.87060000000001
 30
0.0
 10
93.311700000000002
 20
115.94410000000001
 30
0.0
 10
95.706087645624152
 20
116.08094874957496
 30
0.0
 10
95.048158691120818
 20
120.49539203631727
 30
0.0
 10
95.185500000000005
 20
122.89070000000001
 30
0.0
 10
95.316149049577859
 20
125.16929128076802
 30
0.0
 10
95.351751196726454
 20
127.45197984564551
 30
0.0
 10
95.516300000000001
 20
129.727
 30
0.0
 10
95.713111736099179
 20
132.44808126787635
 30
0.0
 10
95.928802735827858
 20
135.16756683529718
 30
0.0
 10
96.177599999999998
 20
137.88650000000001
 30
0.0
 10
96.347290763276888
 20
139.74093294785604
 30
0.0
 10
96.61667473818629
 20
141.58213493096665
 30
0.0
 10
97.0595
 20
143.3998
 30
0.0
 10
97.369659960069782
 20
144.6729137399943
 30
0.0
 10
98.073660482589844
 20
145.8128638393593
 30
0.0
 10
98.492400000000004
 20
147.0385
 30
0.0
 10
99.076551307160386
 20
148.74829077821315
 30
0.0
 10
99.179930740868414
 20
150.59794658239051
 30
0.0
 10
99.815100000000001
 20
152.3312
 30
0.0
 10
100.1539958859892
 20
153.25598098421776
 30
0.0
 10
100.7466276938863
 20
154.0477339252877
 30
0.0
 10
101.5788
 20
154.64680000000001
 30
0.0
 10
102.90390835172381
 20
155.60072198587201
 30
0.0
 10
104.27864032842079
 20
156.19293068387415
 30
0.0
 10
105.76740000000001
 20
156.63140000000001
 30
0.0
 10
107.37323205920931
 20
157.10434946139131
 30
0.0
 10
109.04364356293874
 20
157.30294773366217
 30
0.0
 10
110.61750000000001
 20
157.8443
 30
0.0
 10
112.61578788800075
 20
158.53164202910182
 30
0.0
 10
114.56752497758345
 20
159.36025041273982
 30
0.0
 10
116.5698
 20
160.0496
 30
0.0
 10
117.62561882850991
 20
160.41310065076297
 30
0.0
 10
118.67897324306048
 20
160.74633960457385
 30
0.0
 10
119.76650000000001
 20
161.042
 30
0.0
 10
120.92648787189013
 20
161.3573600320214
 30
0.0
 10
122.10475841873007
 20
161.58092253502778
 30
0.0
 10
123.29390000000001
 20
161.5933
 30
0.0
 10
124.79960145979003
 20
161.60897245429032
 30
0.0
 10
126.30701166849593
 20
161.53687315325038
 30
0.0
 10
127.81320000000001
 20
161.483
 30
0.0
 10
130.94025986231551
 20
161.3711517193687
 30
0.0
 10
134.07098922638053
 20
161.16450989360695
 30
0.0
 10
137.1825
 20
160.93180000000001
 30
0.0
 10
138.43818429956545
 20
160.83788737008618
 30
0.0
 10
139.44693125467992
 20
159.30924302636268
 30
0.0
 10
140.61870000000002
 20
159.33850000000001
 30
0.0
 10
142.67830598182661
 20
159.38992468439639
 30
0.0
 10
144.680402846265
 20
161.37797054752153
 30
0.0
 10
146.8827
 20
161.5933
 30
0.0
 10
148.67537203921006
 20
161.76857838512706
 30
0.0
 10
150.48004494013452
 20
161.9314925685222
 30
0.0
 10
152.28390000000002
 20
162.03440000000001
 30
0.0
 10
153.42189157959308
 20
162.09932084264688
 30
0.0
 10
154.57932769620353
 20
162.36127660908792
 30
0.0
 10
155.70090000000002
 20
162.1447
 30
0.0
 10
157.44644906327349
 20
161.80763292385993
 30
0.0
 10
159.15209118633425
 20
161.32317168246055
 30
0.0
 10
160.88160000000002
 20
160.93180000000001
 30
0.0
 10
162.35068482078688
 20
160.59935983349402
 30
0.0
 10
163.82076471518704
 20
160.26789030471733
 30
0.0
 10
165.29090000000002
 20
159.93940000000001
 30
0.0
 10
167.07721179931687
 20
159.54026251017885
 30
0.0
 10
168.89599829464433
 20
159.32030609872638
 30
0.0
 10
170.69210000000001
 20
158.947
 30
0.0
 10
172.0981348174449
 20
158.65476634151136
 30
0.0
 10
173.45559507427191
 20
158.15697928275407
 30
0.0
 10
174.6602
 20
157.29310000000001
 30
0.0
 10
176.23354833094493
 20
156.1647773453027
 30
0.0
 10
177.43608011766668
 20
154.81134098527818
 30
0.0
 10
178.73869999999999
 20
153.43389999999999
 30
0.0
 10
179.77353548037212
 20
152.33962466840345
 30
0.0
 10
180.71461239792376
 20
151.42015330920864
 30
0.0
 10
181.6046
 20
150.01570000000001
 30
0.0
 10
182.94060789213307
 20
147.90740017553304
 30
0.0
 10
183.74891543098835
 20
145.76081862121916
 30
0.0
 10
183.58880000000002
 20
143.62030000000001
 30
0.0
 10
183.47616480614826
 20
142.11452551995112
 30
0.0
 10
182.45216049276934
 20
140.64232320675572
 30
0.0
 10
182.26590000000002
 20
139.0994
 30
0.0
 10
181.9552410596792
 20
136.52599926815111
 30
0.0
 10
181.55646423785052
 20
133.8875495101943
 30
0.0
 10
181.6046
 20
131.27080000000001
 30
0.0
 10
181.62217875275459
 20
130.31518632305139
 30
0.0
 10
181.70397647696424
 20
129.35994780847693
 30
0.0
 10
181.7148
 20
128.40380000000002
 30
0.0
 10
181.72977425534157
 20
127.08097734963835
 30
0.0
 10
181.72106232152711
 20
125.75750962880002
 30
0.0
 10
181.7148
 20
124.43440000000001
 30
0.0
 10
181.70800656393692
 20
122.99907595462362
 30
0.0
 10
181.51262326007952
 20
121.56715041473004
 30
0.0
 10
181.49430000000001
 20
120.134
 30
0.0
 10
181.47990792798933
 20
119.00832673653893
 30
0.0
 10
181.85820052313707
 20
117.93542337575819
 30
0.0
 10
182.5967
 20
116.93650000000001
 30
0.0
 10
183.24708687381528
 20
116.05676118921555
 30
0.0
 10
184.00099581914984
 20
115.45790135828099
 30
0.0
 10
184.91150000000002
 20
115.06190000000001
 30
0.0
 10
185.75659621988194
 20
114.69434622266435
 30
0.0
 10
186.60171219002498
 20
114.3268613605541
 30
0.0
 10
187.4468
 20
113.9593
 30
0.0
  0
SPLINE
  5
30D
100
AcDbEntity
  8
1
  6
CONTINUOUS
 62
     5
100
AcDbSpline
210
0.0
220
0.0
230
1.0
 70
     8
 71
     3
 72
    68
 73
    64
 74
     0
 42
0.0
 43
0.0
 12
0.9970532574832636
 22
-0.0767124614519236
 32
0.0
 13
0.9061322554239301
 23
-0.422994486583858
 33
0.0
 40
0.0
 40
0.0
 40
0.0
 40
0.0
 40
0.0572131562865216
 40
0.0572131562865216
 40
0.0572131562865216
 40
0.1036139508281472
 40
0.1036139508281472
 40
0.1036139508281472
 40
0.1604278434441827
 40
0.1604278434441827
 40
0.1604278434441827
 40
0.2179882148366324
 40
0.2179882148366324
 40
0.2179882148366324
 40
0.288615718639952
 40
0.288615718639952
 40
0.288615718639952
 40
0.3424045421785276
 40
0.3424045421785276
 40
0.3424045421785276
 40
0.4175176332640226
 40
0.4175176332640226
 40
0.4175176332640226
 40
0.4745727391652904
 40
0.4745727391652904
 40
0.4745727391652904
 40
0.5384368694955349
 40
0.5384368694955349
 40
0.5384368694955349
 40
0.6306459495256807
 40
0.6306459495256807
 40
0.6306459495256807
 40
0.7046690532937542
 40
0.7046690532937542
 40
0.7046690532937542
 40
0.7497667891990544
 40
0.7497667891990544
 40
0.7497667891990544
 40
0.7859849014045377
 40
0.7859849014045377
 40
0.7859849014045377
 40
0.8408808547191845
 40
0.8408808547191845
 40
0.8408808547191845
 40
0.8824097941960786
 40
0.8824097941960786
 40
0.8824097941960786
 40
0.9080232351767142
 40
0.9080232351767142
 40
0.9080232351767142
 40
0.9247721130702701
 40
0.9247721130702701
 40
0.9247721130702701
 40
0.9494273351165815
 40
0.9494273351165815
 40
0.9494273351165815
 40
0.9694473959809936
 40
0.9694473959809936
 40
0.9694473959809936
 40
0.9968948953184905
 40
0.9968948953184905
 40
0.9968948953184905
 40
1.0
 40
1.0
 40
1.0
 40
1.0
 10
89.343500000000006
 20
104.69710000000001
 30
0.0
 10
91.254100000000008
 20
104.5501
 30
0.0
 10
93.164700000000011
 20
104.40310000000001
 30
0.0
 10
95.075299999999999
 20
104.2561
 30
0.0
 10
96.624827482931664
 20
104.13688062389252
 30
0.0
 10
98.166716167872082
 20
103.9322950687782
 30
0.0
 10
99.704900000000009
 20
103.7047
 30
0.0
 10
101.58827747069917
 20
103.42602887108423
 30
0.0
 10
103.44395323508839
 20
102.98986612786126
 30
0.0
 10
105.3266
 20
102.7123
 30
0.0
 10
107.23398289526253
 20
102.43108692569731
 30
0.0
 10
109.14616105301681
 20
102.1835984650988
 30
0.0
 10
111.05850000000001
 20
101.9405
 30
0.0
 10
113.40497072254659
 20
101.64221426359842
 30
0.0
 10
115.76775535992594
 20
101.47561415526135
 30
0.0
 10
118.113
 20
101.1686
 30
0.0
 10
119.89910234408151
 20
100.93478272865507
 30
0.0
 10
121.62261385025401
 20
100.36889527130522
 30
0.0
 10
123.40400000000001
 20
100.066
 30
0.0
 10
125.89160637102148
 20
99.643023652755716
 30
0.0
 10
128.38762376713578
 20
99.284057316846784
 30
0.0
 10
130.89959999999999
 20
99.184000000000012
 30
0.0
 10
132.80767045637896
 20
99.107997525246418
 30
0.0
 10
134.72540082670389
 20
99.190168600609425
 30
0.0
 10
136.63140000000001
 20
99.294200000000004
 30
0.0
 10
138.76486338929533
 20
99.410646630747024
 30
0.0
 10
140.89128553299966
 20
99.777712336216823
 30
0.0
 10
143.0247
 20
99.845500000000001
 30
0.0
 10
146.10499224398512
 20
99.943374003490177
 30
0.0
 10
149.20564401732275
 20
99.811163957452351
 30
0.0
 10
152.28390000000002
 20
99.514700000000005
 30
0.0
 10
154.75504559602933
 20
99.276706276618171
 30
0.0
 10
157.19933665971578
 20
98.876309835061221
 30
0.0
 10
159.66920000000002
 20
98.632600000000011
 30
0.0
 10
161.17393621035006
 20
98.484122548776796
 30
0.0
 10
162.67897018744168
 20
98.28331468266326
 30
0.0
 10
164.1885
 20
98.3018
 30
0.0
 10
165.40080742588864
 20
98.316645607745414
 30
0.0
 10
166.61353793399806
 20
98.370923936804715
 30
0.0
 10
167.82600000000002
 20
98.412100000000009
 30
0.0
 10
169.66373413129318
 20
98.474510741620819
 30
0.0
 10
171.50038790244264
 20
98.552802467841047
 30
0.0
 10
173.33750000000001
 20
98.632600000000011
 30
0.0
 10
174.72728034818778
 20
98.69296705227508
 30
0.0
 10
176.08996443177529
 20
98.885892462479433
 30
0.0
 10
177.416
 20
99.514700000000005
 30
0.0
 10
178.23384736602401
 20
99.902524128266577
 30
0.0
 10
178.74169101486783
 20
100.60542711368551
 30
0.0
 10
179.28980000000001
 20
101.27890000000001
 30
0.0
 10
179.64821379029397
 20
101.71929046319588
 30
0.0
 10
179.77102856074458
 20
102.26874232007317
 30
0.0
 10
180.17160000000001
 20
102.7123
 30
0.0
 10
180.76126205634901
 20
103.36524004520449
 30
0.0
 10
181.45583544376049
 20
104.00895472838447
 30
0.0
 10
182.26590000000002
 20
104.0356
 30
0.0
 10
182.92367309527191
 20
104.05723598277437
 30
0.0
 10
183.58352178572397
 20
103.76108165626005
 30
0.0
 10
184.2501
 20
103.7047
 30
0.0
 10
185.16397859500739
 20
103.62740076083557
 30
0.0
 10
186.17256209405707
 20
103.98309623550772
 30
0.0
 10
187.00580000000002
 20
103.59440000000001
 30
0.0
 10
187.10006326568922
 20
103.55042723272823
 30
0.0
 10
187.19426262603002
 20
103.5063912489384
 30
0.0
 10
187.2885
 20
103.4624
 30
0.0
  0
TEXT
  5
30E
100
AcDbEntity
  8
1
  6
CONTINUOUS
 62
     7
100
AcDbText
 10
122.8853
 20
148.2046
 30
0.0
 40
4.5
  1
0
  7
MONOTXT
210
0.0
220
0.0
230
1.0
100
AcDbText
  0
TEXT
  5
30F
100
AcDbEntity
  8
1
  6
CONTINUOUS
 62
     7
100
AcDbText
 10
123.165
 20
137.2175
 30
0.0
 40
4.5
  1
0
  7
MONOTXT
210
0.0
220
0.0
230
1.0
100
AcDbText
  0
TEXT
  5
310
100
AcDbEntity
  8
1
  6
CONTINUOUS
 62
     7
100
AcDbText
 10
123.1469
 20
148.3358
 30
0.0
 40
4.5
  1
/
  7
MONOTXT
210
0.0
220
0.0
230
1.0
100
AcDbText
  0
TEXT
  5
311
100
AcDbEntity
  8
1
  6
CONTINUOUS
 62
     7
100
AcDbText
 10
123.4266
 20
137.2175
 30
0.0
 40
4.5
  1
/
  7
MONOTXT
210
0.0
220
0.0
230
1.0
100
AcDbText
  0
LINE
  5
312
100
AcDbEntity
  8
1
  6
CONTINUOUS
 62
     7
100
AcDbLine
 10
94.5785
 20
62.84
 30
0.0
 11
207.8397
 21
62.84
 31
0.0
  0
LINE
  5
313
100
AcDbEntity
  8
1
  6
CONTINUOUS
 62
     5
100
AcDbLine
 10
330.8347
 20
168.9148
 30
0.0
 11
330.8347
 21
88.1473
 31
0.0
  0
LINE
  5
314
100
AcDbEntity
  8
1
  6
CONTINUOUS
 62
     5
100
AcDbLine
 10
412.5097
 20
168.9148
 30
0.0
 11
412.5097
 21
88.1473
 31
0.0
  0
LINE
  5
315
100
AcDbEntity
  8
1
  6
CONTINUOUS
 62
     5
100
AcDbLine
 10
330.8347
 20
168.9148
 30
0.0
 11
412.5097
 21
168.9148
 31
0.0
  0
LINE
  5
316
100
AcDbEntity
  8
1
  6
CONTINUOUS
 62
     5
100
AcDbLine
 10
330.8347
 20
88.1473
 30
0.0
 11
412.5097
 21
88.1473
 31
0.0
  0
LINE
  5
317
100
AcDbEntity
  8
1
  6
CONTINUOUS
 62
     5
100
AcDbLine
 10
337.1872
 20
162.5623
 30
0.0
 11
337.1872
 21
100.8523
 31
0.0
  0
LINE
  5
318
100
AcDbEntity
  8
1
  6
CONTINUOUS
 62
     5
100
AcDbLine
 10
337.1872
 20
162.5623
 30
0.0
 11
397.1221
 21
162.5623
 31
0.0
  0
LINE
  5
319
100
AcDbEntity
  8
1
  6
CONTINUOUS
 62
     5
100
AcDbLine
 10
343.5397
 20
157.1173
 30
0.0
 11
343.5397
 21
104.653
 31
0.0
  0
LINE
  5
31A
100
AcDbEntity
  8
1
  6
CONTINUOUS
 62
     5
100
AcDbLine
 10
337.1872
 20
100.8523
 30
0.0
 11
361.6307
 21
100.8523
 31
0.0
  0
LINE
  5
31B
100
AcDbEntity
  8
1
  6
CONTINUOUS
 62
     5
100
AcDbLine
 10
343.5397
 20
157.1173
 30
0.0
 11
357.4729
 21
157.1173
 31
0.0
  0
LINE
  5
31C
100
AcDbEntity
  8
1
  6
CONTINUOUS
 62
     5
100
AcDbLine
 10
397.1221
 20
162.5623
 30
0.0
 11
397.1221
 21
146.2273
 31
0.0
  0
LINE
  5
31D
100
AcDbEntity
  8
1
  6
CONTINUOUS
 62
     5
100
AcDbLine
 10
366.3715
 20
162.5623
 30
0.0
 11
366.3715
 21
146.2273
 31
0.0
  0
LINE
  5
31E
100
AcDbEntity
  8
1
  6
CONTINUOUS
 62
     5
100
AcDbLine
 10
357.4729
 20
157.1173
 30
0.0
 11
357.4729
 21
146.2273
 31
0.0
  0
LINE
  5
31F
100
AcDbEntity
  8
1
  6
CONTINUOUS
 62
     5
100
AcDbLine
 10
352.6147
 20
152.5798
 30
0.0
 11
352.6147
 21
119.9098
 31
0.0
  0
LINE
  5
320
100
AcDbEntity
  8
1
  6
CONTINUOUS
 62
     5
100
AcDbLine
 10
361.6897
 20
152.5798
 30
0.0
 11
361.6897
 21
119.9098
 31
0.0
  0
LINE
  5
321
100
AcDbEntity
  8
1
  6
CONTINUOUS
 62
     5
100
AcDbLine
 10
370.7647
 20
152.5798
 30
0.0
 11
370.7647
 21
119.9098
 31
0.0
  0
LINE
  5
322
100
AcDbEntity
  8
1
  6
CONTINUOUS
 62
     5
100
AcDbLine
 10
352.6147
 20
152.5798
 30
0.0
 11
370.7647
 21
152.5798
 31
0.0
  0
LINE
  5
323
100
AcDbEntity
  8
1
  6
CONTINUOUS
 62
     5
100
AcDbLine
 10
370.7647
 20
119.9098
 30
0.0
 11
352.6147
 21
119.9098
 31
0.0
  0
LINE
  5
324
100
AcDbEntity
  8
1
  6
CONTINUOUS
 62
     5
100
AcDbLine
 10
361.6897
 20
135.3373
 30
0.0
 11
352.6147
 21
135.3373
 31
0.0
  0
LINE
  5
325
100
AcDbEntity
  8
1
  6
CONTINUOUS
 62
     5
100
AcDbLine
 10
352.6147
 20
137.1523
 30
0.0
 11
361.6897
 21
137.1523
 31
0.0
  0
CIRCLE
  5
326
100
AcDbEntity
  8
1
  6
CONTINUOUS
 62
     5
100
AcDbCircle
 10
377.58099
 20
96.149586
 30
0.0
 40
2.7225
210
0.0
220
0.0
230
1.0
  0
CIRCLE
  5
327
100
AcDbEntity
  8
1
  6
CONTINUOUS
 62
     5
100
AcDbCircle
 10
366.307269
 20
135.827906
 30
0.0
 40
2.7225
210
0.0
220
0.0
230
1.0
  0
CIRCLE
  5
328
100
AcDbEntity
  8
1
  6
CONTINUOUS
 62
     5
100
AcDbCircle
 10
357.386695
 20
131.21342
 30
0.0
 40
2.7225
210
0.0
220
0.0
230
1.0
  0
LINE
  5
329
100
AcDbEntity
  8
1
  6
CONTINUOUS
 62
     5
100
AcDbLine
 10
392.5846
 20
120.3909
 30
0.0
 11
392.5846
 21
153.9684
 31
0.0
  0
LINE
  5
32A
100
AcDbEntity
  8
1
  6
CONTINUOUS
 62
     5
100
AcDbLine
 10
401.6596
 20
120.3909
 30
0.0
 11
401.6596
 21
153.9684
 31
0.0
  0
LINE
  5
32B
100
AcDbEntity
  8
1
  6
CONTINUOUS
 62
     5
100
AcDbLine
 10
392.5846
 20
120.3909
 30
0.0
 11
401.6596
 21
120.3909
 31
0.0
  0
LINE
  5
32C
100
AcDbEntity
  8
1
  6
CONTINUOUS
 62
     5
100
AcDbLine
 10
392.5846
 20
153.9684
 30
0.0
 11
401.6596
 21
153.9684
 31
0.0
  0
CIRCLE
  5
32D
100
AcDbEntity
  8
1
  6
CONTINUOUS
 62
     5
100
AcDbCircle
 10
397.557472
 20
136.45469
 30
0.0
 40
2.7225
210
0.0
220
0.0
230
1.0
  0
CIRCLE
  5
32E
100
AcDbEntity
  8
1
  6
CONTINUOUS
 62
     5
100
AcDbCircle
 10
357.510872
 20
147.099207
 30
0.0
 40
0.9075
210
0.0
220
0.0
230
1.0
  0
CIRCLE
  5
32F
100
AcDbEntity
  8
1
  6
CONTINUOUS
 62
     5
100
AcDbCircle
 10
366.388642
 20
147.081057
 30
0.0
 40
0.9075
210
0.0
220
0.0
230
1.0
  0
CIRCLE
  5
330
100
AcDbEntity
  8
1
  6
CONTINUOUS
 62
     5
100
AcDbCircle
 10
357.203229
 20
124.16275
 30
0.0
 40
0.9075
210
0.0
220
0.0
230
1.0
  0
CIRCLE
  5
331
100
AcDbEntity
  8
1
  6
CONTINUOUS
 62
     5
100
AcDbCircle
 10
366.345081
 20
124.084856
 30
0.0
 40
0.9075
210
0.0
220
0.0
230
1.0
  0
CIRCLE
  5
332
100
AcDbEntity
  8
1
  6
CONTINUOUS
 62
     5
100
AcDbCircle
 10
397.118709
 20
147.07168
 30
0.0
 40
0.9075
210
0.0
220
0.0
230
1.0
  0
CIRCLE
  5
333
100
AcDbEntity
  8
1
  6
CONTINUOUS
 62
     5
100
AcDbCircle
 10
396.774313
 20
130.519182
 30
0.0
 40
0.9075
210
0.0
220
0.0
230
1.0
  0
CIRCLE
  5
334
100
AcDbEntity
  8
1
  6
CONTINUOUS
 62
     5
100
AcDbCircle
 10
397.132775
 20
124.12403
 30
0.0
 40
0.9075
210
0.0
220
0.0
230
1.0
  0
TEXT
  5
335
100
AcDbEntity
  8
1
  6
CONTINUOUS
 62
     7
100
AcDbText
 10
356.2269
 20
141.6797
 30
0.0
 40
3.0
  1
A
  7
MONOTXT
210
0.0
220
0.0
230
1.0
100
AcDbText
  0
TEXT
  5
336
100
AcDbEntity
  8
1
  6
CONTINUOUS
 62
     7
100
AcDbText
 10
365.1921
 20
141.6032
 30
0.0
 40
3.0
  1
A
  7
MONOTXT
210
0.0
220
0.0
230
1.0
100
AcDbText
  0
TEXT
  5
337
100
AcDbEntity
  8
1
  6
CONTINUOUS
 62
     7
100
AcDbText
 10
395.8571
 20
140.0933
 30
0.0
 40
3.0
  1
A
  7
MONOTXT
210
0.0
220
0.0
230
1.0
100
AcDbText
  0
TEXT
  5
338
100
AcDbEntity
  8
1
  6
CONTINUOUS
 62
     7
100
AcDbText
 10
356.6713
 20
129.3174
 30
0.0
 40
3.0
  1
1
  7
MONOTXT
210
0.0
220
0.0
230
1.0
100
AcDbText
  0
TEXT
  5
339
100
AcDbEntity
  8
1
  6
CONTINUOUS
 62
     7
100
AcDbText
 10
358.6988
 20
121.3738
 30
0.0
 40
3.0
  1
B
  7
MONOTXT
210
0.0
220
0.0
230
1.0
100
AcDbText
  0
TEXT
  5
33A
100
AcDbEntity
  8
1
  6
CONTINUOUS
 62
     7
100
AcDbText
 10
365.3755
 20
126.1678
 30
0.0
 40
3.0
  1
B
  7
MONOTXT
210
0.0
220
0.0
230
1.0
100
AcDbText
  0
TEXT
  5
33B
100
AcDbEntity
  8
1
  6
CONTINUOUS
 62
     7
100
AcDbText
 10
365.3736
 20
134.3438
 30
0.0
 40
3.0
  1
2
  7
MONOTXT
210
0.0
220
0.0
230
1.0
100
AcDbText
  0
TEXT
  5
33C
100
AcDbEntity
  8
1
  6
CONTINUOUS
 62
     7
100
AcDbText
 10
396.6673
 20
134.6873
 30
0.0
 40
3.0
  1
3
  7
MONOTXT
210
0.0
220
0.0
230
1.0
100
AcDbText
  0
TEXT
  5
33D
100
AcDbEntity
  8
1
  6
CONTINUOUS
 62
     7
100
AcDbText
 10
405.5189
 20
129.0752
 30
0.0
 40
3.0
  1
B
  7
MONOTXT
210
0.0
220
0.0
230
1.0
100
AcDbText
  0
TEXT
  5
33E
100
AcDbEntity
  8
1
  6
CONTINUOUS
 62
     7
100
AcDbText
 10
405.0646
 20
122.5427
 30
0.0
 40
3.0
  1
C
  7
MONOTXT
210
0.0
220
0.0
230
1.0
100
AcDbText
  0
TEXT
  5
33F
100
AcDbEntity
  8
1
  6
CONTINUOUS
 62
     7
100
AcDbText
 10
376.7581
 20
94.6509
 30
0.0
 40
3.0
  1
4
  7
MONOTXT
210
0.0
220
0.0
230
1.0
100
AcDbText
  0
TEXT
  5
340
100
AcDbEntity
  8
1
  6
CONTINUOUS
 62
     7
100
AcDbText
 10
430.243
 20
138.8333
 30
0.0
 40
3.0
  1
1.   CIRCUIT BREAKER, SEE NOTE 1.
  7
MONOTXT
 11
430.243
 21
141.8333
 31
0.0
210
0.0
220
0.0
230
1.0
100
AcDbText
 73
     3
  0
TEXT
  5
341
100
AcDbEntity
  8
1
  6
CONTINUOUS
 62
     7
100
AcDbText
 10
430.243
 20
133.4333
 30
0.0
 40
3.0
  1
 
  7
MONOTXT
 11
430.243
 21
136.4333
 31
0.0
210
0.0
220
0.0
230
1.0
100
AcDbText
 73
     3
  0
TEXT
  5
342
100
AcDbEntity
  8
1
  6
CONTINUOUS
 62
     7
100
AcDbText
 10
430.243
 20
128.0333
 30
0.0
 40
3.0
  1
2.   SPACE FOR FUTURE BREAKER
  7
MONOTXT
 11
430.243
 21
131.0333
 31
0.0
210
0.0
220
0.0
230
1.0
100
AcDbText
 73
     3
  0
TEXT
  5
343
100
AcDbEntity
  8
1
  6
CONTINUOUS
 62
     7
100
AcDbText
 10
430.243
 20
122.6333
 30
0.0
 40
3.0
  1
 
  7
MONOTXT
 11
430.243
 21
125.6333
 31
0.0
210
0.0
220
0.0
230
1.0
100
AcDbText
 73
     3
  0
TEXT
  5
344
100
AcDbEntity
  8
1
  6
CONTINUOUS
 62
     7
100
AcDbText
 10
430.243
 20
117.2333
 30
0.0
 40
3.0
  1
3.   SOLID NEUTRAL GROUND BAR
  7
MONOTXT
 11
430.243
 21
120.2333
 31
0.0
210
0.0
220
0.0
230
1.0
100
AcDbText
 73
     3
  0
TEXT
  5
345
100
AcDbEntity
  8
1
  6
CONTINUOUS
 62
     7
100
AcDbText
 10
430.243
 20
111.8333
 30
0.0
 40
3.0
  1
 
  7
MONOTXT
 11
430.243
 21
114.8333
 31
0.0
210
0.0
220
0.0
230
1.0
100
AcDbText
 73
     3
  0
TEXT
  5
346
100
AcDbEntity
  8
1
  6
CONTINUOUS
 62
     7
100
AcDbText
 10
430.243
 20
106.4333
 30
0.0
 40
3.0
  1
4.   CONDUIT HUB (POLE TYPE)
  7
MONOTXT
 11
430.243
 21
109.4333
 31
0.0
210
0.0
220
0.0
230
1.0
100
AcDbText
 73
     3
  0
TEXT
  5
347
100
AcDbEntity
  8
1
  6
CONTINUOUS
 62
     7
100
AcDbText
 10
430.243
 20
101.0333
 30
0.0
 40
3.0
  1
   (2" CHASE NIPPLE)
  7
MONOTXT
 11
430.243
 21
104.0333
 31
0.0
210
0.0
220
0.0
230
1.0
100
AcDbText
 73
     3
  0
TEXT
  5
348
100
AcDbEntity
  8
1
  6
CONTINUOUS
 62
     7
100
AcDbText
 10
460.1891
 20
149.4736
 30
0.0
 40
3.6
  1
LEGEND
  7
MONOTXT
210
0.0
220
0.0
230
1.0
100
AcDbText
  0
LINE
  5
349
100
AcDbEntity
  8
1
  6
CONTINUOUS
 62
     7
100
AcDbLine
 10
458.4149
 20
147.7388
 30
0.0
 11
480.7462
 21
147.7388
 31
0.0
  0
LINE
  5
34A
100
AcDbEntity
  8
1
  6
CONTINUOUS
 62
     7
100
AcDbLine
 10
364.8082
 20
61.4199
 30
0.0
 11
464.5679
 21
61.4199
 31
0.0
  0
TEXT
  5
34B
100
AcDbEntity
  8
1
  6
CONTINUOUS
 62
     7
100
AcDbText
 10
527.9081
 20
141.2403
 30
0.0
 40
3.0
  1
1A - LINE SERVICE
  7
MONOTXT
 11
527.9081
 21
144.2403
 31
0.0
210
0.0
220
0.0
230
1.0
100
AcDbText
 73
     3
  0
TEXT
  5
34C
100
AcDbEntity
  8
1
  6
CONTINUOUS
 62
     7
100
AcDbText
 10
527.9081
 20
135.8403
 30
0.0
 40
3.0
  1
 
  7
MONOTXT
 11
527.9081
 21
138.8403
 31
0.0
210
0.0
220
0.0
230
1.0
100
AcDbText
 73
     3
  0
TEXT
  5
34D
100
AcDbEntity
  8
1
  6
CONTINUOUS
 62
     7
100
AcDbText
 10
527.9081
 20
130.4403
 30
0.0
 40
3.0
  1
3A - LINE NEUTRAL
  7
MONOTXT
 11
527.9081
 21
133.4403
 31
0.0
210
0.0
220
0.0
230
1.0
100
AcDbText
 73
     3
  0
TEXT
  5
34E
100
AcDbEntity
  8
1
  6
CONTINUOUS
 62
     7
100
AcDbText
 10
527.9081
 20
125.0403
 30
0.0
 40
3.0
  1
 
  7
MONOTXT
 11
527.9081
 21
128.0403
 31
0.0
210
0.0
220
0.0
230
1.0
100
AcDbText
 73
     3
  0
TEXT
  5
34F
100
AcDbEntity
  8
1
  6
CONTINUOUS
 62
     7
100
AcDbText
 10
527.9081
 20
119.6403
 30
0.0
 40
3.0
  1
1B - TO APPLIANCE
  7
MONOTXT
 11
527.9081
 21
122.6403
 31
0.0
210
0.0
220
0.0
230
1.0
100
AcDbText
 73
     3
  0
TEXT
  5
350
100
AcDbEntity
  8
1
  6
CONTINUOUS
 62
     7
100
AcDbText
 10
527.9081
 20
114.2403
 30
0.0
 40
3.0
  1
 
  7
MONOTXT
 11
527.9081
 21
117.2403
 31
0.0
210
0.0
220
0.0
230
1.0
100
AcDbText
 73
     3
  0
TEXT
  5
351
100
AcDbEntity
  8
1
  6
CONTINUOUS
 62
     7
100
AcDbText
 10
527.9081
 20
108.8403
 30
0.0
 40
3.0
  1
3B - APPLIANCE GROUND
  7
MONOTXT
 11
527.9081
 21
111.8403
 31
0.0
210
0.0
220
0.0
230
1.0
100
AcDbText
 73
     3
  0
TEXT
  5
352
100
AcDbEntity
  8
1
  6
CONTINUOUS
 62
     7
100
AcDbText
 10
527.9081
 20
103.4403
 30
0.0
 40
3.0
  1
 
  7
MONOTXT
 11
527.9081
 21
106.4403
 31
0.0
210
0.0
220
0.0
230
1.0
100
AcDbText
 73
     3
  0
TEXT
  5
353
100
AcDbEntity
  8
1
  6
CONTINUOUS
 62
     7
100
AcDbText
 10
527.9081
 20
98.0403
 30
0.0
 40
3.0
  1
3C - LINE TO GROUND
  7
MONOTXT
 11
527.9081
 21
101.0403
 31
0.0
210
0.0
220
0.0
230
1.0
100
AcDbText
 73
     3
  0
TEXT
  5
354
100
AcDbEntity
  8
1
  6
CONTINUOUS
 62
     7
100
AcDbText
 10
541.3256
 20
151.4881
 30
0.0
 40
3.6
  1
WIRING
  7
MONOTXT
210
0.0
220
0.0
230
1.0
100
AcDbText
  0
LINE
  5
355
100
AcDbEntity
  8
1
  6
CONTINUOUS
 62
     7
100
AcDbLine
 10
539.4472
 20
149.8775
 30
0.0
 11
559.5735
 21
149.8775
 31
0.0
  0
ARC
  5
356
100
AcDbEntity
  8
1
  6
CONTINUOUS
 62
     5
100
AcDbCircle
 10
135.343013
 20
127.136439
 30
0.0
 40
6.122877
210
0.0
220
0.0
230
1.0
100
AcDbArc
 50
84.955444
 51
184.272347
  0
LINE
  5
357
100
AcDbEntity
  8
1
  6
CONTINUOUS
 62
     5
100
AcDbLine
 10
132.2255
 20
124.1936
 30
0.0
 11
129.1193
 21
126.9457
 31
0.0
  0
LINE
  5
358
100
AcDbEntity
  8
1
  6
CONTINUOUS
 62
     5
100
AcDbLine
 10
123.9711
 20
133.3162
 30
0.0
 11
142.8035
 21
133.3162
 31
0.0
  0
LINE
  5
359
100
AcDbEntity
  8
1
  6
CONTINUOUS
 62
     5
100
AcDbLine
 10
129.8283
 20
121.5076
 30
0.0
 11
128.8145
 21
122.4059
 31
0.0
  0
POLYLINE
  5
35A
100
AcDbEntity
  8
1
  6
CONTINUOUS
 62
     5
100
AcDb2dPolyline
 66
     1
 10
0.0
 20
0.0
 30
0.0
 70
     1
  0
VERTEX
  5
35B
100
AcDbEntity
  8
1
  6
CONTINUOUS
 62
     5
100
AcDbVertex
100
AcDb2dVertex
 10
126.048
 20
122.3749
 30
0.0
  0
VERTEX
  5
35C
100
AcDbEntity
  8
1
  6
CONTINUOUS
 62
     5
100
AcDbVertex
100
AcDb2dVertex
 10
126.7361
 20
133.3162
 30
0.0
  0
VERTEX
  5
35D
100
AcDbEntity
  8
1
  6
CONTINUOUS
 62
     5
100
AcDbVertex
100
AcDb2dVertex
 10
123.9711
 20
133.3162
 30
0.0
  0
VERTEX
  5
35E
100
AcDbEntity
  8
1
  6
CONTINUOUS
 62
     5
100
AcDbVertex
100
AcDb2dVertex
 10
142.8035
 20
133.3162
 30
0.0
  0
VERTEX
  5
35F
100
AcDbEntity
  8
1
  6
CONTINUOUS
 62
     5
100
AcDbVertex
100
AcDb2dVertex
 10
129.5471
 20
133.3162
 30
0.0
  0
VERTEX
  5
360
100
AcDbEntity
  8
1
  6
CONTINUOUS
 62
     5
100
AcDbVertex
100
AcDb2dVertex
 10
128.7549
 20
121.519
 30
0.0
  0
VERTEX
  5
361
100
AcDbEntity
  8
1
  6
CONTINUOUS
 62
     5
100
AcDbVertex
100
AcDb2dVertex
 10
126.048
 20
122.3749
 30
0.0
  0
SEQEND
  5
362
100
AcDbEntity
  8
1
  6
CONTINUOUS
 62
     5
  0
LINE
  5
363
100
AcDbEntity
  8
1
  6
CONTINUOUS
 62
     5
100
AcDbLine
 10
133.6292
 20
128.666
 30
0.0
 11
131.5092
 21
121.9114
 31
0.0
  0
LINE
  5
364
100
AcDbEntity
  8
1
  6
CONTINUOUS
 62
     5
100
AcDbLine
 10
142.8711
 20
148.5769
 30
0.0
 11
142.8711
 21
142.4575
 31
0.0
  0
LINE
  5
365
100
AcDbEntity
  8
1
  6
CONTINUOUS
 62
     5
100
AcDbLine
 10
142.8711
 20
144.3335
 30
0.0
 11
131.6211
 21
144.3335
 31
0.0
  0
LINE
  5
366
100
AcDbEntity
  8
1
  6
CONTINUOUS
 62
     5
100
AcDbLine
 10
160.9392
 20
129.8146
 30
0.0
 11
170.549
 21
115.8976
 31
0.0
  0
LINE
  5
367
100
AcDbEntity
  8
1
  6
CONTINUOUS
 62
     5
100
AcDbLine
 10
164.243
 20
131.6221
 30
0.0
 11
172.886
 21
117.233
 31
0.0
  0
LINE
  5
368
100
AcDbEntity
  8
1
  6
CONTINUOUS
 62
     5
100
AcDbLine
 10
150.0711
 20
144.3335
 30
0.0
 11
150.0711
 21
147.9335
 31
0.0
  0
LINE
  5
369
100
AcDbEntity
  8
1
  6
CONTINUOUS
 62
     5
100
AcDbLine
 10
112.9127
 20
130.8884
 30
0.0
 11
101.8017
 21
116.945
 31
0.0
  0
LINE
  5
36A
100
AcDbEntity
  8
1
  6
CONTINUOUS
 62
     5
100
AcDbLine
 10
117.6561
 20
130.8457
 30
0.0
 11
103.8636
 21
115.7509
 31
0.0
  0
LINE
  5
36B
100
AcDbEntity
  8
1
  6
CONTINUOUS
 62
     5
100
AcDbLine
 10
115.3668
 20
128.3402
 30
0.0
 11
112.7379
 21
130.6693
 31
0.0
  0
LINE
  5
36C
100
AcDbEntity
  8
1
  6
CONTINUOUS
 62
     5
100
AcDbLine
 10
112.9382
 20
125.6822
 30
0.0
 11
110.4914
 21
127.85
 31
0.0
  0
LINE
  5
36D
100
AcDbEntity
  8
1
  6
CONTINUOUS
 62
     5
100
AcDbLine
 10
110.5095
 20
123.0244
 30
0.0
 11
108.2448
 21
125.0308
 31
0.0
  0
LINE
  5
36E
100
AcDbEntity
  8
1
  6
CONTINUOUS
 62
     5
100
AcDbLine
 10
108.0809
 20
120.3664
 30
0.0
 11
105.9983
 21
122.2114
 31
0.0
  0
LINE
  5
36F
100
AcDbEntity
  8
1
  6
CONTINUOUS
 62
     5
100
AcDbLine
 10
105.6522
 20
117.7084
 30
0.0
 11
103.7517
 21
119.3921
 31
0.0
  0
LINE
  5
370
100
AcDbEntity
  8
1
  6
CONTINUOUS
 62
     5
100
AcDbLine
 10
175.4651
 20
117.152
 30
0.0
 11
169.9464
 21
113.9984
 31
0.0
  0
LINE
  5
371
100
AcDbEntity
  8
1
  6
CONTINUOUS
 62
     5
100
AcDbLine
 10
182.1557
 20
108.3752
 30
0.0
 11
194.7557
 21
108.3752
 31
0.0
  0
LINE
  5
372
100
AcDbEntity
  8
1
  6
CONTINUOUS
 62
     5
100
AcDbLine
 10
182.1557
 20
112.4252
 30
0.0
 11
194.7557
 21
112.4252
 31
0.0
  0
LINE
  5
373
100
AcDbEntity
  8
1
  6
CONTINUOUS
 62
     5
100
AcDbLine
 10
174.7953
 20
118.3241
 30
0.0
 11
175.4651
 21
117.152
 31
0.0
  0
LINE
  5
374
100
AcDbEntity
  8
1
  6
CONTINUOUS
 62
     5
100
AcDbLine
 10
169.2767
 20
115.1705
 30
0.0
 11
169.9464
 21
113.9984
 31
0.0
  0
ARC
  5
375
100
AcDbEntity
  8
1
  6
CONTINUOUS
 62
     5
100
AcDbCircle
 10
181.933298
 20
120.699129
 30
0.0
 40
8.276916
210
0.0
220
0.0
230
1.0
100
AcDbArc
 50
208.850525
 51
271.539386
  0
ARC
  5
376
100
AcDbEntity
  8
1
  6
CONTINUOUS
 62
     5
100
AcDbCircle
 10
181.27
 20
120.500397
 30
0.0
 40
12.157499
210
0.0
220
0.0
230
1.0
100
AcDbArc
 50
209.874906
 51
274.177586
  0
LINE
  5
377
100
AcDbEntity
  8
1
  6
CONTINUOUS
 62
     5
100
AcDbLine
 10
150.0711
 20
142.4575
 30
0.0
 11
150.0711
 21
148.5769
 31
0.0
  0
POLYLINE
  5
378
100
AcDbEntity
  8
1
  6
CONTINUOUS
 62
     5
100
AcDb2dPolyline
 66
     1
 10
0.0
 20
0.0
 30
0.0
  0
VERTEX
  5
379
100
AcDbEntity
  8
1
  6
CONTINUOUS
 62
     5
100
AcDbVertex
100
AcDb2dVertex
 10
150.0711
 20
144.3335
 30
0.0
  0
VERTEX
  5
37A
100
AcDbEntity
  8
1
  6
CONTINUOUS
 62
     5
100
AcDbVertex
100
AcDb2dVertex
 10
157.7211
 20
144.3335
 30
0.0
 42
-0.418325
  0
VERTEX
  5
37B
100
AcDbEntity
  8
1
  6
CONTINUOUS
 62
     5
100
AcDbVertex
100
AcDb2dVertex
 10
168.9357
 20
132.2303
 30
0.0
  0
VERTEX
  5
37C
100
AcDbEntity
  8
1
  6
CONTINUOUS
 62
     5
100
AcDbVertex
100
AcDb2dVertex
 10
170.9885
 20
116.1488
 30
0.0
  0
VERTEX
  5
37D
100
AcDbEntity
  8
1
  6
CONTINUOUS
 62
     5
100
AcDbVertex
100
AcDb2dVertex
 10
169.2767
 20
115.1705
 30
0.0
  0
VERTEX
  5
37E
100
AcDbEntity
  8
1
  6
CONTINUOUS
 62
     5
100
AcDbVertex
100
AcDb2dVertex
 10
174.7953
 20
118.3241
 30
0.0
  0
VERTEX
  5
37F
100
AcDbEntity
  8
1
  6
CONTINUOUS
 62
     5
100
AcDbVertex
100
AcDb2dVertex
 10
174.0225
 20
117.7145
 30
0.0
  0
VERTEX
  5
380
100
AcDbEntity
  8
1
  6
CONTINUOUS
 62
     5
100
AcDbVertex
100
AcDb2dVertex
 10
173.00844
 20
132.38688
 30
0.0
 42
0.351977
  0
VERTEX
  5
381
100
AcDbEntity
  8
1
  6
CONTINUOUS
 62
     5
100
AcDbVertex
100
AcDb2dVertex
 10
159.9711
 20
147.9335
 30
0.0
  0
VERTEX
  5
382
100
AcDbEntity
  8
1
  6
CONTINUOUS
 62
     5
100
AcDbVertex
100
AcDb2dVertex
 10
150.0711
 20
147.9335
 30
0.0
  0
VERTEX
  5
383
100
AcDbEntity
  8
1
  6
CONTINUOUS
 62
     5
100
AcDbVertex
100
AcDb2dVertex
 10
150.0711
 20
144.3335
 30
0.0
  0
SEQEND
  5
384
100
AcDbEntity
  8
1
  6
CONTINUOUS
 62
     5
  0
LINE
  5
385
100
AcDbEntity
  8
1
  6
CONTINUOUS
 62
     5
100
AcDbLine
 10
169.2767
 20
115.1705
 30
0.0
 11
174.7953
 21
118.3241
 31
0.0
  0
POLYLINE
  5
386
100
AcDbEntity
  8
1
  6
CONTINUOUS
 62
     5
100
AcDb2dPolyline
 66
     1
 10
0.0
 20
0.0
 30
0.0
  0
VERTEX
  5
387
100
AcDbEntity
  8
1
  6
CONTINUOUS
 62
     5
100
AcDbVertex
100
AcDb2dVertex
 10
142.8711
 20
142.4575
 30
0.0
  0
VERTEX
  5
388
100
AcDbEntity
  8
1
  6
CONTINUOUS
 62
     5
100
AcDbVertex
100
AcDb2dVertex
 10
142.8711
 20
148.5769
 30
0.0
  0
VERTEX
  5
389
100
AcDbEntity
  8
1
  6
CONTINUOUS
 62
     5
100
AcDbVertex
100
AcDb2dVertex
 10
142.8711
 20
147.9335
 30
0.0
  0
VERTEX
  5
38A
100
AcDbEntity
  8
1
  6
CONTINUOUS
 62
     5
100
AcDbVertex
100
AcDb2dVertex
 10
129.3711
 20
147.9335
 30
0.0
 42
0.351714
  0
VERTEX
  5
38B
100
AcDbEntity
  8
1
  6
CONTINUOUS
 62
     5
100
AcDbVertex
100
AcDb2dVertex
 10
103.3121
 20
127.6786
 30
0.0
  0
VERTEX
  5
38C
100
AcDbEntity
  8
1
  6
CONTINUOUS
 62
     5
100
AcDbVertex
100
AcDb2dVertex
 10
100.4996
 20
117.5963
 30
0.0
  0
VERTEX
  5
38D
100
AcDbEntity
  8
1
  6
CONTINUOUS
 62
     5
100
AcDbVertex
100
AcDb2dVertex
 10
99.5637
 20
118.3241
 30
0.0
  0
VERTEX
  5
38E
100
AcDbEntity
  8
1
  6
CONTINUOUS
 62
     5
100
AcDbVertex
100
AcDb2dVertex
 10
105.0824
 20
115.1705
 30
0.0
  0
VERTEX
  5
38F
100
AcDbEntity
  8
1
  6
CONTINUOUS
 62
     5
100
AcDbVertex
100
AcDb2dVertex
 10
103.5381
 20
116.1851
 30
0.0
  0
VERTEX
  5
390
100
AcDbEntity
  8
1
  6
CONTINUOUS
 62
     5
100
AcDbVertex
100
AcDb2dVertex
 10
107.055609
 20
126.399937
 30
0.0
 42
-0.337892
  0
VERTEX
  5
391
100
AcDbEntity
  8
1
  6
CONTINUOUS
 62
     5
100
AcDbVertex
100
AcDb2dVertex
 10
131.6211
 20
144.3335
 30
0.0
  0
VERTEX
  5
392
100
AcDbEntity
  8
1
  6
CONTINUOUS
 62
     5
100
AcDbVertex
100
AcDb2dVertex
 10
142.8711
 20
144.3335
 30
0.0
  0
VERTEX
  5
393
100
AcDbEntity
  8
1
  6
CONTINUOUS
 62
     5
100
AcDbVertex
100
AcDb2dVertex
 10
142.8711
 20
142.4575
 30
0.0
  0
SEQEND
  5
394
100
AcDbEntity
  8
1
  6
CONTINUOUS
 62
     5
  0
LINE
  5
395
100
AcDbEntity
  8
1
  6
CONTINUOUS
 62
     5
100
AcDbLine
 10
99.5637
 20
118.3241
 30
0.0
 11
105.0824
 21
115.1705
 31
0.0
  0
TEXT
  5
396
100
AcDbEntity
  8
1
  6
CONTINUOUS
 62
     7
100
AcDbText
 10
96.3216
 20
64.4981
 30
0.0
 40
4.2
  1
480 VOLT JUNCTION BOX DETAIL
  7
MONOTXT
210
0.0
220
0.0
230
1.0
100
AcDbText
  0
LINE
  5
397
100
AcDbEntity
  8
1
  6
CONTINUOUS
 62
     7
100
AcDbLine
 10
124.08
 20
50.8262
 30
0.0
 11
154.6335
 21
50.8262
 31
0.0
  0
TEXT
  5
398
100
AcDbEntity
  8
1
  6
CONTINUOUS
 62
     7
100
AcDbText
 10
365.6974
 20
63.6867
 30
0.0
 40
4.2
  1
480 VOLT CONTROL CABINET
  7
MONOTXT
210
0.0
220
0.0
230
1.0
100
AcDbText
  0
LINE
  5
399
100
AcDbEntity
  8
1
  6
CONTINUOUS
 62
     7
100
AcDbLine
 10
359.9863
 20
50.8091
 30
0.0
 11
390.4661
 21
50.8091
 31
0.0
  0
CIRCLE
  5
39A
100
AcDbEntity
  8
1
  6
CONTINUOUS
 62
     5
100
AcDbCircle
 10
366.129853
 20
104.532012
 30
0.0
 40
7.71375
210
0.0
220
0.0
230
1.0
  0
LINE
  5
39B
100
AcDbEntity
  8
1
  6
CONTINUOUS
 62
     5
100
AcDbLine
 10
357.3119
 20
124.0589
 30
0.0
 11
357.3119
 21
108.4468
 31
0.0
  0
LINE
  5
39C
100
AcDbEntity
  8
1
  6
CONTINUOUS
 62
     5
100
AcDbLine
 10
366.3424
 20
123.9607
 30
0.0
 11
366.3424
 21
108.4628
 31
0.0
  0
LINE
  5
39D
100
AcDbEntity
  8
1
  6
CONTINUOUS
 62
     5
100
AcDbLine
 10
396.7713
 20
130.3431
 30
0.0
 11
382.6366
 21
130.3431
 31
0.0
  0
LINE
  5
39E
100
AcDbEntity
  8
1
  6
CONTINUOUS
 62
     5
100
AcDbLine
 10
397.2621
 20
124.0589
 30
0.0
 11
386.2666
 21
124.0589
 31
0.0
  0
LINE
  5
39F
100
AcDbEntity
  8
1
  6
CONTINUOUS
 62
     5
100
AcDbLine
 10
357.3119
 20
108.4468
 30
0.0
 11
361.6307
 21
108.4468
 31
0.0
  0
LINE
  5
3A0
100
AcDbEntity
  8
1
  6
CONTINUOUS
 62
     5
100
AcDbLine
 10
369.9741
 20
108.4468
 30
0.0
 11
382.6366
 21
108.4468
 31
0.0
  0
LINE
  5
3A1
100
AcDbEntity
  8
1
  6
CONTINUOUS
 62
     5
100
AcDbLine
 10
343.5397
 20
104.653
 30
0.0
 11
361.6307
 21
104.653
 31
0.0
  0
LINE
  5
3A2
100
AcDbEntity
  8
1
  6
CONTINUOUS
 62
     5
100
AcDbLine
 10
369.9741
 20
104.653
 30
0.0
 11
386.2666
 21
104.653
 31
0.0
  0
LINE
  5
3A3
100
AcDbEntity
  8
1
  6
CONTINUOUS
 62
     5
100
AcDbLine
 10
382.6366
 20
108.4468
 30
0.0
 11
382.6366
 21
130.3431
 31
0.0
  0
LINE
  5
3A4
100
AcDbEntity
  8
1
  6
CONTINUOUS
 62
     5
100
AcDbLine
 10
386.2666
 20
104.653
 30
0.0
 11
386.2666
 21
124.0589
 31
0.0
  0
CIRCLE
  5
3A5
100
AcDbEntity
  8
1
  6
CONTINUOUS
 62
     5
100
AcDbCircle
 10
362.11114
 20
108.354251
 30
0.0
 40
0.9075
210
0.0
220
0.0
230
1.0
  0
CIRCLE
  5
3A6
100
AcDbEntity
  8
1
  6
CONTINUOUS
 62
     5
100
AcDbCircle
 10
362.012979
 20
104.623065
 30
0.0
 40
0.9075
210
0.0
220
0.0
230
1.0
  0
CIRCLE
  5
3A7
100
AcDbEntity
  8
1
  6
CONTINUOUS
 62
     5
100
AcDbCircle
 10
362.11114
 20
100.695405
 30
0.0
 40
0.9075
210
0.0
220
0.0
230
1.0
  0
CIRCLE
  5
3A8
100
AcDbEntity
  8
1
  6
CONTINUOUS
 62
     5
100
AcDbCircle
 10
366.430084
 20
108.550573
 30
0.0
 40
0.9075
210
0.0
220
0.0
230
1.0
  0
CIRCLE
  5
3A9
100
AcDbEntity
  8
1
  6
CONTINUOUS
 62
     5
100
AcDbCircle
 10
369.865577
 20
108.354251
 30
0.0
 40
0.9075
210
0.0
220
0.0
230
1.0
  0
CIRCLE
  5
3AA
100
AcDbEntity
  8
1
  6
CONTINUOUS
 62
     5
100
AcDbCircle
 10
370.16006
 20
104.721226
 30
0.0
 40
0.9075
210
0.0
220
0.0
230
1.0
  0
TEXT
  5
3AB
100
AcDbEntity
  8
1
  6
CONTINUOUS
 62
     7
100
AcDbText
 10
639.7669
 20
76.1504
 30
0.0
 40
8.3912
  1
SIGN LIGHTING WITH
  7
TXT
 72
     1
 11
702.0525
 21
84.5416
 31
0.0
210
0.0
220
0.0
230
1.0
100
AcDbText
 73
     3
  0
TEXT
  5
3AC
100
AcDbEntity
  8
1
  6
CONTINUOUS
 62
     7
100
AcDbText
 10
643.8926
 20
65.3592
 30
0.0
 40
8.3912
  1
ROADWAY LIGHTING
  7
TXT
 72
     1
 11
702.0525
 21
73.7504
 31
0.0
210
0.0
220
0.0
230
1.0
100
AcDbText
 73
     3
  0
LINE
  5
3AD
100
AcDbEntity
  8
1
  6
CONTINUOUS
 62
     7
100
AcDbLine
 10
597.538
 20
44.7484
 30
0.0
 11
602.338
 21
44.7484
 31
0.0
  0
LINE
  5
3AE
100
AcDbEntity
  8
1
  6
CONTINUOUS
 62
     7
100
AcDbLine
 10
599.938
 20
48.9053
 30
0.0
 11
597.538
 21
44.7484
 31
0.0
  0
LINE
  5
3AF
100
AcDbEntity
  8
1
  6
CONTINUOUS
 62
     7
100
AcDbLine
 10
602.338
 20
44.7484
 30
0.0
 11
599.938
 21
48.9053
 31
0.0
  0
LINE
  5
3B0
100
AcDbEntity
  8
1
  6
CONTINUOUS
 62
     7
100
AcDbLine
 10
597.6168
 20
39.0015
 30
0.0
 11
602.4168
 21
39.0015
 31
0.0
  0
LINE
  5
3B1
100
AcDbEntity
  8
1
  6
CONTINUOUS
 62
     7
100
AcDbLine
 10
600.0168
 20
43.1584
 30
0.0
 11
597.6168
 21
39.0015
 31
0.0
  0
LINE
  5
3B2
100
AcDbEntity
  8
1
  6
CONTINUOUS
 62
     7
100
AcDbLine
 10
602.4168
 20
39.0015
 30
0.0
 11
600.0168
 21
43.1584
 31
0.0
  0
TEXT
  5
3B3
100
AcDbEntity
  8
1
  6
CONTINUOUS
 62
     7
100
AcDbText
 10
599.5996
 20
45.183
 30
0.0
 40
2.4
  1
1
  7
MONOTXT
210
0.0
220
0.0
230
1.0
100
AcDbText
  0
TEXT
  5
3B4
100
AcDbEntity
  8
1
  6
CONTINUOUS
 62
     7
100
AcDbText
 10
599.2556
 20
39.3515
 30
0.0
 40
2.4
  1
2
  7
MONOTXT
210
0.0
220
0.0
230
1.0
100
AcDbText
  0
LINE
  5
3B5
100
AcDbEntity
  8
1
  6
CONTINUOUS
 62
     7
100
AcDbLine
 10
598.3474
 20
129.4907
 30
0.0
 11
595.9474
 21
133.6476
 31
0.0
  0
LINE
  5
3B6
100
AcDbEntity
  8
1
  6
CONTINUOUS
 62
     7
100
AcDbLine
 10
593.5474
 20
129.4907
 30
0.0
 11
598.3474
 21
129.4907
 31
0.0
  0
LINE
  5
3B7
100
AcDbEntity
  8
1
  6
CONTINUOUS
 62
     7
100
AcDbLine
 10
595.9474
 20
133.6476
 30
0.0
 11
593.5474
 21
129.4907
 31
0.0
  0
LINE
  5
3B8
100
AcDbEntity
  8
1
  6
CONTINUOUS
 62
     7
100
AcDbLine
 10
593.2937
 20
124.0763
 30
0.0
 11
598.0937
 21
124.0763
 31
0.0
  0
LINE
  5
3B9
100
AcDbEntity
  8
1
  6
CONTINUOUS
 62
     7
100
AcDbLine
 10
595.6937
 20
128.2332
 30
0.0
 11
593.2937
 21
124.0763
 31
0.0
  0
LINE
  5
3BA
100
AcDbEntity
  8
1
  6
CONTINUOUS
 62
     7
100
AcDbLine
 10
598.0937
 20
124.0763
 30
0.0
 11
595.6937
 21
128.2332
 31
0.0
  0
TEXT
  5
3BB
100
AcDbEntity
  8
1
  6
CONTINUOUS
 62
     7
100
AcDbText
 10
595.609
 20
129.9253
 30
0.0
 40
2.4
  1
1
  7
MONOTXT
210
0.0
220
0.0
230
1.0
100
AcDbText
  0
TEXT
  5
3BC
100
AcDbEntity
  8
1
  6
CONTINUOUS
 62
     7
100
AcDbText
 10
594.9325
 20
124.4263
 30
0.0
 40
2.4
  1
2
  7
MONOTXT
210
0.0
220
0.0
230
1.0
100
AcDbText
  0
TEXT
  5
3BD
100
AcDbEntity
  8
1
  6
CONTINUOUS
 62
     7
100
AcDbText
 10
600.1463
 20
130.2724
 30
0.0
 40
3.0
  1
DELETED UNIVERSAL QUICK DISCONNECT
  7
MONOTXT
210
0.0
220
0.0
230
1.0
100
AcDbText
  0
TEXT
  5
3BE
100
AcDbEntity
  8
1
  6
CONTINUOUS
 62
     7
100
AcDbText
 10
599.8566
 20
124.573
 30
0.0
 40
3.0
  1
CHANGED TO WIRING AT TOP
  7
MONOTXT
210
0.0
220
0.0
230
1.0
100
AcDbText
  0
TEXT
  5
3BF
100
AcDbEntity
  8
1
  6
CONTINUOUS
 62
     7
100
AcDbText
 10
131.7858
 20
66.8526
 30
0.0
 40
9.6
  1
*
  7
MONOTXT
210
0.0
220
0.0
230
1.0
100
AcDbText
  0
TEXT
  5
3C0
100
AcDbEntity
  8
1
  6
CONTINUOUS
 62
     7
100
AcDbText
 10
78.8804
 20
49.8147
 30
0.0
 40
7.2
  1
*
  7
MONOTXT
210
0.0
220
0.0
230
1.0
100
AcDbText
  0
TEXT
  5
3C1
100
AcDbEntity
  8
1
  6
CONTINUOUS
 62
     7
100
AcDbText
 10
77.0784
 20
51.8233
 30
0.0
 40
3.0
  1
(  ) FOR 480 VOLT UNGROUNDED SYSTEM BOTH WIRES ARE
  7
MONOTXT
 72
     4
 11
148.4288
 21
53.3233
 31
0.0
210
0.0
220
0.0
230
1.0
100
AcDbText
  0
TEXT
  5
3C2
100
AcDbEntity
  8
1
  6
CONTINUOUS
 62
     7
100
AcDbText
 10
96.7674
 20
46.4233
 30
0.0
 40
3.0
  1
PHASE WIRES WITHOUT ANY NEUTRAL WIRE.
  7
MONOTXT
 72
     4
 11
148.417
 21
47.9233
 31
0.0
210
0.0
220
0.0
230
1.0
100
AcDbText
  0
TEXT
  5
3C3
100
AcDbEntity
  8
1
  6
CONTINUOUS
 62
     7
100
AcDbText
 10
400.1758
 20
65.9664
 30
0.0
 40
9.6
  1
*
  7
MONOTXT
210
0.0
220
0.0
230
1.0
100
AcDbText
  0
TEXT
  5
3C4
100
AcDbEntity
  8
1
  6
CONTINUOUS
 62
     7
100
AcDbText
 10
315.2508
 20
49.4954
 30
0.0
 40
7.2
  1
*
  7
MONOTXT
210
0.0
220
0.0
230
1.0
100
AcDbText
  0
TEXT
  5
3C5
100
AcDbEntity
  8
1
  6
CONTINUOUS
 62
     7
100
AcDbText
 10
313.2958
 20
51.6586
 30
0.0
 40
3.0
  1
(  ) FOR 480 VOLT UNGROUNDED SYSTEMS, THE SECOND BREAKER IS INSTALLED AND
  7
MONOTXT
 72
     4
 11
415.213
 21
53.1586
 31
0.0
210
0.0
220
0.0
230
1.0
100
AcDbText
  0
TEXT
  5
3C6
100
AcDbEntity
  8
1
  6
CONTINUOUS
 62
     7
100
AcDbText
 10
325.5674
 20
46.2586
 30
0.0
 40
3.0
  1
WIRE LEAD 3A BECOMES 2A (A PHASE WIRE), WIRE 2B PARALLELS WIRE 1B.
  7
MONOTXT
 72
     4
 11
415.2012
 21
47.7586
 31
0.0
210
0.0
220
0.0
230
1.0
100
AcDbText
  0
LINE
  5
3C7
100
AcDbEntity
  8
1
  6
CONTINUOUS
 62
     7
100
AcDbLine
 10
83.465
 20
324.8104
 30
0.0
 11
77.2932
 21
324.8151
 31
0.0
  0
LINE
  5
3C8
100
AcDbEntity
  8
1
  6
CONTINUOUS
 62
     7
100
AcDbLine
 10
148.9821
 20
341.134
 30
0.0
 11
167.7363
 21
366.3718
 31
0.0
  0
LINE
  5
3C9
100
AcDbEntity
  8
1
  6
CONTINUOUS
 62
     7
100
AcDbLine
 10
167.7363
 20
366.3718
 30
0.0
 11
148.9144
 21
329.5562
 31
0.0
  0
LINE
  5
3CA
100
AcDbEntity
  8
1
  6
CONTINUOUS
 62
     7
100
AcDbLine
 10
167.7363
 20
366.3718
 30
0.0
 11
148.9893
 21
317.5996
 31
0.0
  0
LINE
  5
3CB
100
AcDbEntity
  8
1
  6
CONTINUOUS
 62
     7
100
AcDbLine
 10
167.7363
 20
366.3718
 30
0.0
 11
174.011
 21
366.3718
 31
0.0
  0
INSERT
  5
3CC
100
AcDbEntity
  8
1
  6
CONTINUOUS
 62
     1
100
AcDbBlockReference
  2
LDR
 10
148.9821
 20
341.134
 30
0.0
 41
240.000001
 42
240.000001
 50
233.383973
210
0.0
220
0.0
230
1.0
  0
INSERT
  5
3CD
100
AcDbEntity
  8
1
  6
CONTINUOUS
 62
     1
100
AcDbBlockReference
  2
LDR
 10
148.9144
 20
329.5562
 30
0.0
 41
239.999999
 42
239.999999
 50
242.921704
210
0.0
220
0.0
230
1.0
  0
INSERT
  5
3CE
100
AcDbEntity
  8
1
  6
CONTINUOUS
 62
     1
100
AcDbBlockReference
  2
LDR
 10
148.9893
 20
317.5996
 30
0.0
 41
240.0
 42
240.0
 50
248.974299
210
0.0
220
0.0
230
1.0
  0
TEXT
  5
3CF
100
AcDbEntity
  8
1
  6
CONTINUOUS
 62
     7
100
AcDbText
 10
40.4764
 20
144.1472
 30
0.0
 40
3.0
  1
TYPICAL ROADWAY
  7
MONOTXT
 11
40.4764
 21
147.1472
 31
0.0
210
0.0
220
0.0
230
1.0
100
AcDbText
 73
     3
  0
TEXT
  5
3D0
100
AcDbEntity
  8
1
  6
CONTINUOUS
 62
     7
100
AcDbText
 10
40.4764
 20
138.7472
 30
0.0
 40
3.0
  1
LIGHTING CIRCUIT
  7
MONOTXT
 11
40.4764
 21
141.7472
 31
0.0
210
0.0
220
0.0
230
1.0
100
AcDbText
 73
     3
  0
LINE
  5
3D1
100
AcDbEntity
  8
1
  6
CONTINUOUS
 62
     7
100
AcDbLine
 10
83.9701
 20
112.4912
 30
0.0
 11
85.8976
 21
139.872
 31
0.0
  0
INSERT
  5
3D2
100
AcDbEntity
  8
1
  6
CONTINUOUS
 62
     1
100
AcDbBlockReference
  2
LDR
 10
83.9701
 20
112.4912
 30
0.0
 41
240.000001
 42
240.000001
 50
265.972879
210
0.0
220
0.0
230
1.0
  0
LINE
  5
3D3
100
AcDbEntity
  8
1
  6
CONTINUOUS
 62
     7
100
AcDbLine
 10
85.8976
 20
139.872
 30
0.0
 11
79.7258
 21
139.8767
 31
0.0
  0
TEXT
  5
3D4
100
AcDbEntity
  8
1
  6
CONTINUOUS
 62
     7
100
AcDbText
 10
175.9462
 20
184.5676
 30
0.0
 40
3.0
  1
SPLICE KITS
  7
MONOTXT
 11
175.9462
 21
187.5676
 31
0.0
210
0.0
220
0.0
230
1.0
100
AcDbText
 73
     3
  0
TEXT
  5
3D5
100
AcDbEntity
  8
1
  6
CONTINUOUS
 62
     7
100
AcDbText
 10
175.9462
 20
179.1676
 30
0.0
 40
3.0
  1
(NO FUSES)
  7
MONOTXT
 11
175.9462
 21
182.1676
 31
0.0
210
0.0
220
0.0
230
1.0
100
AcDbText
 73
     3
  0
LINE
  5
3D6
100
AcDbEntity
  8
1
  6
CONTINUOUS
 62
     7
100
AcDbLine
 10
168.893
 20
185.3925
 30
0.0
 11
150.0711
 21
148.5769
 31
0.0
  0
LINE
  5
3D7
100
AcDbEntity
  8
1
  6
CONTINUOUS
 62
     7
100
AcDbLine
 10
168.893
 20
185.3925
 30
0.0
 11
150.146
 21
136.6203
 31
0.0
  0
LINE
  5
3D8
100
AcDbEntity
  8
1
  6
CONTINUOUS
 62
     7
100
AcDbLine
 10
168.893
 20
185.3925
 30
0.0
 11
175.1677
 21
185.3925
 31
0.0
  0
INSERT
  5
3D9
100
AcDbEntity
  8
1
  6
CONTINUOUS
 62
     1
100
AcDbBlockReference
  2
LDR
 10
150.0711
 20
148.5769
 30
0.0
 41
239.999999
 42
239.999999
 50
242.921704
210
0.0
220
0.0
230
1.0
  0
INSERT
  5
3DA
100
AcDbEntity
  8
1
  6
CONTINUOUS
 62
     1
100
AcDbBlockReference
  2
LDR
 10
150.146
 20
136.6203
 30
0.0
 41
240.0
 42
240.0
 50
248.974299
210
0.0
220
0.0
230
1.0
  0
TEXT
  5
3DB
100
AcDbEntity
  8
1
  6
CONTINUOUS
 62
     7
100
AcDbText
 10
189.8668
 20
136.8524
 30
0.0
 40
3.0
  1
TYPICAL ROADWAY
  7
MONOTXT
 11
189.8668
 21
139.8524
 31
0.0
210
0.0
220
0.0
230
1.0
100
AcDbText
 73
     3
  0
TEXT
  5
3DC
100
AcDbEntity
  8
1
  6
CONTINUOUS
 62
     7
100
AcDbText
 10
189.8668
 20
131.4524
 30
0.0
 40
3.0
  1
LIGHTING CIRCUIT
  7
MONOTXT
 11
189.8668
 21
134.4524
 31
0.0
210
0.0
220
0.0
230
1.0
100
AcDbText
 73
     3
  0
TEXT
  5
3DD
100
AcDbEntity
  8
1
  6
CONTINUOUS
 62
     7
100
AcDbText
 10
153.1539
 20
87.4103
 30
0.0
 40
3.0
  1
TO CONTROL CABINET
  7
MONOTXT
210
0.0
220
0.0
230
1.0
100
AcDbText
  0
LINE
  5
3DE
100
AcDbEntity
  8
1
  6
CONTINUOUS
 62
     7
100
AcDbLine
 10
130.3288
 20
115.1296
 30
0.0
 11
146.6171
 21
88.7181
 31
0.0
  0
LINE
  5
3DF
100
AcDbEntity
  8
1
  6
CONTINUOUS
 62
     7
100
AcDbLine
 10
146.6171
 20
88.7181
 30
0.0
 11
153.1539
 21
88.7181
 31
0.0
  0
INSERT
  5
3E0
100
AcDbEntity
  8
1
  6
CONTINUOUS
 62
     1
100
AcDbBlockReference
  2
LDR
 10
135.8097
 20
106.2423
 30
0.0
 41
240.0
 42
240.0
 50
121.66267
210
0.0
220
0.0
230
1.0
  0
INSERT
  5
3E1
100
AcDbEntity
  8
1
  6
CONTINUOUS
 62
     1
100
AcDbBlockReference
  2
LDR
 10
130.3288
 20
115.1296
 30
0.0
 41
239.999999
 42
239.999999
 50
121.662651
210
0.0
220
0.0
230
1.0
  0
INSERT
  5
3E2
100
AcDbEntity
  8
1
  6
CONTINUOUS
 62
     1
100
AcDbBlockReference
  2
LDR
 10
130.3288
 20
115.1296
 30
0.0
 41
239.999999
 42
239.999999
 50
121.662651
210
0.0
220
0.0
230
1.0
  0
LINE
  5
3E3
100
AcDbEntity
  8
1
  6
CONTINUOUS
 62
     7
100
AcDbLine
 10
191.422
 20
112.4964
 30
0.0
 11
210.9375
 21
131.6788
 31
0.0
  0
INSERT
  5
3E4
100
AcDbEntity
  8
1
  6
CONTINUOUS
 62
     1
100
AcDbBlockReference
  2
LDR
 10
191.422
 20
112.4964
 30
0.0
 41
240.0
 42
240.0
 50
224.506827
210
0.0
220
0.0
230
1.0
  0
LINE
  5
3E5
100
AcDbEntity
  8
1
  6
CONTINUOUS
 62
     7
100
AcDbLine
 10
593.2937
 20
118.4823
 30
0.0
 11
598.0937
 21
118.4823
 31
0.0
  0
LINE
  5
3E6
100
AcDbEntity
  8
1
  6
CONTINUOUS
 62
     7
100
AcDbLine
 10
595.6937
 20
122.6392
 30
0.0
 11
593.2937
 21
118.4823
 31
0.0
  0
LINE
  5
3E7
100
AcDbEntity
  8
1
  6
CONTINUOUS
 62
     7
100
AcDbLine
 10
598.0937
 20
118.4823
 30
0.0
 11
595.6937
 21
122.6392
 31
0.0
  0
TEXT
  5
3E8
100
AcDbEntity
  8
1
  6
CONTINUOUS
 62
     7
100
AcDbText
 10
594.9325
 20
118.8323
 30
0.0
 40
2.4
  1
3
  7
MONOTXT
210
0.0
220
0.0
230
1.0
100
AcDbText
  0
TEXT
  5
3E9
100
AcDbEntity
  8
1
  6
CONTINUOUS
 62
     7
100
AcDbText
 10
599.8566
 20
118.9789
 30
0.0
 40
3.0
  1
ADDED METRIC
  7
MONOTXT
210
0.0
220
0.0
230
1.0
100
AcDbText
  0
LINE
  5
3EA
100
AcDbEntity
  8
1
  6
CONTINUOUS
 62
     7
100
AcDbLine
 10
597.3593
 20
33.4107
 30
0.0
 11
602.1593
 21
33.4107
 31
0.0
  0
LINE
  5
3EB
100
AcDbEntity
  8
1
  6
CONTINUOUS
 62
     7
100
AcDbLine
 10
599.7593
 20
37.5676
 30
0.0
 11
597.3593
 21
33.4107
 31
0.0
  0
LINE
  5
3EC
100
AcDbEntity
  8
1
  6
CONTINUOUS
 62
     7
100
AcDbLine
 10
602.1593
 20
33.4107
 30
0.0
 11
599.7593
 21
37.5676
 31
0.0
  0
TEXT
  5
3ED
100
AcDbEntity
  8
1
  6
CONTINUOUS
 62
     7
100
AcDbText
 10
598.9981
 20
33.7607
 30
0.0
 40
2.4
  1
3
  7
MONOTXT
210
0.0
220
0.0
230
1.0
100
AcDbText
  0
TEXT
  5
3EE
100
AcDbEntity
  8
1
  6
CONTINUOUS
 62
     1
100
AcDbText
 10
607.8251
 20
34.1386
 30
0.0
 40
2.4
  1
04-29-94
  7
MONOTXT
 72
     1
 11
616.5463
 21
36.5386
 31
0.0
210
0.0
220
0.0
230
1.0
100
AcDbText
 73
     3
  0
TEXT
  5
3EF
100
AcDbEntity
  8
1
  6
CONTINUOUS
 62
     7
100
AcDbText
 10
714.1604
 20
322.0835
 30
0.0
 40
3.0
  1
FACING AWAY FROM TRAFFIC
  7
MONOTXT
 11
714.1604
 21
325.0835
 31
0.0
210
0.0
220
0.0
230
1.0
100
AcDbText
 73
     3
  0
TEXT
  5
3F0
100
AcDbEntity
  8
1
  6
CONTINUOUS
 62
     7
100
AcDbText
 10
714.1604
 20
316.6835
 30
0.0
 40
3.0
  1
MOUNTING HEIGHT (GROUND
  7
MONOTXT
 11
714.1604
 21
319.6835
 31
0.0
210
0.0
220
0.0
230
1.0
100
AcDbText
 73
     3
  0
TEXT
  5
3F1
100
AcDbEntity
  8
1
  6
CONTINUOUS
 62
     7
100
AcDbText
 10
714.1604
 20
311.2835
 30
0.0
 40
3.0
  1
TO BOTTOM OF CABINET)
  7
MONOTXT
 11
714.1604
 21
314.2835
 31
0.0
210
0.0
220
0.0
230
1.0
100
AcDbText
 73
     3
  0
TEXT
  5
3F2
100
AcDbEntity
  8
1
  6
CONTINUOUS
 62
     7
100
AcDbText
 10
714.1604
 20
305.8835
 30
0.0
 40
3.0
  1
1.2m RURAL AREA
  7
MONOTXT
 11
714.1604
 21
308.8835
 31
0.0
210
0.0
220
0.0
230
1.0
100
AcDbText
 73
     3
  0
TEXT
  5
3F3
100
AcDbEntity
  8
1
  6
CONTINUOUS
 62
     7
100
AcDbText
 10
714.1604
 20
300.4835
 30
0.0
 40
3.0
  1
2.1 URBAN AREA
  7
MONOTXT
 11
714.1604
 21
303.4835
 31
0.0
210
0.0
220
0.0
230
1.0
100
AcDbText
 73
     3
  0
ENDSEC
  0
SECTION
  2
OBJECTS
  0
DICTIONARY
  5
19
100
AcDbDictionary
  3
ACAD_GROUP
350
1A
  3
ACAD_MLINESTYLE
350
1B
  0
DICTIONARY
  5
1A
102
{ACAD_REACTORS
330
19
102
}
100
AcDbDictionary
  0
DICTIONARY
  5
1B
102
{ACAD_REACTORS
330
19
102
}
100
AcDbDictionary
  3
STANDARD
350
1C
  0
MLINESTYLE
  5
1C
102
{ACAD_REACTORS
330
1B
102
}
100
AcDbMlineStyle
  2
STANDARD
 70
     0
  3

 62
     0
 51
90.0
 52
90.0
 71
     2
 49
0.5
 62
   256
  6
BYLAYER
 49
-0.5
 62
   256
  6
BYLAYER
  0
ENDSEC
  0
EOF
